  0
SECTION
  2
HEADER
  9
$ACADVER
  1
AC1009
  9
$INSBASE
 10
0.0
 20
0.0
 30
0.0
  9
$EXTMIN
 10
-59.0000000003115375
 20
-59.0000000003116298
 30
-0.0000000000000552
  9
$EXTMAX
 10
1541.7406866632529727
 20
918.406020168365103
 30
0.0
  9
$LIMMIN
 10
0.0
 20
0.0
  9
$LIMMAX
 10
419.9999999999998863
 20
594.0
  9
$ORTHOMODE
 70
     1
  9
$REGENMODE
 70
     1
  9
$FILLMODE
 70
     1
  9
$QTEXTMODE
 70
     0
  9
$MIRRTEXT
 70
     1
  9
$DRAGMODE
 70
     2
  9
$LTSCALE
 40
20.0
  9
$OSMODE
 70
  1335
  9
$ATTMODE
 70
     1
  9
$TEXTSIZE
 40
3.5
  9
$TRACEWID
 40
0.5
  9
$TEXTSTYLE
  7
STANDARD
  9
$CLAYER
  8
00810X10
  9
$CELTYPE
  6
BYLAYER
  9
$CECOLOR
 62
   256
  9
$DIMSCALE
 40
2.0
  9
$DIMASZ
 40
3.5
  9
$DIMEXO
 40
1.0
  9
$DIMDLI
 40
7.0
  9
$DIMRND
 40
0.0
  9
$DIMDLE
 40
0.0
  9
$DIMEXE
 40
1.0
  9
$DIMTP
 40
0.0
  9
$DIMTM
 40
0.0
  9
$DIMTXT
 40
3.5
  9
$DIMCEN
 40
1.5
  9
$DIMTSZ
 40
0.0
  9
$DIMTOL
 70
     0
  9
$DIMLIM
 70
     0
  9
$DIMTIH
 70
     0
  9
$DIMTOH
 70
     0
  9
$DIMSE1
 70
     0
  9
$DIMSE2
 70
     0
  9
$DIMTAD
 70
     1
  9
$DIMZIN
 70
     8
  9
$DIMBLK
  1

  9
$DIMASO
 70
     1
  9
$DIMSHO
 70
     0
  9
$DIMPOST
  1

  9
$DIMAPOST
  1

  9
$DIMALT
 70
     0
  9
$DIMALTD
 70
     2
  9
$DIMALTF
 40
25.3999999999999986
  9
$DIMLFAC
 40
1.0
  9
$DIMTOFL
 70
     1
  9
$DIMTVP
 40
0.0
  9
$DIMTIX
 70
     0
  9
$DIMSOXD
 70
     0
  9
$DIMSAH
 70
     0
  9
$DIMBLK1
  1

  9
$DIMBLK2
  1

  9
$DIMSTYLE
  2
STANDARD
  9
$DIMCLRD
 70
     0
  9
$DIMCLRE
 70
     0
  9
$DIMCLRT
 70
     1
  9
$DIMTFAC
 40
0.5142857142857143
  9
$DIMGAP
 40
1.5
  9
$LUNITS
 70
     2
  9
$LUPREC
 70
     2
  9
$SKETCHINC
 40
1.0
  9
$FILLETRAD
 40
0.0
  9
$AUNITS
 70
     0
  9
$AUPREC
 70
     0
  9
$MENU
  1
ACAD
  9
$ELEVATION
 40
0.0
  9
$PELEVATION
 40
0.0
  9
$THICKNESS
 40
0.0
  9
$LIMCHECK
 70
     0
  9
$BLIPMODE
 70
     0
  9
$CHAMFERA
 40
0.0
  9
$CHAMFERB
 40
0.0
  9
$SKPOLY
 70
     0
  9
$TDCREATE
 40
2455397.8646990740671754
  9
$TDUPDATE
 40
2460375.370092592202127
  9
$TDINDWG
 40
0.0856437384
  9
$TDUSRTIMER
 40
0.0856437384
  9
$USRTIMER
 70
     1
  9
$ANGBASE
 50
0.0
  9
$ANGDIR
 70
     0
  9
$PDMODE
 70
     0
  9
$PDSIZE
 40
0.0
  9
$PLINEWID
 40
0.0
  9
$COORDS
 70
     1
  9
$SPLFRAME
 70
     0
  9
$SPLINETYPE
 70
     6
  9
$SPLINESEGS
 70
     8
  9
$ATTDIA
 70
     1
  9
$ATTREQ
 70
     0
  9
$HANDLING
 70
     1
  9
$HANDSEED
  5
1325
  9
$SURFTAB1
 70
     6
  9
$SURFTAB2
 70
     6
  9
$SURFTYPE
 70
     6
  9
$SURFU
 70
     6
  9
$SURFV
 70
     6
  9
$UCSNAME
  2

  9
$UCSORG
 10
0.0
 20
0.0
 30
0.0
  9
$UCSXDIR
 10
1.0
 20
0.0
 30
0.0
  9
$UCSYDIR
 10
0.0
 20
1.0
 30
0.0
  9
$PUCSNAME
  2

  9
$PUCSORG
 10
0.0
 20
0.0
 30
0.0
  9
$PUCSXDIR
 10
1.0
 20
0.0
 30
0.0
  9
$PUCSYDIR
 10
0.0
 20
1.0
 30
0.0
  9
$USERI1
 70
     0
  9
$USERI2
 70
     0
  9
$USERI3
 70
     0
  9
$USERI4
 70
     0
  9
$USERI5
 70
     0
  9
$USERR1
 40
0.0
  9
$USERR2
 40
0.0
  9
$USERR3
 40
0.0
  9
$USERR4
 40
0.0
  9
$USERR5
 40
0.0
  9
$WORLDVIEW
 70
     1
  9
$SHADEDGE
 70
     3
  9
$SHADEDIF
 70
    70
  9
$TILEMODE
 70
     1
  9
$MAXACTVP
 70
    16
  9
$PLIMCHECK
 70
     0
  9
$PEXTMIN
 10
1.0000000000000000E+20
 20
1.0000000000000000E+20
 30
1.0000000000000000E+20
  9
$PEXTMAX
 10
-1.0000000000000000E+20
 20
-1.0000000000000000E+20
 30
-1.0000000000000000E+20
  9
$PLIMMIN
 10
0.0
 20
0.0
  9
$PLIMMAX
 10
12.0
 20
9.0
  9
$UNITMODE
 70
     0
  9
$VISRETAIN
 70
     0
  9
$PLINEGEN
 70
     0
  9
$PSLTSCALE
 70
     0
  0
ENDSEC
  0
SECTION
  2
TABLES
  0
TABLE
  2
VPORT
 70
     1
  0
VPORT
  2
*ACTIVE
 70
     0
 10
0.0
 20
0.0
 11
1.0
 21
1.0
 12
0.0
 22
0.0
 13
0.0
 23
0.0
 14
1.0
 24
1.0
 15
10.0
 25
10.0
 16
-0.00000000000054
 26
0.0
 36
2137.9500470421598948
 17
121.7061486703250068
 27
93.884385503237084
 37
-0.0000000000000416
 40
771.0019279341640868
 41
2.1036960985626281
 42
50.0
 43
0.0
 44
0.0
 50
0.0
 51
0.0
 71
     0
 72
  1500
 73
     1
 74
     0
 75
     0
 76
     0
 77
     0
 78
     0
  0
ENDTAB
  0
TABLE
  2
LTYPE
 70
     3
  0
LTYPE
  2
CONTINUOUS
 70
     0
  3
Solid line
 72
    65
 73
     0
 40
0.0
  0
LTYPE
  2
AUSGEZOGEN
 70
     0
  3
Ausgezogene Linie
 72
    65
 73
     0
 40
0.0
  0
LTYPE
  2
VERDECKT
 70
     0
  3
Verdeckt __ __ __ __ __ __ __ __ __ __ __ __ __
 72
    65
 73
     2
 40
0.375
 49
0.25
 49
-0.125
  0
ENDTAB
  0
TABLE
  2
LAYER
 70
     6
  0
LAYER
  2
0
 70
     0
 62
     7
  6
CONTINUOUS
  0
LAYER
  2
VOLL
 70
     0
 62
     1
  6
CONTINUOUS
  0
LAYER
  2
BEM
 70
     0
 62
     7
  6
CONTINUOUS
  0
LAYER
  2
TEXT
 70
     0
 62
     7
  6
CONTINUOUS
  0
LAYER
  2
DEFPOINTS
 70
     0
 62
     7
  6
AUSGEZOGEN
  0
LAYER
  2
00810X10
 70
     0
 62
     7
  6
CONTINUOUS
  0
ENDTAB
  0
TABLE
  2
STYLE
 70
     3
  0
STYLE
  2
STANDARD
 70
     0
 40
0.0
 41
0.8
 50
0.0
 71
     0
 42
3.5
  3
simplex.shx
  4

  0
STYLE
  2
GREEKS
 70
     0
 40
0.0
 41
0.8
 50
0.0
 71
     0
 42
2.5
  3
SIMPLEX.shx
  4

  0
STYLE
  2

 70
     1
 40
0.0
 41
1.0
 50
0.0
 71
     0
 42
2.5
  3
ltypeshp.shx
  4

  0
ENDTAB
  0
TABLE
  2
VIEW
 70
     0
  0
ENDTAB
  0
TABLE
  2
UCS
 70
     0
  0
ENDTAB
  0
TABLE
  2
APPID
 70
     6
  0
APPID
  2
ACAD
 70
     0
  0
APPID
  2
ACAD_NAV_VCDISPLAY
 70
     0
  0
APPID
  2
ACAUTHENVIRON
 70
     0
  0
APPID
  2
ACDBDYNAMICBLOCKTRUENAME
 70
     0
  0
APPID
  2
ACDBDYNAMICBLOCKGUID
 70
     0
  0
APPID
  2
ACAD_MLEADERVER
 70
     0
  0
ENDTAB
  0
TABLE
  2
DIMSTYLE
 70
     1
  0
DIMSTYLE
  2
STANDARD
 70
     0
  3

  4

  5

  6

  7

 40
1.0
 41
0.18
 42
0.0625
 43
0.38
 44
0.18
 45
0.0
 46
0.0
 47
0.0
 48
0.0
140
0.18
141
0.09
142
0.0
143
25.3999999999999986
144
1.0
145
0.0
146
1.0
147
0.09
 71
     0
 72
     0
 73
     1
 74
     1
 75
     0
 76
     0
 77
     0
 78
     0
170
     0
171
     2
172
     0
173
     0
174
     0
175
     0
176
     0
177
     0
178
     0
  0
ENDTAB
  0
ENDSEC
  0
SECTION
  2
BLOCKS
  0
BLOCK
  8
0
  2
$MODEL_SPACE
 70
     0
 10
0.0
 20
0.0
 30
0.0
  3
$MODEL_SPACE
  1

  0
ENDBLK
  5
36
  8
0
  0
BLOCK
 67
     1
  8
0
  2
$PAPER_SPACE
 70
     0
 10
0.0
 20
0.0
 30
0.0
  3
$PAPER_SPACE
  1

  0
ENDBLK
  5
34
 67
     1
  8
0
  0
BLOCK
  8
0
  2
A$C2A20FE56
 70
     0
 10
0.0
 20
0.0
 30
0.0
  3
A$C2A20FE56
  1

  0
CIRCLE
  5
12C4
  8
0
  6
CONTINUOUS
 62
     3
 10
0.0000000000000001
 20
0.0
 30
0.0
 40
48.0154442465725424
  0
CIRCLE
  5
12C5
  8
0
  6
CONTINUOUS
 62
     3
 10
0.0000000000000184
 20
0.0000000000000119
 30
0.0
 40
49.0000000000000497
  0
CIRCLE
  5
12C6
  8
0
  6
CONTINUOUS
 62
     3
 10
0.0000000000001663
 20
0.0000000000000147
 30
0.0
 40
55.706755837924959
  0
CIRCLE
  5
12C7
  8
0
  6
CONTINUOUS
 62
     3
 10
0.0000000000001661
 20
0.0000000000000146
 30
0.0
 40
53.894140263851682
  0
CIRCLE
  5
12C8
  8
0
  6
CONTINUOUS
 62
     3
 10
0.0000000000001635
 20
0.0000000000000139
 30
0.0
 40
59.0000000003116583
  0
CIRCLE
  5
12C9
  8
0
  6
CONTINUOUS
 62
     3
 10
0.000000000000099
 20
0.0000000000000118
 30
0.0
 40
52.9999999980956034
  0
CIRCLE
  5
12CA
  8
0
  6
VERDECKT
 62
     1
 10
0.0
 20
0.0
 30
0.0
 40
50.0
  0
CIRCLE
  5
12CB
  8
0
  6
VERDECKT
 62
     1
 10
0.0000000000000184
 20
0.0000000000000119
 30
0.0
 40
51.0000000000001208
  0
CIRCLE
  5
12CC
  8
0
  6
VERDECKT
 62
     1
 10
0.000000000000099
 20
0.0000000000000118
 30
0.0
 40
55.0000000000000568
  0
CIRCLE
  5
12CD
  8
0
  6
VERDECKT
 62
     1
 10
0.0000000000001635
 20
0.0000000000000139
 30
0.0
 40
57.0000000000000568
  0
ENDBLK
  5
124C
  8
0
  0
BLOCK
  8
0
  2
A$C5A648149
 70
     0
 10
0.0
 20
0.0
 30
0.0
  3
A$C5A648149
  1

  0
LINE
  5
1288
  8
0
  6
CONTINUOUS
 62
     3
 10
50.0
 20
-0.0000000000000092
 30
0.0
 11
-50.0
 21
0.0000000000000092
 31
0.0
210
0.0
220
1.0
230
-0.0000000000000002
  0
LINE
  5
1289
  8
0
  6
CONTINUOUS
 62
     3
 10
51.0000000000000995
 20
7.9999999999999911
 30
-0.0000000000000018
 11
-51.0000000000001208
 21
8.0000000000000107
 31
-0.0000000000000018
210
0.0
220
1.0
230
-0.0000000000000002
  0
LINE
  5
128A
  8
0
  6
CONTINUOUS
 62
     3
 10
-55.7067558379248524
 20
240.0000000000001137
 30
-0.0000000000000533
 11
55.7067558379250727
 21
240.0000000000001137
 31
-0.0000000000000533
210
0.0
220
1.0
230
-0.0000000000000002
  0
LINE
  5
128B
  8
0
  6
CONTINUOUS
 62
     3
 10
-49.9999999999999432
 20
0.000000000000016
 30
0.0
 11
-51.0000000000000497
 21
8.0000000000000178
 31
-0.0000000000000018
210
0.0
220
1.0
230
-0.0000000000000002
  0
LINE
  5
128C
  8
0
  6
CONTINUOUS
 62
     3
 10
49.9999999999999432
 20
0.0000000000000067
 30
0.0
 11
51.0000000000000497
 21
8.0000000000000089
 31
-0.0000000000000018
210
0.0
220
1.0
230
-0.0000000000000002
  0
LINE
  5
128D
  8
0
  6
CONTINUOUS
 62
     3
 10
51.0000000000002416
 20
83.9660074801316938
 30
-0.0000000000000186
 11
51.0000000000002203
 21
8.0000000000000018
 31
-0.0000000000000018
210
0.0
220
1.0
230
-0.0000000000000002
  0
LINE
  5
128E
  8
0
  6
CONTINUOUS
 62
     3
 10
-50.9999999999999787
 20
83.9660074801318075
 30
-0.0000000000000186
 11
-51.0
 21
8.0000000000000018
 31
-0.0000000000000018
210
0.0
220
1.0
230
-0.0000000000000002
  0
ARC
  5
128F
  8
0
  6
CONTINUOUS
 62
     3
 10
40.0000000000022666
 20
96.9274888769468248
 30
0.0
 40
14.9999999999977707
210
0.0
220
-0.0000000000000002
230
-1.0
 50
325.6988472432062736
 51
0.0000000000029884
  0
ARC
  5
1290
  8
0
  6
CONTINUOUS
 62
     3
 10
-40.0000000000022169
 20
96.9274888769467964
 30
0.0
 40
14.9999999999978204
210
0.0
220
-0.0000000000000002
230
-1.0
 50
179.999999999997101
 51
214.3011527567936128
  0
ARC
  5
1291
  8
0
  6
CONTINUOUS
 62
     3
 10
58.9999999999992326
 20
83.9660074801322196
 30
0.0
 40
7.9999999999991331
210
0.0
220
-0.0000000000000002
230
-1.0
 50
145.6988472432068136
 51
180.0000000000028137
  0
ARC
  5
1292
  8
0
  6
CONTINUOUS
 62
     3
 10
-58.99999999999919
 20
83.9660074801322054
 30
0.0
 40
7.9999999999990967
210
0.0
220
-0.0000000000000002
230
-1.0
 50
359.9999999999968168
 51
34.3011527567932504
  0
LINE
  5
1293
  8
0
  6
CONTINUOUS
 62
     3
 10
55.0000000000000568
 20
192.5
 30
-0.0000000000000427
 11
55.0000000000000426
 21
96.9274888769475353
 31
-0.0000000000000215
210
0.0
220
1.0
230
-0.0000000000000002
  0
LINE
  5
1294
  8
0
  6
CONTINUOUS
 62
     3
 10
-54.9999999999999432
 20
192.5
 30
-0.0000000000000427
 11
-54.9999999999999574
 21
96.9274888769476206
 31
-0.0000000000000215
210
0.0
220
1.0
230
-0.0000000000000002
  0
ARC
  5
1295
  8
0
  6
CONTINUOUS
 62
     3
 10
204261.6048547081882134
 20
95461.5327595600829227
 30
0.0
 40
225315.7542637579026632
210
0.0
220
-0.0000000000000002
230
-1.0
 50
204.9997139077730992
 51
205.0002860913641882
  0
ARC
  5
1296
  8
0
  6
CONTINUOUS
 62
     3
 10
-204259.6872574953886215
 20
95460.6385710461327108
 30
0.0
 40
225313.6384300760983024
210
0.0
220
-0.0000000000000002
230
-1.0
 50
334.9997139055454909
 51
335.0002860945098178
  0
ARC
  5
1297
  8
0
  6
CONTINUOUS
 62
     3
 10
34.0005630687517311
 20
227.3953733667659947
 30
0.0
 40
24.9994369315598206
210
0.0
220
-0.0000000000000002
230
-1.0
 50
359.999713905789406
 51
25.0002860942071408
  0
ARC
  5
1298
  8
0
  6
CONTINUOUS
 62
     3
 10
-34.0005630687520011
 20
227.3953733667659947
 30
0.0
 40
24.9994369315597709
210
0.0
220
-0.0000000000000002
230
-1.0
 50
154.9997139057929019
 51
180.000286094210594
  0
LINE
  5
1299
  8
0
  6
CONTINUOUS
 62
     3
 10
-58.9999093106995929
 20
209.2330000000000041
 30
-0.0000000000000465
 11
-58.9999999999999503
 21
227.3952485374288983
 31
-0.0000000000000505
210
0.0
220
1.0
230
-0.0000000000000002
  0
LINE
  5
129A
  8
0
  6
CONTINUOUS
 62
     3
 10
58.9999093106998203
 20
209.2330000000000041
 30
-0.0000000000000465
 11
59.0000000000001705
 21
227.3952485374288983
 31
-0.0000000000000505
210
0.0
220
1.0
230
-0.0000000000000002
  0
ARC
  5
129B
  8
0
  6
CONTINUOUS
 62
     3
 10
33.9999999999993818
 20
209.2330000000000041
 30
0.0
 40
24.9999093107002111
210
0.0
220
-0.0000000000000002
230
-1.0
 50
333.1122293409804911
 51
359.9999999999997726
  0
ARC
  5
129C
  8
0
  6
CONTINUOUS
 62
     3
 10
-33.9999999999997584
 20
209.2330000000000041
 30
0.0
 40
24.9999093107000796
210
0.0
220
-0.0000000000000002
230
-1.0
 50
180.0000000000001137
 51
206.8877706590197079
  0
ARC
  5
129D
  8
0
  6
CONTINUOUS
 62
     3
 10
67.0000000000001563
 20
192.5
 30
0.0
 40
12.0000000000001297
210
0.0
220
-0.0000000000000002
230
-1.0
 50
153.1122293409802069
 51
179.9999999999996021
  0
ARC
  5
129E
  8
0
  6
CONTINUOUS
 62
     3
 10
-67.0000000000002558
 20
192.5
 30
0.0
 40
12.0000000000001208
210
0.0
220
-0.0000000000000002
230
-1.0
 50
0.0000000000001399
 51
26.8877706590195587
  0
LINE
  5
129F
  8
0
  6
VERDECKT
 62
     1
 10
49.0
 20
8.1245154965981747
 30
-0.0000000000000018
 11
-48.9999999999999787
 21
8.1245154965981872
 31
-0.0000000000000018
210
0.0
220
1.0
230
-0.0000000000000002
  0
LINE
  5
12A0
  8
0
  6
VERDECKT
 62
     1
 10
48.0154442465725424
 20
0.2480694691785087
 30
-0.0000000000000001
 11
-48.0154442465725282
 21
0.2480694691785263
 31
-0.0000000000000001
210
0.0
220
1.0
230
-0.0000000000000002
  0
LINE
  5
12A1
  8
0
  6
VERDECKT
 62
     1
 10
-53.8941402638515683
 20
239.1547634765186103
 30
-0.0000000000000531
 11
53.8941402638517886
 21
239.1547634765186103
 31
-0.0000000000000531
210
0.0
220
1.0
230
-0.0000000000000002
  0
LINE
  5
12A2
  8
0
  6
VERDECKT
 62
     1
 10
-48.0154442465724784
 20
0.2480694691785335
 30
-0.0000000000000001
 11
-49.0000000000000497
 21
8.1245154965981712
 31
-0.0000000000000018
210
0.0
220
1.0
230
-0.0000000000000002
  0
LINE
  5
12A3
  8
0
  6
VERDECKT
 62
     1
 10
48.0154442465724784
 20
0.2480694691785237
 30
-0.0000000000000001
 11
49.0000000000000497
 21
8.1245154965981659
 31
-0.0000000000000018
210
0.0
220
1.0
230
-0.0000000000000002
  0
LINE
  5
12A4
  8
0
  6
VERDECKT
 62
     1
 10
48.0154442465725424
 20
0.2480694691785088
 30
-0.0000000000000001
 11
50.0
 21
-0.0000000000000091
 31
0.0
210
0.0
220
1.0
230
-0.0000000000000002
  0
LINE
  5
12A5
  8
0
  6
VERDECKT
 62
     1
 10
-48.0154442465725424
 20
0.2480694691785264
 30
-0.0000000000000001
 11
-50.0
 21
0.0000000000000092
 31
0.0
210
0.0
220
1.0
230
-0.0000000000000002
  0
LINE
  5
12A6
  8
0
  6
VERDECKT
 62
     1
 10
49.0000000000001208
 20
83.9660074801316938
 30
-0.0000000000000186
 11
49.0000000000001066
 21
8.1245154965981801
 31
-0.0000000000000018
210
0.0
220
1.0
230
-0.0000000000000002
  0
LINE
  5
12A7
  8
0
  6
VERDECKT
 62
     1
 10
-48.9999999999998721
 20
83.9660074801318075
 30
-0.0000000000000186
 11
-48.9999999999998792
 21
8.1245154965981801
 31
-0.0000000000000018
210
0.0
220
1.0
230
-0.0000000000000002
  0
ARC
  5
12A8
  8
0
  6
VERDECKT
 62
     1
 10
59.0000000000002984
 20
83.9660074801318075
 30
0.0
 40
10.0000000000002398
210
0.0
220
-0.0000000000000002
230
-1.0
 50
145.6988472432088031
 51
179.9999999999998863
  0
ARC
  5
12A9
  8
0
  6
VERDECKT
 62
     1
 10
-59.0000000000002629
 20
83.9660074801317649
 30
0.0
 40
10.0000000000002007
210
0.0
220
-0.0000000000000002
230
-1.0
 50
359.9999999999997726
 51
34.3011527567916019
  0
ARC
  5
12AA
  8
0
  6
VERDECKT
 62
     1
 10
40.0000000000000782
 20
96.9274888769476064
 30
0.0
 40
12.9999999999999591
210
0.0
220
-0.0000000000000002
230
-1.0
 50
325.6988472432084905
 51
0.00000000000007
  0
ARC
  5
12AB
  8
0
  6
VERDECKT
 62
     1
 10
-40.0000000000000711
 20
96.927488876947578
 30
0.0
 40
12.9999999999999805
210
0.0
220
-0.0000000000000002
230
-1.0
 50
180.0000000000001137
 51
214.3011527567911969
  0
LINE
  5
12AC
  8
0
  6
VERDECKT
 62
     1
 10
53.0000000000001066
 20
192.5
 30
-0.0000000000000427
 11
53.0000000000000995
 21
96.9274888769475353
 31
-0.0000000000000215
210
0.0
220
1.0
230
-0.0000000000000002
  0
LINE
  5
12AD
  8
0
  6
VERDECKT
 62
     1
 10
-53.0
 20
192.5
 30
-0.0000000000000427
 11
-53.0000000000000071
 21
96.9274888769476206
 31
-0.0000000000000215
210
0.0
220
1.0
230
-0.0000000000000002
  0
ARC
  5
12AE
  8
0
  6
VERDECKT
 62
     1
 10
66.9990340059027147
 20
192.5002309142882098
 30
0.0
 40
13.9990340078071807
210
0.0
220
-0.0000000000000002
230
-1.0
 50
153.1112842461874948
 51
180.0009450947925131
  0
ARC
  5
12AF
  8
0
  6
VERDECKT
 62
     1
 10
-66.9990340059028284
 20
192.5002309142882098
 30
0.0
 40
13.99903400780717
210
0.0
220
-0.0000000000000002
230
-1.0
 50
359.9990549052074016
 51
26.8887157538126509
  0
ARC
  5
12B0
  8
0
  6
VERDECKT
 62
     1
 10
34.0008388640491219
 20
209.2330000000000041
 30
0.0
 40
22.9991611359508212
210
0.0
220
-0.0000000000000002
230
-1.0
 50
333.1112842461874948
 51
0.0000000000000763
  0
ARC
  5
12B1
  8
0
  6
VERDECKT
 62
     1
 10
-34.000838864049328
 20
209.2330000000000041
 30
0.0
 40
22.999161135950839
210
0.0
220
-0.0000000000000002
230
-1.0
 50
180.0
 51
206.8887157538127042
  0
LINE
  5
12B2
  8
0
  6
VERDECKT
 62
     1
 10
57.0000000000001705
 20
227.3952485374288983
 30
-0.0000000000000505
 11
57.0000000000001705
 21
209.2330000000000041
 31
-0.0000000000000465
210
0.0
220
1.0
230
-0.0000000000000002
  0
LINE
  5
12B3
  8
0
  6
VERDECKT
 62
     1
 10
-56.9999999999999432
 20
227.3952485374288983
 30
-0.0000000000000505
 11
-56.9999999999999432
 21
209.2330000000000041
 31
-0.0000000000000465
210
0.0
220
1.0
230
-0.0000000000000002
  0
ARC
  5
12B4
  8
0
  6
VERDECKT
 62
     1
 10
34.000000000016108
 20
227.3952485374344121
 30
0.0
 40
22.9999999999830713
210
0.0
220
-0.0000000000000002
230
-1.0
 50
359.999999999986187
 51
25.0000000000014211
  0
ARC
  5
12B5
  8
0
  6
VERDECKT
 62
     1
 10
-34.0000000000164277
 20
227.3952485374344121
 30
0.0
 40
22.9999999999829789
210
0.0
220
-0.0000000000000002
230
-1.0
 50
154.9999999999986073
 51
180.000000000013813
  0
LINE
  5
12B6
  8
0
  6
VERDECKT
 62
     1
 10
53.8941402638517886
 20
239.1547634765186103
 30
-0.0000000000000531
 11
54.8450791018436803
 21
237.1154685574637995
 31
-0.0000000000000527
210
0.0
220
1.0
230
-0.0000000000000002
  0
LINE
  5
12B7
  8
0
  6
VERDECKT
 62
     1
 10
-53.8941402638515683
 20
239.1547634765186103
 30
-0.0000000000000531
 11
-54.8450791018434529
 21
237.1154685574637995
 31
-0.0000000000000527
210
0.0
220
1.0
230
-0.0000000000000002
  0
LINE
  5
12B8
  8
0
  6
VERDECKT
 62
     1
 10
-53.894140263851547
 20
239.1547634765186103
 30
-0.0000000000000531
 11
-55.7067558379248524
 21
240.0000000000001137
 31
-0.0000000000000533
210
0.0
220
1.0
230
-0.0000000000000002
  0
LINE
  5
12B9
  8
0
  6
VERDECKT
 62
     1
 10
53.8941402638517815
 20
239.1547634765186103
 30
-0.0000000000000531
 11
55.7067558379250229
 21
240.0
 31
-0.0000000000000533
210
0.0
220
1.0
230
-0.0000000000000002
  0
ENDBLK
  5
1283
  8
0
  0
ENDSEC
  0
SECTION
  2
ENTITIES
  0
TEXT
  5
8F
  8
VOLL
 10
78.076754716981128
 20
31.025947764705851
 30
0.0
 40
1.8
  1

  7
GREEKS
  0
TEXT
  5
10E9
  8
VOLL
 10
259.5096590357471769
 20
513.8024754924311992
 30
0.0
 40
1.8
  1

  7
GREEKS
  0
TEXT
  5
10EA
  8
VOLL
 10
349.1758329614203262
 20
519.0945922081506296
 30
0.0
 40
1.8
  1

  7
GREEKS
  0
TEXT
  5
10EB
  8
TEXT
 10
681.0081011650131586
 20
524.6528277413760861
 30
0.0
 40
2.5
  1
  
  7
GREEKS
 72
     1
 11
683.2700059269179746
 21
524.6528277413760861
 31
0.0
  0
TEXT
  5
10EC
  8
BEM
 10
925.1278184774951114
 20
660.2117097717782599
 30
0.0
 40
2.5
  1
 
 72
     4
 11
926.2587708584476331
 21
660.2117097717782599
 31
0.0
  0
TEXT
  5
10ED
  8
BEM
 10
490.8171626073448124
 20
542.7313063993118476
 30
0.0
 40
2.5
  1

  7
GREEKS
  0
TEXT
  5
10EE
  8
VOLL
 10
476.7509695876233877
 20
522.5480457422769405
 30
0.0
 40
1.8
  1

  7
GREEKS
  0
TEXT
  5
10EF
  8
BEM
 10
511.239034426908006
 20
527.2737700654975015
 30
0.0
 40
2.5
  1

 41
0.8
  7
GREEKS
  0
TEXT
  5
10F0
  8
BEM
 10
511.239034426908006
 20
522.5800015114454027
 30
0.0
 40
2.5
  1

 41
0.8
  7
GREEKS
  0
TEXT
  5
10F1
  8
BEM
 10
511.239034426908006
 20
517.3421576927819387
 30
0.0
 40
2.5
  1

 41
0.8
  7
GREEKS
  0
TEXT
  5
10F2
  8
BEM
 10
511.1660899495336139
 20
512.8369687426842347
 30
0.0
 40
1.8
  1

 41
0.8
  7
GREEKS
  0
TEXT
  5
10F3
  8
BEM
 10
498.4825190699223754
 20
538.4285578389094553
 30
0.0
 40
2.0
  1

 41
0.8
  7
GREEKS
 72
     1
 11
498.4825190699223754
 21
538.4285578389094553
 31
0.0
  0
TEXT
  5
10F4
  8
TEXT
 10
808.5832377912161064
 20
528.1062812755022833
 30
0.0
 40
2.5
  1
  
  7
GREEKS
 72
     1
 11
810.8451425531210361
 21
528.1062812755022833
 31
0.0
  0
TEXT
  5
10F5
  8
BEM
 10
1052.7029551036980592
 20
663.6651633059045707
 30
0.0
 40
2.5
  1
 
 72
     4
 11
1053.8339074846510357
 21
663.6651633059045707
 31
0.0
  0
TEXT
  5
10F6
  8
VOLL
 10
401.4677339829084985
 20
529.9995598042660276
 30
0.0
 40
1.8
  1

  7
GREEKS
  0
TEXT
  5
10F7
  8
TEXT
 10
733.3000021865013878
 20
535.5577953374915978
 30
0.0
 40
2.5
  1
  
  7
GREEKS
 72
     1
 11
735.5619069484063175
 21
535.5577953374915978
 31
0.0
  0
TEXT
  5
10F8
  8
BEM
 10
977.4197194989834543
 20
671.1166773678937716
 30
0.0
 40
2.5
  1
 
 72
     4
 11
978.5506718799358623
 21
671.1166773678937716
 31
0.0
  0
TEXT
  5
10F9
  8
BEM
 10
556.6073361397044437
 20
550.3329706939425705
 30
0.0
 40
2.5
  1

  7
GREEKS
  0
TEXT
  5
10FA
  8
VOLL
 10
542.5411431199829622
 20
530.149710036907436
 30
0.0
 40
1.8
  1

  7
GREEKS
  0
TEXT
  5
10FB
  8
BEM
 10
577.0292079592676373
 20
534.8754343601281107
 30
0.0
 40
2.5
  1

 41
0.8
  7
GREEKS
  0
TEXT
  5
10FC
  8
BEM
 10
577.0292079592676373
 20
530.1816658060758982
 30
0.0
 40
2.5
  1

 41
0.8
  7
GREEKS
  0
TEXT
  5
10FD
  8
BEM
 10
577.0292079592676373
 20
524.9438219874124343
 30
0.0
 40
2.5
  1

 41
0.8
  7
GREEKS
  0
TEXT
  5
10FE
  8
BEM
 10
576.956263481893302
 20
520.4386330373148439
 30
0.0
 40
1.8
  1

 41
0.8
  7
GREEKS
  0
TEXT
  5
10FF
  8
BEM
 10
564.2726926022819498
 20
546.0302221335400645
 30
0.0
 40
2.0
  1

 41
0.8
  7
GREEKS
 72
     1
 11
564.2726926022819498
 21
546.0302221335400645
 31
0.0
  0
TEXT
  5
1100
  8
TEXT
 10
874.3734113235759651
 20
535.7079455701330062
 30
0.0
 40
2.5
  1
  
  7
GREEKS
 72
     1
 11
876.6353160854806674
 21
535.7079455701330062
 31
0.0
  0
TEXT
  5
1101
  8
BEM
 10
1118.4931286360579179
 20
671.26682760053518
 30
0.0
 40
2.5
  1
 
 72
     4
 11
1119.6240810170099849
 21
671.26682760053518
 31
0.0
  0
TEXT
  5
1102
  8
VOLL
 10
337.4455225561521274
 20
518.1838502785175251
 30
0.0
 40
1.8
  1

  7
GREEKS
  0
TEXT
  5
1103
  8
TEXT
 10
669.2777907597450167
 20
523.7420858117429816
 30
0.0
 40
2.5
  1
  
  7
GREEKS
 72
     1
 11
671.5396955216498327
 21
523.7420858117429816
 31
0.0
  0
TEXT
  5
1104
  8
BEM
 10
913.3975080722270832
 20
659.3009678421452691
 30
0.0
 40
2.5
  1
 
 72
     4
 11
914.5284604531794912
 21
659.3009678421452691
 31
0.0
  0
TEXT
  5
1105
  8
BEM
 10
502.791135635801993
 20
558.3370809771032555
 30
0.0
 40
2.5
  1

  7
GREEKS
  0
TEXT
  5
1106
  8
VOLL
 10
488.7249426160805115
 20
538.153820320068121
 30
0.0
 40
1.8
  1

  7
GREEKS
  0
TEXT
  5
1107
  8
BEM
 10
523.2130074553651866
 20
542.879544643288682
 30
0.0
 40
2.5
  1

 41
0.8
  7
GREEKS
  0
TEXT
  5
1108
  8
BEM
 10
523.2130074553651866
 20
538.1857760892365832
 30
0.0
 40
2.5
  1

 41
0.8
  7
GREEKS
  0
TEXT
  5
1109
  8
BEM
 10
523.2130074553651866
 20
532.9479322705731192
 30
0.0
 40
2.5
  1

 41
0.8
  7
GREEKS
  0
TEXT
  5
110A
  8
BEM
 10
523.1400629779908513
 20
528.4427433204753015
 30
0.0
 40
1.8
  1

 41
0.8
  7
GREEKS
  0
TEXT
  5
110B
  8
BEM
 10
510.4564920983796128
 20
554.0343324167007495
 30
0.0
 40
2.0
  1

 41
0.8
  7
GREEKS
 72
     1
 11
510.4564920983796128
 21
554.0343324167007495
 31
0.0
  0
TEXT
  5
110C
  8
TEXT
 10
820.5572108196735144
 20
543.7120558532936911
 30
0.0
 40
2.5
  1
  
  7
GREEKS
 72
     1
 11
822.8191155815784441
 21
543.7120558532936911
 31
0.0
  0
TEXT
  5
110D
  8
BEM
 10
1064.6769281321560356
 20
679.2709378836959786
 30
0.0
 40
2.5
  1
 
 72
     4
 11
1065.8078805131081026
 21
679.2709378836959786
 31
0.0
  0
TEXT
  5
110E
  8
VOLL
 10
665.027098809263407
 20
523.3022936560200833
 30
0.0
 40
1.8
  1

  7
GREEKS
  0
TEXT
  5
110F
  8
VOLL
 10
754.6932727349366132
 20
528.5944103717394
 30
0.0
 40
1.8
  1

  7
GREEKS
  0
TEXT
  5
1110
  8
TEXT
 10
1086.5255409385290477
 20
534.1526459049648565
 30
0.0
 40
2.5
  1
  
  7
GREEKS
 72
     1
 11
1088.7874457004340911
 21
534.1526459049648565
 31
0.0
  0
TEXT
  5
1111
  8
BEM
 10
1330.6452582510110005
 20
669.711527935367144
 30
0.0
 40
2.5
  1
 
 72
     4
 11
1331.776210631963977
 21
669.711527935367144
 31
0.0
  0
TEXT
  5
1112
  8
BEM
 10
896.3346023808609289
 20
552.2311245629008454
 30
0.0
 40
2.5
  1

  7
GREEKS
  0
TEXT
  5
1113
  8
VOLL
 10
882.268409361139561
 20
532.0478639058657109
 30
0.0
 40
1.8
  1

  7
GREEKS
  0
TEXT
  5
1114
  8
BEM
 10
916.7564742004243499
 20
536.7735882290862719
 30
0.0
 40
2.5
  1

 41
0.8
  7
GREEKS
  0
TEXT
  5
1115
  8
BEM
 10
916.7564742004243499
 20
532.0798196750341731
 30
0.0
 40
2.5
  1

 41
0.8
  7
GREEKS
  0
TEXT
  5
1116
  8
BEM
 10
916.7564742004243499
 20
526.8419758563707092
 30
0.0
 40
2.5
  1

 41
0.8
  7
GREEKS
  0
TEXT
  5
1117
  8
BEM
 10
916.6835297230497872
 20
522.3367869062728914
 30
0.0
 40
1.8
  1

 41
0.8
  7
GREEKS
  0
TEXT
  5
1118
  8
BEM
 10
903.9999588434385487
 20
547.9283760024983394
 30
0.0
 40
2.0
  1

 41
0.8
  7
GREEKS
 72
     1
 11
903.9999588434385487
 21
547.9283760024983394
 31
0.0
  0
TEXT
  5
1119
  8
TEXT
 10
1214.1006775647319955
 20
537.6060994390911674
 30
0.0
 40
2.5
  1
  
  7
GREEKS
 72
     1
 11
1216.3625823266370389
 21
537.6060994390911674
 31
0.0
  0
TEXT
  5
111A
  8
BEM
 10
1458.2203948772150852
 20
673.1649814694934548
 30
0.0
 40
2.5
  1
 
 72
     4
 11
1459.3513472581669248
 21
673.1649814694934548
 31
0.0
  0
TEXT
  5
111B
  8
VOLL
 10
672.9404135010468053
 20
500.3532207635195164
 30
0.0
 40
1.8
  1

  7
GREEKS
  0
TEXT
  5
111C
  8
VOLL
 10
762.6065874267197842
 20
505.6453374792387763
 30
0.0
 40
1.8
  1

  7
GREEKS
  0
TEXT
  5
111D
  8
TEXT
 10
1094.4388556303119913
 20
511.2035730124642896
 30
0.0
 40
2.5
  1
  
  7
GREEKS
 72
     1
 11
1096.7007603922170347
 21
511.2035730124642896
 31
0.0
  0
TEXT
  5
111E
  8
BEM
 10
1338.558572942795081
 20
646.7624550428665771
 30
0.0
 40
2.5
  1
 
 72
     4
 11
1339.6895253237469205
 21
646.7624550428665771
 31
0.0
  0
TEXT
  5
111F
  8
BEM
 10
904.2479170726442135
 20
529.2820516704001648
 30
0.0
 40
2.5
  1

  7
GREEKS
  0
TEXT
  5
1120
  8
VOLL
 10
890.1817240529228457
 20
509.0987910133650871
 30
0.0
 40
1.8
  1

  7
GREEKS
  0
TEXT
  5
1121
  8
BEM
 10
924.6697888922074071
 20
513.8245153365858187
 30
0.0
 40
2.5
  1

 41
0.8
  7
GREEKS
  0
TEXT
  5
1122
  8
BEM
 10
924.6697888922074071
 20
509.1307467825336062
 30
0.0
 40
2.5
  1

 41
0.8
  7
GREEKS
  0
TEXT
  5
1123
  8
BEM
 10
924.6697888922074071
 20
503.8929029638700854
 30
0.0
 40
2.5
  1

 41
0.8
  7
GREEKS
  0
TEXT
  5
1124
  8
BEM
 10
924.5968444148330718
 20
499.3877140137723813
 30
0.0
 40
1.8
  1

 41
0.8
  7
GREEKS
  0
TEXT
  5
1125
  8
BEM
 10
911.913273535221947
 20
524.9793031099977725
 30
0.0
 40
2.0
  1

 41
0.8
  7
GREEKS
 72
     1
 11
911.913273535221947
 21
524.9793031099977725
 31
0.0
  0
TEXT
  5
1126
  8
TEXT
 10
1222.0139922565149391
 20
514.6570265465907141
 30
0.0
 40
2.5
  1
  
  7
GREEKS
 72
     1
 11
1224.2758970184199825
 21
514.6570265465907141
 31
0.0
  0
TEXT
  5
1127
  8
BEM
 10
1466.1337095689980288
 20
650.2159085769927742
 30
0.0
 40
2.5
  1
 
 72
     4
 11
1467.2646619499500957
 21
650.2159085769927742
 31
0.0
  0
TEXT
  5
1128
  8
VOLL
 10
814.8984884482080133
 20
516.5503050753543448
 30
0.0
 40
1.8
  1

  7
GREEKS
  0
TEXT
  5
1129
  8
TEXT
 10
1146.7307566518009025
 20
522.108540608579915
 30
0.0
 40
2.5
  1
  
  7
GREEKS
 72
     1
 11
1148.992661413705946
 21
522.108540608579915
 31
0.0
  0
TEXT
  5
112A
  8
BEM
 10
1390.8504739642830828
 20
657.6674226389820888
 30
0.0
 40
2.5
  1
 
 72
     4
 11
1391.9814263452349223
 21
657.6674226389820888
 31
0.0
  0
TEXT
  5
112B
  8
BEM
 10
970.0380906050040721
 20
536.8837159650308877
 30
0.0
 40
2.5
  1

  7
GREEKS
  0
TEXT
  5
112C
  8
VOLL
 10
955.9718975852825906
 20
516.7004553079957532
 30
0.0
 40
1.8
  1

  7
GREEKS
  0
TEXT
  5
112D
  8
BEM
 10
990.4599624245671521
 20
521.4261796312164279
 30
0.0
 40
2.5
  1

 41
0.8
  7
GREEKS
  0
TEXT
  5
112E
  8
BEM
 10
990.4599624245671521
 20
516.7324110771642154
 30
0.0
 40
2.5
  1

 41
0.8
  7
GREEKS
  0
TEXT
  5
112F
  8
BEM
 10
990.4599624245671521
 20
511.4945672585005809
 30
0.0
 40
2.5
  1

 41
0.8
  7
GREEKS
  0
TEXT
  5
1130
  8
BEM
 10
990.3870179471928168
 20
506.9893783084029906
 30
0.0
 40
1.8
  1

 41
0.8
  7
GREEKS
  0
TEXT
  5
1131
  8
BEM
 10
977.7034470675814646
 20
532.5809674046283817
 30
0.0
 40
2.0
  1

 41
0.8
  7
GREEKS
 72
     1
 11
977.7034470675814646
 21
532.5809674046283817
 31
0.0
  0
TEXT
  5
1132
  8
TEXT
 10
1287.8041657888750251
 20
522.2586908412213234
 30
0.0
 40
2.5
  1
  
  7
GREEKS
 72
     1
 11
1290.0660705507800685
 21
522.2586908412213234
 31
0.0
  0
TEXT
  5
1133
  8
BEM
 10
1531.9238831013578874
 20
657.8175728716233834
 30
0.0
 40
2.5
  1
 
 72
     4
 11
1533.0548354823099544
 21
657.8175728716233834
 31
0.0
  0
TEXT
  5
1134
  8
VOLL
 10
445.5156287613239101
 20
711.2125345551602322
 30
0.0
 40
1.8
  1

  7
GREEKS
  0
TEXT
  5
1135
  8
VOLL
 10
535.1818026869970026
 20
716.504651270879549
 30
0.0
 40
1.8
  1

  7
GREEKS
  0
TEXT
  5
1136
  8
TEXT
 10
867.0140708905901192
 20
722.0628868041051192
 30
0.0
 40
2.5
  1
  
  7
GREEKS
 72
     1
 11
869.2759756524948216
 21
722.0628868041051192
 31
0.0
  0
TEXT
  5
1137
  8
BEM
 10
1111.1337882030720721
 20
857.6217688345072929
 30
0.0
 40
2.5
  1
 
 72
     4
 11
1112.2647405840239117
 21
857.6217688345072929
 31
0.0
  0
TEXT
  5
1138
  8
BEM
 10
676.8231323329215456
 20
740.1413654620409943
 30
0.0
 40
2.5
  1

  7
GREEKS
  0
TEXT
  5
1139
  8
VOLL
 10
662.7569393132000641
 20
719.9581048050057461
 30
0.0
 40
1.8
  1

  7
GREEKS
  0
TEXT
  5
113A
  8
BEM
 10
697.2450041524847393
 20
724.6838291282264208
 30
0.0
 40
2.5
  1

 41
0.8
  7
GREEKS
  0
TEXT
  5
113B
  8
BEM
 10
697.2450041524847393
 20
719.990060574174322
 30
0.0
 40
2.5
  1

 41
0.8
  7
GREEKS
  0
TEXT
  5
113C
  8
BEM
 10
697.2450041524847393
 20
714.7522167555107444
 30
0.0
 40
2.5
  1

 41
0.8
  7
GREEKS
  0
TEXT
  5
113D
  8
BEM
 10
697.1720596751102903
 20
710.2470278054131541
 30
0.0
 40
1.8
  1

 41
0.8
  7
GREEKS
  0
TEXT
  5
113E
  8
BEM
 10
684.4884887954990518
 20
735.8386169016384883
 30
0.0
 40
2.0
  1

 41
0.8
  7
GREEKS
 72
     1
 11
684.4884887954990518
 21
735.8386169016384883
 31
0.0
  0
TEXT
  5
113F
  8
TEXT
 10
994.5892075167929534
 20
725.51634033823143
 30
0.0
 40
2.5
  1
  
  7
GREEKS
 72
     1
 11
996.8511122786977694
 21
725.51634033823143
 31
0.0
  0
TEXT
  5
1140
  8
BEM
 10
1238.7089248292750199
 20
861.0752223686336038
 30
0.0
 40
2.5
  1
 
 72
     4
 11
1239.8398772102270868
 21
861.0752223686336038
 31
0.0
  0
TEXT
  5
1141
  8
VOLL
 10
587.4737037084853455
 20
727.409618866994947
 30
0.0
 40
1.8
  1

  7
GREEKS
  0
TEXT
  5
1142
  8
TEXT
 10
919.3059719120782347
 20
732.9678544002205172
 30
0.0
 40
2.5
  1
  
  7
GREEKS
 72
     1
 11
921.5678766739830508
 21
732.9678544002205172
 31
0.0
  0
TEXT
  5
1143
  8
BEM
 10
1163.4256892245600739
 20
868.5267364306226909
 30
0.0
 40
2.5
  1
 
 72
     4
 11
1164.5566416055119134
 21
868.5267364306226909
 31
0.0
  0
TEXT
  5
1144
  8
BEM
 10
742.6133058652810632
 20
747.7430297566716035
 30
0.0
 40
2.5
  1

  7
GREEKS
  0
TEXT
  5
1145
  8
VOLL
 10
728.5471128455598091
 20
727.5597690996363553
 30
0.0
 40
1.8
  1

  7
GREEKS
  0
TEXT
  5
1146
  8
BEM
 10
763.0351776848442569
 20
732.2854934228570301
 30
0.0
 40
2.5
  1

 41
0.8
  7
GREEKS
  0
TEXT
  5
1147
  8
BEM
 10
763.0351776848442569
 20
727.5917248688049312
 30
0.0
 40
2.5
  1

 41
0.8
  7
GREEKS
  0
TEXT
  5
1148
  8
BEM
 10
763.0351776848442569
 20
722.3538810501413536
 30
0.0
 40
2.5
  1

 41
0.8
  7
GREEKS
  0
TEXT
  5
1149
  8
BEM
 10
762.9622332074699216
 20
717.8486921000437633
 30
0.0
 40
1.8
  1

 41
0.8
  7
GREEKS
  0
TEXT
  5
114A
  8
BEM
 10
750.2786623278587967
 20
743.4402811962690976
 30
0.0
 40
2.0
  1

 41
0.8
  7
GREEKS
 72
     1
 11
750.2786623278587967
 21
743.4402811962690976
 31
0.0
  0
TEXT
  5
114B
  8
TEXT
 10
1060.3793810491529257
 20
733.1180046328620392
 30
0.0
 40
2.5
  1
  
  7
GREEKS
 72
     1
 11
1062.6412858110570596
 21
733.1180046328620392
 31
0.0
  0
TEXT
  5
114C
  8
BEM
 10
1304.4990983616351059
 20
868.6768866632640993
 30
0.0
 40
2.5
  1
 
 72
     4
 11
1305.6300507425869455
 21
868.6768866632640993
 31
0.0
  0
TEXT
  5
114D
  8
VOLL
 10
523.4514922817288607
 20
715.5939093412464445
 30
0.0
 40
1.8
  1

  7
GREEKS
  0
TEXT
  5
114E
  8
TEXT
 10
855.2837604853217499
 20
721.1521448744719009
 30
0.0
 40
2.5
  1
  
  7
GREEKS
 72
     1
 11
857.5456652472264523
 21
721.1521448744719009
 31
0.0
  0
TEXT
  5
114F
  8
BEM
 10
1099.4034777978040438
 20
856.7110269048740747
 30
0.0
 40
2.5
  1
 
 72
     4
 11
1100.5344301787561108
 21
856.7110269048740747
 31
0.0
  0
TEXT
  5
1150
  8
BEM
 10
688.7971053613788399
 20
755.7471400398321748
 30
0.0
 40
2.5
  1

  7
GREEKS
  0
TEXT
  5
1151
  8
VOLL
 10
674.7309123416572447
 20
735.5638793827970403
 30
0.0
 40
1.8
  1

  7
GREEKS
  0
TEXT
  5
1152
  8
BEM
 10
709.2189771809420336
 20
740.2896037060176013
 30
0.0
 40
2.5
  1

 41
0.8
  7
GREEKS
  0
TEXT
  5
1153
  8
BEM
 10
709.2189771809420336
 20
735.5958351519655025
 30
0.0
 40
2.5
  1

 41
0.8
  7
GREEKS
  0
TEXT
  5
1154
  8
BEM
 10
709.2189771809420336
 20
730.3579913333019249
 30
0.0
 40
2.5
  1

 41
0.8
  7
GREEKS
  0
TEXT
  5
1155
  8
BEM
 10
709.1460327035675846
 20
725.8528023832043345
 30
0.0
 40
1.8
  1

 41
0.8
  7
GREEKS
  0
TEXT
  5
1156
  8
BEM
 10
696.4624618239563461
 20
751.4443914794296688
 30
0.0
 40
2.0
  1

 41
0.8
  7
GREEKS
 72
     1
 11
696.4624618239563461
 21
751.4443914794296688
 31
0.0
  0
TEXT
  5
1157
  8
TEXT
 10
1006.5631805452500203
 20
741.1221149160226105
 30
0.0
 40
2.5
  1
  
  7
GREEKS
 72
     1
 11
1008.82508530715495
 21
741.1221149160226105
 31
0.0
  0
TEXT
  5
1158
  8
BEM
 10
1250.6828978577320868
 20
876.6809969464246706
 30
0.0
 40
2.5
  1
 
 72
     4
 11
1251.8138502386850632
 21
876.6809969464246706
 31
0.0
  0
TEXT
  5
1159
  8
VOLL
 10
451.9169816938644999
 20
689.5564375465961575
 30
0.0
 40
1.8
  1

  7
GREEKS
  0
TEXT
  5
115A
  8
VOLL
 10
541.5831556195377061
 20
694.8485542623154743
 30
0.0
 40
1.8
  1

  7
GREEKS
  0
TEXT
  5
115B
  8
TEXT
 10
873.4154238231305953
 20
700.4067897955410444
 30
0.0
 40
2.5
  1
  
  7
GREEKS
 72
     1
 11
875.6773285850355251
 21
700.4067897955410444
 31
0.0
  0
TEXT
  5
115C
  8
BEM
 10
1117.5351411356130029
 20
835.9656718259433319
 30
0.0
 40
2.5
  1
 
 72
     4
 11
1118.6660935165650699
 21
835.9656718259433319
 31
0.0
  0
TEXT
  5
115D
  8
BEM
 10
683.2244852654622491
 20
718.4852684534769196
 30
0.0
 40
2.5
  1

  7
GREEKS
  0
TEXT
  5
115E
  8
VOLL
 10
669.1582922457406539
 20
698.3020077964417851
 30
0.0
 40
1.8
  1

  7
GREEKS
  0
TEXT
  5
115F
  8
BEM
 10
703.6463570850254428
 20
703.0277321196623461
 30
0.0
 40
2.5
  1

 41
0.8
  7
GREEKS
  0
TEXT
  5
1160
  8
BEM
 10
703.6463570850254428
 20
698.3339635656102473
 30
0.0
 40
2.5
  1

 41
0.8
  7
GREEKS
  0
TEXT
  5
1161
  8
BEM
 10
703.6463570850254428
 20
693.0961197469468971
 30
0.0
 40
2.5
  1

 41
0.8
  7
GREEKS
  0
TEXT
  5
1162
  8
BEM
 10
703.5734126076508801
 20
688.590930796849193
 30
0.0
 40
1.8
  1

 41
0.8
  7
GREEKS
  0
TEXT
  5
1163
  8
BEM
 10
690.8898417280397553
 20
714.1825198930744136
 30
0.0
 40
2.0
  1

 41
0.8
  7
GREEKS
 72
     1
 11
690.8898417280397553
 21
714.1825198930744136
 31
0.0
  0
TEXT
  5
1164
  8
TEXT
 10
1000.9905604493329747
 20
703.8602433296673553
 30
0.0
 40
2.5
  1
  
  7
GREEKS
 72
     1
 11
1003.2524652112380181
 21
703.8602433296673553
 31
0.0
  0
TEXT
  5
1165
  8
BEM
 10
1245.1102777618150412
 20
839.4191253600697564
 30
0.0
 40
2.5
  1
 
 72
     4
 11
1246.2412301427680177
 21
839.4191253600697564
 31
0.0
  0
TEXT
  5
1166
  8
VOLL
 10
593.8750566410259353
 20
705.753521858430986
 30
0.0
 40
1.8
  1

  7
GREEKS
  0
TEXT
  5
1167
  8
TEXT
 10
925.7073248446189382
 20
711.3117573916565561
 30
0.0
 40
2.5
  1
  
  7
GREEKS
 72
     1
 11
927.9692296065237542
 21
711.3117573916565561
 31
0.0
  0
TEXT
  5
1168
  8
BEM
 10
1169.8270421571010047
 20
846.8706394220587299
 30
0.0
 40
2.5
  1
 
 72
     4
 11
1170.9579945380530717
 21
846.8706394220587299
 31
0.0
  0
TEXT
  5
1169
  8
BEM
 10
749.0146587978218804
 20
726.0869327481075288
 30
0.0
 40
2.5
  1

  7
GREEKS
  0
TEXT
  5
116A
  8
VOLL
 10
734.9484657781005126
 20
705.9036720910722806
 30
0.0
 40
1.8
  1

  7
GREEKS
  0
TEXT
  5
116B
  8
BEM
 10
769.436530617385074
 20
710.6293964142929553
 30
0.0
 40
2.5
  1

 41
0.8
  7
GREEKS
  0
TEXT
  5
116C
  8
BEM
 10
769.436530617385074
 20
705.9356278602408565
 30
0.0
 40
2.5
  1

 41
0.8
  7
GREEKS
  0
TEXT
  5
116D
  8
BEM
 10
769.436530617385074
 20
700.6977840415773926
 30
0.0
 40
2.5
  1

 41
0.8
  7
GREEKS
  0
TEXT
  5
116E
  8
BEM
 10
769.3635861400106251
 20
696.1925950914798022
 30
0.0
 40
1.8
  1

 41
0.8
  7
GREEKS
  0
TEXT
  5
116F
  8
BEM
 10
756.6800152603993865
 20
721.7841841877050229
 30
0.0
 40
2.0
  1

 41
0.8
  7
GREEKS
 72
     1
 11
756.6800152603993865
 21
721.7841841877050229
 31
0.0
  0
TEXT
  5
1170
  8
TEXT
 10
1066.7807339816929471
 20
711.4619076242979645
 30
0.0
 40
2.5
  1
  
  7
GREEKS
 72
     1
 11
1069.0426387435979905
 21
711.4619076242979645
 31
0.0
  0
TEXT
  5
1171
  8
BEM
 10
1310.9004512941748999
 20
847.020789654700252
 30
0.0
 40
2.5
  1
 
 72
     4
 11
1312.0314036751281037
 21
847.020789654700252
 31
0.0
  0
TEXT
  5
1172
  8
VOLL
 10
529.8528452142694505
 20
693.9378123326823697
 30
0.0
 40
1.8
  1

  7
GREEKS
  0
TEXT
  5
1173
  8
TEXT
 10
861.6851134178624534
 20
699.4960478659080536
 30
0.0
 40
2.5
  1
  
  7
GREEKS
 72
     1
 11
863.9470181797672694
 21
699.4960478659080536
 31
0.0
  0
TEXT
  5
1174
  8
BEM
 10
1105.8048307303440652
 20
835.0549298963104548
 30
0.0
 40
2.5
  1
 
 72
     4
 11
1106.9357831112970416
 21
835.0549298963104548
 31
0.0
  0
TEXT
  5
1175
  8
BEM
 10
695.1984582939195434
 20
734.0910430312682138
 30
0.0
 40
2.5
  1

  7
GREEKS
  0
TEXT
  5
1176
  8
VOLL
 10
681.1322652741979482
 20
713.9077823742329656
 30
0.0
 40
1.8
  1

  7
GREEKS
  0
TEXT
  5
1177
  8
BEM
 10
715.620330113482737
 20
718.6335066974536403
 30
0.0
 40
2.5
  1

 41
0.8
  7
GREEKS
  0
TEXT
  5
1178
  8
BEM
 10
715.620330113482737
 20
713.9397381434015415
 30
0.0
 40
2.5
  1

 41
0.8
  7
GREEKS
  0
TEXT
  5
1179
  8
BEM
 10
715.620330113482737
 20
708.7018943247380776
 30
0.0
 40
2.5
  1

 41
0.8
  7
GREEKS
  0
TEXT
  5
117A
  8
BEM
 10
715.5473856361082881
 20
704.1967053746403735
 30
0.0
 40
1.8
  1

 41
0.8
  7
GREEKS
  0
TEXT
  5
117B
  8
BEM
 10
702.8638147564969358
 20
729.7882944708657078
 30
0.0
 40
2.0
  1

 41
0.8
  7
GREEKS
 72
     1
 11
702.8638147564969358
 21
729.7882944708657078
 31
0.0
  0
TEXT
  5
117C
  8
TEXT
 10
1012.9645334777909511
 20
719.4660179074586495
 30
0.0
 40
2.5
  1
  
  7
GREEKS
 72
     1
 11
1015.2264382396959945
 21
719.4660179074586495
 31
0.0
  0
TEXT
  5
117D
  8
BEM
 10
1257.0842507902730176
 20
855.0248999378609369
 30
0.0
 40
2.5
  1
 
 72
     4
 11
1258.2152031712250846
 21
855.0248999378609369
 31
0.0
  0
TEXT
  5
117E
  8
VOLL
 10
808.2539840700158038
 20
674.3472225996440557
 30
0.0
 40
1.8
  1

  7
GREEKS
  0
TEXT
  5
117F
  8
TEXT
 10
1140.0862522736090341
 20
679.9054581328697395
 30
0.0
 40
2.5
  1
  
  7
GREEKS
 72
     1
 11
1142.3481570355140775
 21
679.9054581328697395
 31
0.0
  0
TEXT
  5
1180
  8
BEM
 10
1384.2059695860909869
 20
815.464340163272027
 30
0.0
 40
2.5
  1
 
 72
     4
 11
1385.3369219670430539
 21
815.464340163272027
 31
0.0
  0
TEXT
  5
1181
  8
VOLL
 10
965.7887011471775622
 20
679.9027782347153561
 30
0.0
 40
1.8
  1

  7
GREEKS
  0
TEXT
  5
1182
  8
BEM
 10
1000.27676598646201
 20
684.6285025579360308
 30
0.0
 40
2.5
  1

 41
0.8
  7
GREEKS
  0
TEXT
  5
1183
  8
BEM
 10
1000.27676598646201
 20
679.934734003883932
 30
0.0
 40
2.5
  1

 41
0.8
  7
GREEKS
  0
TEXT
  5
1184
  8
BEM
 10
1000.27676598646201
 20
674.6968901852203544
 30
0.0
 40
2.5
  1

 41
0.8
  7
GREEKS
  0
TEXT
  5
1185
  8
BEM
 10
1000.2038215090880158
 20
670.1917012351226504
 30
0.0
 40
1.8
  1

 41
0.8
  7
GREEKS
  0
TEXT
  5
1186
  8
TEXT
 10
1297.6209693507701104
 20
685.4610137679409263
 30
0.0
 40
2.5
  1
  
  7
GREEKS
 72
     1
 11
1299.8828741126749264
 21
685.4610137679409263
 31
0.0
  0
TEXT
  5
1187
  8
BEM
 10
1541.7406866632529727
 20
821.0198957983433274
 30
0.0
 40
2.5
  1
 
 72
     4
 11
1542.8716390442050397
 21
821.0198957983433274
 31
0.0
  0
TEXT
  5
1188
  8
VOLL
 10
552.7383192915599466
 20
740.2220023953842656
 30
0.0
 40
1.8
  1

  7
GREEKS
  0
TEXT
  5
1189
  8
TEXT
 10
884.5705874951529495
 20
745.7802379286098358
 30
0.0
 40
2.5
  1
  
  7
GREEKS
 72
     1
 11
886.8324922570578792
 21
745.7802379286098358
 31
0.0
  0
TEXT
  5
118A
  8
BEM
 10
1128.6903048076349023
 20
881.3391199590121232
 30
0.0
 40
2.5
  1
 
 72
     4
 11
1129.8212571885869693
 21
881.3391199590121232
 31
0.0
  0
TEXT
  5
118B
  8
BEM
 10
990.8351949181666214
 20
753.2431995907620603
 30
0.0
 40
2.5
  1

  7
GREEKS
  0
TEXT
  5
118C
  8
BEM
 10
1011.396980977879025
 20
738.304751738441837
 30
0.0
 40
2.5
  1

 41
0.8
  7
GREEKS
  0
TEXT
  5
118D
  8
BEM
 10
1011.2576509595919561
 20
728.2263016737288126
 30
0.0
 40
2.5
  1

 41
0.8
  7
GREEKS
  0
TEXT
  5
118E
  8
BEM
 10
1011.3109108433540086
 20
733.1720846100445215
 30
0.0
 40
2.5
  1

 41
0.8
  7
GREEKS
  0
TEXT
  5
118F
  8
BEM
 10
1011.3534288812500108
 20
723.1315140340888092
 30
0.0
 40
1.8
  1

 41
0.8
  7
GREEKS
  0
TEXT
  5
1190
  8
BEM
 10
998.7811136376685681
 20
748.5698585212570606
 30
0.0
 40
2.0
  1

 41
0.8
  7
GREEKS
 72
     1
 11
998.7811136376685681
 21
748.5698585212570606
 31
0.0
  0
TEXT
  5
1191
  8
VOLL
 10
731.9762531623723589
 20
734.5332371609988513
 30
0.0
 40
1.8
  1

  7
GREEKS
  0
TEXT
  5
1192
  8
TEXT
 10
1063.8085213659649071
 20
740.0914726942243078
 30
0.0
 40
2.5
  1
  
  7
GREEKS
 72
     1
 11
1066.0704261278699505
 21
740.0914726942243078
 31
0.0
  0
TEXT
  5
1193
  8
BEM
 10
1307.9282386784470873
 20
875.6503547246265953
 30
0.0
 40
2.5
  1
 
 72
     4
 11
1309.0591910594000638
 21
875.6503547246265953
 31
0.0
  0
TEXT
  5
1194
  8
BEM
 10
846.4652715405395611
 20
797.4721632617724936
 30
0.0
 40
2.5
  1

  7
GREEKS
  0
TEXT
  5
1195
  8
VOLL
 10
832.399078520818307
 20
777.2889026047373591
 30
0.0
 40
1.8
  1

  7
GREEKS
  0
TEXT
  5
1196
  8
BEM
 10
866.8871433601027547
 20
782.0146269279578064
 30
0.0
 40
2.5
  1

 41
0.8
  7
GREEKS
  0
TEXT
  5
1197
  8
BEM
 10
866.8871433601027547
 20
777.3208583739058213
 30
0.0
 40
2.5
  1

 41
0.8
  7
GREEKS
  0
TEXT
  5
1198
  8
BEM
 10
866.8871433601027547
 20
772.0830145552422437
 30
0.0
 40
2.5
  1

 41
0.8
  7
GREEKS
  0
TEXT
  5
1199
  8
BEM
 10
866.8141988827285331
 20
767.5778256051446533
 30
0.0
 40
1.8
  1

 41
0.8
  7
GREEKS
  0
TEXT
  5
119A
  8
BEM
 10
854.1306280031172946
 20
793.1694147013699876
 30
0.0
 40
2.0
  1

 41
0.8
  7
GREEKS
 72
     1
 11
854.1306280031172946
 21
793.1694147013699876
 31
0.0
  0
TEXT
  5
119B
  8
TEXT
 10
1164.2313467244109688
 20
782.8471381379629292
 30
0.0
 40
2.5
  1
  
  7
GREEKS
 72
     1
 11
1166.4932514863160122
 21
782.8471381379629292
 31
0.0
  0
TEXT
  5
119C
  8
BEM
 10
1408.3510640368929216
 20
918.406020168365103
 30
0.0
 40
2.5
  1
 
 72
     4
 11
1409.4820164178449886
 21
918.406020168365103
 31
0.0
  0
TEXT
  5
119D
  8
VOLL
 10
540.6468713717035826
 20
694.0007848660019363
 30
0.0
 40
1.8
  1

  7
GREEKS
  0
TEXT
  5
119E
  8
VOLL
 10
630.3130452973767888
 20
699.292901581721253
 30
0.0
 40
1.8
  1

  7
GREEKS
  0
TEXT
  5
119F
  8
TEXT
 10
962.1453135009697917
 20
704.8511371149468232
 30
0.0
 40
2.5
  1
  
  7
GREEKS
 72
     1
 11
964.407218262874494
 21
704.8511371149468232
 31
0.0
  0
TEXT
  5
11A0
  8
BEM
 10
1206.2650308134509487
 20
840.410019145348997
 30
0.0
 40
2.5
  1
 
 72
     4
 11
1207.3959831944039252
 21
840.410019145348997
 31
0.0
  0
TEXT
  5
11A1
  8
BEM
 10
771.9543749433013318
 20
722.9296157728826984
 30
0.0
 40
2.5
  1

  7
GREEKS
  0
TEXT
  5
11A2
  8
VOLL
 10
757.888181923579964
 20
702.7463551158475639
 30
0.0
 40
1.8
  1

  7
GREEKS
  0
TEXT
  5
11A3
  8
BEM
 10
792.3762467628645254
 20
707.4720794390681249
 30
0.0
 40
2.5
  1

 41
0.8
  7
GREEKS
  0
TEXT
  5
11A4
  8
BEM
 10
792.3762467628645254
 20
702.7783108850160261
 30
0.0
 40
2.5
  1

 41
0.8
  7
GREEKS
  0
TEXT
  5
11A5
  8
BEM
 10
792.3762467628645254
 20
697.5404670663524485
 30
0.0
 40
2.5
  1

 41
0.8
  7
GREEKS
  0
TEXT
  5
11A6
  8
BEM
 10
792.3033022854900764
 20
693.0352781162547444
 30
0.0
 40
1.8
  1

 41
0.8
  7
GREEKS
  0
TEXT
  5
11A7
  8
BEM
 10
779.6197314058789516
 20
718.6268672124801924
 30
0.0
 40
2.0
  1

 41
0.8
  7
GREEKS
 72
     1
 11
779.6197314058789516
 21
718.6268672124801924
 31
0.0
  0
TEXT
  5
11A8
  8
TEXT
 10
1089.7204501271730805
 20
708.304590649073134
 30
0.0
 40
2.5
  1
  
  7
GREEKS
 72
     1
 11
1091.9823548890769871
 21
708.304590649073134
 31
0.0
  0
TEXT
  5
11A9
  8
BEM
 10
1333.8401674396550334
 20
843.8634726794751941
 30
0.0
 40
2.5
  1
 
 72
     4
 11
1334.9711198206071003
 21
843.8634726794751941
 31
0.0
  0
TEXT
  5
11AA
  8
VOLL
 10
517.1752371743361891
 20
735.9554289037220087
 30
0.0
 40
1.8
  1

  7
GREEKS
  0
TEXT
  5
11AB
  8
VOLL
 10
606.8414111000093953
 20
741.2475456194414392
 30
0.0
 40
1.8
  1

  7
GREEKS
  0
TEXT
  5
11AC
  8
TEXT
 10
938.6736793036022846
 20
746.805781152666782
 30
0.0
 40
2.5
  1
  
  7
GREEKS
 72
     1
 11
940.9355840655072143
 21
746.805781152666782
 31
0.0
  0
TEXT
  5
11AD
  8
BEM
 10
1182.79339661608401
 20
882.3646631830691831
 30
0.0
 40
2.5
  1
 
 72
     4
 11
1183.9243489970369865
 21
882.3646631830691831
 31
0.0
  0
TEXT
  5
11AE
  8
BEM
 10
748.4827407459339383
 20
764.8842598106026571
 30
0.0
 40
2.5
  1

  7
GREEKS
  0
TEXT
  5
11AF
  8
VOLL
 10
734.4165477262124568
 20
744.70099915356775
 30
0.0
 40
1.8
  1

  7
GREEKS
  0
TEXT
  5
11B0
  8
BEM
 10
768.904612565497132
 20
749.426723476788311
 30
0.0
 40
2.5
  1

 41
0.8
  7
GREEKS
  0
TEXT
  5
11B1
  8
BEM
 10
768.904612565497132
 20
744.7329549227360985
 30
0.0
 40
2.5
  1

 41
0.8
  7
GREEKS
  0
TEXT
  5
11B2
  8
BEM
 10
768.904612565497132
 20
739.4951111040726346
 30
0.0
 40
2.5
  1

 41
0.8
  7
GREEKS
  0
TEXT
  5
11B3
  8
BEM
 10
768.831668088122683
 20
734.9899221539750442
 30
0.0
 40
1.8
  1

 41
0.8
  7
GREEKS
  0
TEXT
  5
11B4
  8
BEM
 10
756.1480972085114445
 20
760.5815112502002648
 30
0.0
 40
2.0
  1

 41
0.8
  7
GREEKS
 72
     1
 11
756.1480972085114445
 21
760.5815112502002648
 31
0.0
  0
TEXT
  5
11B5
  8
TEXT
 10
1066.248815929805005
 20
750.2592346867932065
 30
0.0
 40
2.5
  1
  
  7
GREEKS
 72
     1
 11
1068.5107206917100484
 21
750.2592346867932065
 31
0.0
  0
TEXT
  5
11B6
  8
BEM
 10
1310.3685332422869578
 20
885.8181167171953803
 30
0.0
 40
2.5
  1
 
 72
     4
 11
1311.4994856232399343
 21
885.8181167171953803
 31
0.0
  0
INSERT
  5
124D
  8
00810X10
  2
A$C2A20FE56
 10
0.0
 20
0.0
 30
0.0
  0
INSERT
  5
1284
  8
00810X10
  2
A$C5A648149
 10
0.0
 20
100.0
 30
0.0
  0
ENDSEC
  0
EOF
