  0
SECTION
  2
HEADER
  9
$ACADVER
  1
AC1009
  9
$INSBASE
 10
0.0
 20
0.0
 30
0.0
  9
$EXTMIN
 10
-33.4502823284474289
 20
-169.0889039484549983
 30
-0.0000000000000165
  9
$EXTMAX
 10
33.4553939331728998
 20
26.5728361037254217
 30
0.000000000000014
  9
$LIMMIN
 10
0.0
 20
0.0
  9
$LIMMAX
 10
420.0000000000001137
 20
297.0
  9
$ORTHOMODE
 70
     1
  9
$REGENMODE
 70
     1
  9
$FILLMODE
 70
     1
  9
$QTEXTMODE
 70
     0
  9
$MIRRTEXT
 70
     1
  9
$DRAGMODE
 70
     2
  9
$LTSCALE
 40
10.0
  9
$OSMODE
 70
  2559
  9
$ATTMODE
 70
     1
  9
$TEXTSIZE
 40
3.5
  9
$TRACEWID
 40
1.0
  9
$TEXTSTYLE
  7
STANDARD
  9
$CLAYER
  8
STEMPEL
  9
$CELTYPE
  6
BYLAYER
  9
$CECOLOR
 62
   256
  9
$DIMSCALE
 40
1.0
  9
$DIMASZ
 40
3.5
  9
$DIMEXO
 40
1.0
  9
$DIMDLI
 40
7.0
  9
$DIMRND
 40
0.0
  9
$DIMDLE
 40
0.0
  9
$DIMEXE
 40
1.0
  9
$DIMTP
 40
0.0
  9
$DIMTM
 40
0.5
  9
$DIMTXT
 40
3.5
  9
$DIMCEN
 40
1.5
  9
$DIMTSZ
 40
0.0
  9
$DIMTOL
 70
     0
  9
$DIMLIM
 70
     0
  9
$DIMTIH
 70
     0
  9
$DIMTOH
 70
     0
  9
$DIMSE1
 70
     0
  9
$DIMSE2
 70
     0
  9
$DIMTAD
 70
     1
  9
$DIMZIN
 70
     8
  9
$DIMBLK
  1

  9
$DIMASO
 70
     1
  9
$DIMSHO
 70
     0
  9
$DIMPOST
  1

  9
$DIMAPOST
  1

  9
$DIMALT
 70
     0
  9
$DIMALTD
 70
     2
  9
$DIMALTF
 40
25.3999999999999986
  9
$DIMLFAC
 40
1.0
  9
$DIMTOFL
 70
     1
  9
$DIMTVP
 40
0.5714285714285714
  9
$DIMTIX
 70
     0
  9
$DIMSOXD
 70
     0
  9
$DIMSAH
 70
     0
  9
$DIMBLK1
  1

  9
$DIMBLK2
  1

  9
$DIMSTYLE
  2
STANDARD
  9
$DIMCLRD
 70
     0
  9
$DIMCLRE
 70
     0
  9
$DIMCLRT
 70
     1
  9
$DIMTFAC
 40
0.5142857142857143
  9
$DIMGAP
 40
1.5
  9
$LUNITS
 70
     2
  9
$LUPREC
 70
     2
  9
$SKETCHINC
 40
1.0
  9
$FILLETRAD
 40
0.0
  9
$AUNITS
 70
     0
  9
$AUPREC
 70
     0
  9
$MENU
  1
ACAD
  9
$ELEVATION
 40
0.0
  9
$PELEVATION
 40
0.0
  9
$THICKNESS
 40
0.0
  9
$LIMCHECK
 70
     0
  9
$BLIPMODE
 70
     0
  9
$CHAMFERA
 40
0.0
  9
$CHAMFERB
 40
0.0
  9
$SKPOLY
 70
     0
  9
$TDCREATE
 40
2452534.5279050930403173
  9
$TDUPDATE
 40
2458376.584675925783813
  9
$TDINDWG
 40
0.1429527083
  9
$TDUSRTIMER
 40
0.1429527083
  9
$USRTIMER
 70
     1
  9
$ANGBASE
 50
0.0
  9
$ANGDIR
 70
     0
  9
$PDMODE
 70
     0
  9
$PDSIZE
 40
0.0
  9
$PLINEWID
 40
0.0
  9
$COORDS
 70
     1
  9
$SPLFRAME
 70
     0
  9
$SPLINETYPE
 70
     6
  9
$SPLINESEGS
 70
     8
  9
$ATTDIA
 70
     1
  9
$ATTREQ
 70
     1
  9
$HANDLING
 70
     1
  9
$HANDSEED
  5
28BD
  9
$SURFTAB1
 70
     6
  9
$SURFTAB2
 70
     6
  9
$SURFTYPE
 70
     6
  9
$SURFU
 70
     6
  9
$SURFV
 70
     6
  9
$UCSNAME
  2

  9
$UCSORG
 10
0.0
 20
0.0
 30
0.0
  9
$UCSXDIR
 10
1.0
 20
0.0
 30
0.0
  9
$UCSYDIR
 10
0.0
 20
1.0
 30
0.0
  9
$PUCSNAME
  2

  9
$PUCSORG
 10
0.0
 20
0.0
 30
0.0
  9
$PUCSXDIR
 10
1.0
 20
0.0
 30
0.0
  9
$PUCSYDIR
 10
0.0
 20
1.0
 30
0.0
  9
$USERI1
 70
     0
  9
$USERI2
 70
     0
  9
$USERI3
 70
     0
  9
$USERI4
 70
     0
  9
$USERI5
 70
     0
  9
$USERR1
 40
0.0
  9
$USERR2
 40
0.0
  9
$USERR3
 40
0.0
  9
$USERR4
 40
0.0
  9
$USERR5
 40
0.0
  9
$WORLDVIEW
 70
     1
  9
$SHADEDGE
 70
     3
  9
$SHADEDIF
 70
    70
  9
$TILEMODE
 70
     1
  9
$MAXACTVP
 70
    16
  9
$PLIMCHECK
 70
     0
  9
$PEXTMIN
 10
-0.26984322896676
 20
-0.1830069484226477
 30
-0.0000000000000053
  9
$PEXTMAX
 10
10.0533244551737297
 20
14.0051564912638309
 30
0.0000000000000099
  9
$PLIMMIN
 10
-0.2500002402958907
 20
-0.2499999962453767
  9
$PLIMMAX
 10
10.7499995194082203
 20
8.2499997634587334
  9
$UNITMODE
 70
     0
  9
$VISRETAIN
 70
     0
  9
$PLINEGEN
 70
     0
  9
$PSLTSCALE
 70
     0
  0
ENDSEC
  0
SECTION
  2
TABLES
  0
TABLE
  2
VPORT
 70
     1
  0
VPORT
  2
*ACTIVE
 70
     0
 10
0.0
 20
0.0
 11
1.0
 21
1.0
 12
0.002555802362707
 22
-73.4998800069595291
 13
0.0
 23
0.0
 14
2.5
 24
2.5
 15
10.0
 25
10.0
 16
-0.000000000000054
 26
0.0
 36
243.1109523529653984
 17
0.0
 27
2.2418460845947261
 37
-0.0000000000000023
 40
196.6591660847319076
 41
1.868197278911564
 42
50.0
 43
0.0
 44
0.0
 50
0.0
 51
0.0
 71
     0
 72
   500
 73
     1
 74
     0
 75
     0
 76
     0
 77
     0
 78
     0
  0
ENDTAB
  0
TABLE
  2
LTYPE
 70
     3
  0
LTYPE
  2
CONTINUOUS
 70
     0
  3
Solid line
 72
    65
 73
     0
 40
0.0
  0
LTYPE
  2
VERDECKT
 70
     0
  3
_ _ _ _ _ _ _ _ _ _ _ _ _ _ _ _ _ _ _ _ _ _ _
 72
    65
 73
     2
 40
0.375
 49
0.25
 49
-0.125
  0
ENDTAB
  0
TABLE
  2
LAYER
 70
    12
  0
LAYER
  2
0
 70
     0
 62
     7
  6
CONTINUOUS
  0
LAYER
  2
VOLL
 70
     0
 62
     1
  6
CONTINUOUS
  0
LAYER
  2
STEMPEL
 70
     0
 62
     3
  6
CONTINUOUS
  0
LAYER
  2
DEFPOINTS
 70
     0
 62
     7
  6
CONTINUOUS
  0
ENDTAB
  0
TABLE
  2
STYLE
 70
     2
  0
STYLE
  2
STANDARD
 70
     0
 40
0.0
 41
0.8
 50
0.0
 71
     0
 42
3.5
  3
simplex.shx
  4

  0
STYLE
  2
GREEKS
 70
     0
 40
0.0
 41
0.8
 50
0.0
 71
     0
 42
3.5
  3
SIMPLEX.shx
  4

  0
ENDTAB
  0
TABLE
  2
VIEW
 70
     1
  0
ENDTAB
  0
TABLE
  2
UCS
 70
     0
  0
ENDTAB
  0
TABLE
  2
APPID
 70
    13
  0
APPID
  2
ACAD
 70
     0
  0
APPID
  2
ACAECLAYERSTANDARD
 70
     0
  0
APPID
  2
ACCMTRANSPARENCY
 70
     0
  0
APPID
  2
ACAD_NAV_VCDISPLAY
 70
     0
  0
APPID
  2
ACAD_EXEMPT_FROM_CAD_STANDARDS
 70
     0
  0
APPID
  2
ACAD_OBJECT_CHANGE_GUID
 70
     0
  0
APPID
  2
ACAD_MLEADERVER
 70
     0
  0
APPID
  2
ACAD_STEPID
 70
     0
  0
APPID
  2
ACAD_PSEXT
 70
     0
  0
APPID
  2
ACADANNOMONITORALERTICONDI
 70
     0
  0
APPID
  2
ACAUTHENVIRON
 70
     0
  0
APPID
  2
ACDBDYNAMICBLOCKTRUENAME
 70
     0
  0
APPID
  2
ACDBDYNAMICBLOCKGUID
 70
     0
  0
ENDTAB
  0
TABLE
  2
DIMSTYLE
 70
     1
  0
DIMSTYLE
  2
STANDARD
 70
     0
  3

  4

  5

  6

  7

 40
1.0
 41
0.18
 42
0.0625
 43
0.38
 44
0.18
 45
0.0
 46
0.0
 47
0.0
 48
0.0
140
0.18
141
0.09
142
0.0
143
25.3999999999999986
144
1.0
145
0.0
146
1.0
147
0.09
 71
     0
 72
     0
 73
     1
 74
     1
 75
     0
 76
     0
 77
     0
 78
     0
170
     0
171
     2
172
     0
173
     0
174
     0
175
     0
176
     0
177
     0
178
     0
  0
ENDTAB
  0
ENDSEC
  0
SECTION
  2
BLOCKS
  0
BLOCK
  8
0
  2
$MODEL_SPACE
 70
     0
 10
0.0
 20
0.0
 30
0.0
  3
$MODEL_SPACE
  1

  0
ENDBLK
  5
56
  8
0
  0
BLOCK
 67
     1
  8
0
  2
$PAPER_SPACE
 70
     0
 10
0.0
 20
0.0
 30
0.0
  3
$PAPER_SPACE
  1

  0
ENDBLK
  5
54
 67
     1
  8
0
  0
BLOCK
  8
0
  2
A$C16976031
 70
     0
 10
0.0
 20
0.0
 30
0.0
  3
A$C16976031
  1

  0
POLYLINE
  8
0
  5
1BD1
  62
3
  66
     1
 10
0.000000
 20
0.000000
 30
0.000000
  70
     8
  0
VERTEX
  8
0
  5
1BD2
 10
-5.77350
 20
-3.10000e-15
 30
-1.30000e-15
  70
    32
  0
VERTEX
  8
0
  5
1BD3
 10
-5.76214
 20
-0.0196850
 30
-1.29764e-15
  70
    32
  0
VERTEX
  8
0
  5
1BD4
 10
-5.75077
 20
-0.0393701
 30
-1.29528e-15
  70
    32
  0
VERTEX
  8
0
  5
1BD5
 10
-5.73941
 20
-0.0590551
 30
-1.29291e-15
  70
    32
  0
VERTEX
  8
0
  5
1BD6
 10
-5.72804
 20
-0.0787402
 30
-1.29055e-15
  70
    32
  0
VERTEX
  8
0
  5
1BD7
 10
-5.71668
 20
-0.0984252
 30
-1.28819e-15
  70
    32
  0
VERTEX
  8
0
  5
1BD8
 10
-5.70531
 20
-0.118110
 30
-1.28583e-15
  70
    32
  0
VERTEX
  8
0
  5
1BD9
 10
-5.69395
 20
-0.137795
 30
-1.28346e-15
  70
    32
  0
VERTEX
  8
0
  5
1BDA
 10
-5.68258
 20
-0.157480
 30
-1.28110e-15
  70
    32
  0
VERTEX
  8
0
  5
1BDB
 10
-5.67122
 20
-0.177165
 30
-1.27874e-15
  70
    32
  0
VERTEX
  8
0
  5
1BDC
 10
-5.65985
 20
-0.196850
 30
-1.27638e-15
  70
    32
  0
VERTEX
  8
0
  5
1BDD
 10
-5.64849
 20
-0.216535
 30
-1.27402e-15
  70
    32
  0
VERTEX
  8
0
  5
1BDE
 10
-5.63712
 20
-0.236220
 30
-1.27165e-15
  70
    32
  0
VERTEX
  8
0
  5
1BDF
 10
-5.62576
 20
-0.255906
 30
-1.26929e-15
  70
    32
  0
VERTEX
  8
0
  5
1BE0
 10
-5.61439
 20
-0.275591
 30
-1.26693e-15
  70
    32
  0
VERTEX
  8
0
  5
1BE1
 10
-5.60303
 20
-0.295276
 30
-1.26457e-15
  70
    32
  0
VERTEX
  8
0
  5
1BE2
 10
-5.59166
 20
-0.314961
 30
-1.26220e-15
  70
    32
  0
VERTEX
  8
0
  5
1BE3
 10
-5.58029
 20
-0.334646
 30
-1.25984e-15
  70
    32
  0
VERTEX
  8
0
  5
1BE4
 10
-5.56893
 20
-0.354331
 30
-1.25748e-15
  70
    32
  0
VERTEX
  8
0
  5
1BE5
 10
-5.55756
 20
-0.374016
 30
-1.25512e-15
  70
    32
  0
VERTEX
  8
0
  5
1BE6
 10
-5.54620
 20
-0.393701
 30
-1.25276e-15
  70
    32
  0
VERTEX
  8
0
  5
1BE7
 10
-5.53483
 20
-0.413386
 30
-1.25039e-15
  70
    32
  0
VERTEX
  8
0
  5
1BE8
 10
-5.52347
 20
-0.433071
 30
-1.24803e-15
  70
    32
  0
VERTEX
  8
0
  5
1BE9
 10
-5.51210
 20
-0.452756
 30
-1.24567e-15
  70
    32
  0
VERTEX
  8
0
  5
1BEA
 10
-5.50074
 20
-0.472441
 30
-1.24331e-15
  70
    32
  0
VERTEX
  8
0
  5
1BEB
 10
-5.48937
 20
-0.492126
 30
-1.24094e-15
  70
    32
  0
VERTEX
  8
0
  5
1BEC
 10
-5.47801
 20
-0.511811
 30
-1.23858e-15
  70
    32
  0
VERTEX
  8
0
  5
1BED
 10
-5.46664
 20
-0.531496
 30
-1.23622e-15
  70
    32
  0
VERTEX
  8
0
  5
1BEE
 10
-5.45528
 20
-0.551181
 30
-1.23386e-15
  70
    32
  0
VERTEX
  8
0
  5
1BEF
 10
-5.44391
 20
-0.570866
 30
-1.23150e-15
  70
    32
  0
VERTEX
  8
0
  5
1BF0
 10
-5.43255
 20
-0.590551
 30
-1.22913e-15
  70
    32
  0
VERTEX
  8
0
  5
1BF1
 10
-5.42118
 20
-0.610236
 30
-1.22677e-15
  70
    32
  0
VERTEX
  8
0
  5
1BF2
 10
-5.40982
 20
-0.629921
 30
-1.22441e-15
  70
    32
  0
VERTEX
  8
0
  5
1BF3
 10
-5.39845
 20
-0.649606
 30
-1.22205e-15
  70
    32
  0
VERTEX
  8
0
  5
1BF4
 10
-5.38709
 20
-0.669291
 30
-1.21969e-15
  70
    32
  0
VERTEX
  8
0
  5
1BF5
 10
-5.37572
 20
-0.688976
 30
-1.21732e-15
  70
    32
  0
VERTEX
  8
0
  5
1BF6
 10
-5.36436
 20
-0.708661
 30
-1.21496e-15
  70
    32
  0
VERTEX
  8
0
  5
1BF7
 10
-5.35299
 20
-0.728346
 30
-1.21260e-15
  70
    32
  0
VERTEX
  8
0
  5
1BF8
 10
-5.34163
 20
-0.748031
 30
-1.21024e-15
  70
    32
  0
VERTEX
  8
0
  5
1BF9
 10
-5.33026
 20
-0.767717
 30
-1.20787e-15
  70
    32
  0
VERTEX
  8
0
  5
1BFA
 10
-5.31890
 20
-0.787402
 30
-1.20551e-15
  70
    32
  0
VERTEX
  8
0
  5
1BFB
 10
-5.30753
 20
-0.807087
 30
-1.20315e-15
  70
    32
  0
VERTEX
  8
0
  5
1BFC
 10
-5.29617
 20
-0.826772
 30
-1.20079e-15
  70
    32
  0
VERTEX
  8
0
  5
1BFD
 10
-5.28480
 20
-0.846457
 30
-1.19843e-15
  70
    32
  0
VERTEX
  8
0
  5
1BFE
 10
-5.27344
 20
-0.866142
 30
-1.19606e-15
  70
    32
  0
VERTEX
  8
0
  5
1BFF
 10
-5.26207
 20
-0.885827
 30
-1.19370e-15
  70
    32
  0
VERTEX
  8
0
  5
1C00
 10
-5.25071
 20
-0.905512
 30
-1.19134e-15
  70
    32
  0
VERTEX
  8
0
  5
1C01
 10
-5.23934
 20
-0.925197
 30
-1.18898e-15
  70
    32
  0
VERTEX
  8
0
  5
1C02
 10
-5.22797
 20
-0.944882
 30
-1.18661e-15
  70
    32
  0
VERTEX
  8
0
  5
1C03
 10
-5.21661
 20
-0.964567
 30
-1.18425e-15
  70
    32
  0
VERTEX
  8
0
  5
1C04
 10
-5.20524
 20
-0.984252
 30
-1.18189e-15
  70
    32
  0
VERTEX
  8
0
  5
1C05
 10
-5.19388
 20
-1.00394
 30
-1.17953e-15
  70
    32
  0
VERTEX
  8
0
  5
1C06
 10
-5.18251
 20
-1.02362
 30
-1.17717e-15
  70
    32
  0
VERTEX
  8
0
  5
1C07
 10
-5.17115
 20
-1.04331
 30
-1.17480e-15
  70
    32
  0
VERTEX
  8
0
  5
1C08
 10
-5.15978
 20
-1.06299
 30
-1.17244e-15
  70
    32
  0
VERTEX
  8
0
  5
1C09
 10
-5.14842
 20
-1.08268
 30
-1.17008e-15
  70
    32
  0
VERTEX
  8
0
  5
1C0A
 10
-5.13705
 20
-1.10236
 30
-1.16772e-15
  70
    32
  0
VERTEX
  8
0
  5
1C0B
 10
-5.12569
 20
-1.12205
 30
-1.16535e-15
  70
    32
  0
VERTEX
  8
0
  5
1C0C
 10
-5.11432
 20
-1.14173
 30
-1.16299e-15
  70
    32
  0
VERTEX
  8
0
  5
1C0D
 10
-5.10296
 20
-1.16142
 30
-1.16063e-15
  70
    32
  0
VERTEX
  8
0
  5
1C0E
 10
-5.09159
 20
-1.18110
 30
-1.15827e-15
  70
    32
  0
VERTEX
  8
0
  5
1C0F
 10
-5.08023
 20
-1.20079
 30
-1.15591e-15
  70
    32
  0
VERTEX
  8
0
  5
1C10
 10
-5.06886
 20
-1.22047
 30
-1.15354e-15
  70
    32
  0
VERTEX
  8
0
  5
1C11
 10
-5.05750
 20
-1.24016
 30
-1.15118e-15
  70
    32
  0
VERTEX
  8
0
  5
1C12
 10
-5.04613
 20
-1.25984
 30
-1.14882e-15
  70
    32
  0
VERTEX
  8
0
  5
1C13
 10
-5.03477
 20
-1.27953
 30
-1.14646e-15
  70
    32
  0
VERTEX
  8
0
  5
1C14
 10
-5.02340
 20
-1.29921
 30
-1.14409e-15
  70
    32
  0
VERTEX
  8
0
  5
1C15
 10
-5.01204
 20
-1.31890
 30
-1.14173e-15
  70
    32
  0
VERTEX
  8
0
  5
1C16
 10
-5.00067
 20
-1.33858
 30
-1.13937e-15
  70
    32
  0
VERTEX
  8
0
  5
1C17
 10
-4.98931
 20
-1.35827
 30
-1.13701e-15
  70
    32
  0
VERTEX
  8
0
  5
1C18
 10
-4.97794
 20
-1.37795
 30
-1.13465e-15
  70
    32
  0
VERTEX
  8
0
  5
1C19
 10
-4.96658
 20
-1.39764
 30
-1.13228e-15
  70
    32
  0
VERTEX
  8
0
  5
1C1A
 10
-4.95521
 20
-1.41732
 30
-1.12992e-15
  70
    32
  0
VERTEX
  8
0
  5
1C1B
 10
-4.94385
 20
-1.43701
 30
-1.12756e-15
  70
    32
  0
VERTEX
  8
0
  5
1C1C
 10
-4.93248
 20
-1.45669
 30
-1.12520e-15
  70
    32
  0
VERTEX
  8
0
  5
1C1D
 10
-4.92112
 20
-1.47638
 30
-1.12283e-15
  70
    32
  0
VERTEX
  8
0
  5
1C1E
 10
-4.90975
 20
-1.49606
 30
-1.12047e-15
  70
    32
  0
VERTEX
  8
0
  5
1C1F
 10
-4.89839
 20
-1.51575
 30
-1.11811e-15
  70
    32
  0
VERTEX
  8
0
  5
1C20
 10
-4.88702
 20
-1.53543
 30
-1.11575e-15
  70
    32
  0
VERTEX
  8
0
  5
1C21
 10
-4.87565
 20
-1.55512
 30
-1.11339e-15
  70
    32
  0
VERTEX
  8
0
  5
1C22
 10
-4.86429
 20
-1.57480
 30
-1.11102e-15
  70
    32
  0
VERTEX
  8
0
  5
1C23
 10
-4.85292
 20
-1.59449
 30
-1.10866e-15
  70
    32
  0
VERTEX
  8
0
  5
1C24
 10
-4.84156
 20
-1.61417
 30
-1.10630e-15
  70
    32
  0
VERTEX
  8
0
  5
1C25
 10
-4.83019
 20
-1.63386
 30
-1.10394e-15
  70
    32
  0
VERTEX
  8
0
  5
1C26
 10
-4.81883
 20
-1.65354
 30
-1.10157e-15
  70
    32
  0
VERTEX
  8
0
  5
1C27
 10
-4.80746
 20
-1.67323
 30
-1.09921e-15
  70
    32
  0
VERTEX
  8
0
  5
1C28
 10
-4.79610
 20
-1.69291
 30
-1.09685e-15
  70
    32
  0
VERTEX
  8
0
  5
1C29
 10
-4.78473
 20
-1.71260
 30
-1.09449e-15
  70
    32
  0
VERTEX
  8
0
  5
1C2A
 10
-4.77337
 20
-1.73228
 30
-1.09213e-15
  70
    32
  0
VERTEX
  8
0
  5
1C2B
 10
-4.76200
 20
-1.75197
 30
-1.08976e-15
  70
    32
  0
VERTEX
  8
0
  5
1C2C
 10
-4.75064
 20
-1.77165
 30
-1.08740e-15
  70
    32
  0
VERTEX
  8
0
  5
1C2D
 10
-4.73927
 20
-1.79134
 30
-1.08504e-15
  70
    32
  0
VERTEX
  8
0
  5
1C2E
 10
-4.72791
 20
-1.81102
 30
-1.08268e-15
  70
    32
  0
VERTEX
  8
0
  5
1C2F
 10
-4.71654
 20
-1.83071
 30
-1.08031e-15
  70
    32
  0
VERTEX
  8
0
  5
1C30
 10
-4.70518
 20
-1.85039
 30
-1.07795e-15
  70
    32
  0
VERTEX
  8
0
  5
1C31
 10
-4.69381
 20
-1.87008
 30
-1.07559e-15
  70
    32
  0
VERTEX
  8
0
  5
1C32
 10
-4.68245
 20
-1.88976
 30
-1.07323e-15
  70
    32
  0
VERTEX
  8
0
  5
1C33
 10
-4.67108
 20
-1.90945
 30
-1.07087e-15
  70
    32
  0
VERTEX
  8
0
  5
1C34
 10
-4.65972
 20
-1.92913
 30
-1.06850e-15
  70
    32
  0
VERTEX
  8
0
  5
1C35
 10
-4.64835
 20
-1.94882
 30
-1.06614e-15
  70
    32
  0
VERTEX
  8
0
  5
1C36
 10
-4.63699
 20
-1.96850
 30
-1.06378e-15
  70
    32
  0
VERTEX
  8
0
  5
1C37
 10
-4.62562
 20
-1.98819
 30
-1.06142e-15
  70
    32
  0
VERTEX
  8
0
  5
1C38
 10
-4.61426
 20
-2.00787
 30
-1.05906e-15
  70
    32
  0
VERTEX
  8
0
  5
1C39
 10
-4.60289
 20
-2.02756
 30
-1.05669e-15
  70
    32
  0
VERTEX
  8
0
  5
1C3A
 10
-4.59153
 20
-2.04724
 30
-1.05433e-15
  70
    32
  0
VERTEX
  8
0
  5
1C3B
 10
-4.58016
 20
-2.06693
 30
-1.05197e-15
  70
    32
  0
VERTEX
  8
0
  5
1C3C
 10
-4.56880
 20
-2.08661
 30
-1.04961e-15
  70
    32
  0
VERTEX
  8
0
  5
1C3D
 10
-4.55743
 20
-2.10630
 30
-1.04724e-15
  70
    32
  0
VERTEX
  8
0
  5
1C3E
 10
-4.54607
 20
-2.12598
 30
-1.04488e-15
  70
    32
  0
VERTEX
  8
0
  5
1C3F
 10
-4.53470
 20
-2.14567
 30
-1.04252e-15
  70
    32
  0
VERTEX
  8
0
  5
1C40
 10
-4.52333
 20
-2.16535
 30
-1.04016e-15
  70
    32
  0
VERTEX
  8
0
  5
1C41
 10
-4.51197
 20
-2.18504
 30
-1.03780e-15
  70
    32
  0
VERTEX
  8
0
  5
1C42
 10
-4.50060
 20
-2.20472
 30
-1.03543e-15
  70
    32
  0
VERTEX
  8
0
  5
1C43
 10
-4.48924
 20
-2.22441
 30
-1.03307e-15
  70
    32
  0
VERTEX
  8
0
  5
1C44
 10
-4.47787
 20
-2.24409
 30
-1.03071e-15
  70
    32
  0
VERTEX
  8
0
  5
1C45
 10
-4.46651
 20
-2.26378
 30
-1.02835e-15
  70
    32
  0
VERTEX
  8
0
  5
1C46
 10
-4.45514
 20
-2.28346
 30
-1.02598e-15
  70
    32
  0
VERTEX
  8
0
  5
1C47
 10
-4.44378
 20
-2.30315
 30
-1.02362e-15
  70
    32
  0
VERTEX
  8
0
  5
1C48
 10
-4.43241
 20
-2.32283
 30
-1.02126e-15
  70
    32
  0
VERTEX
  8
0
  5
1C49
 10
-4.42105
 20
-2.34252
 30
-1.01890e-15
  70
    32
  0
VERTEX
  8
0
  5
1C4A
 10
-4.40968
 20
-2.36220
 30
-1.01654e-15
  70
    32
  0
VERTEX
  8
0
  5
1C4B
 10
-4.39832
 20
-2.38189
 30
-1.01417e-15
  70
    32
  0
VERTEX
  8
0
  5
1C4C
 10
-4.38695
 20
-2.40157
 30
-1.01181e-15
  70
    32
  0
VERTEX
  8
0
  5
1C4D
 10
-4.37559
 20
-2.42126
 30
-1.00945e-15
  70
    32
  0
VERTEX
  8
0
  5
1C4E
 10
-4.36422
 20
-2.44094
 30
-1.00709e-15
  70
    32
  0
VERTEX
  8
0
  5
1C4F
 10
-4.35286
 20
-2.46063
 30
-1.00472e-15
  70
    32
  0
VERTEX
  8
0
  5
1C50
 10
-4.34149
 20
-2.48031
 30
-1.00236e-15
  70
    32
  0
VERTEX
  8
0
  5
1C51
 10
-4.33013
 20
-2.50000
 30
-1.00000e-15
  70
    32
  0
SEQEND
  8
0
  5
1C52
  0
POLYLINE
  8
0
  5
1C53
  62
3
  66
     1
 10
0.000000
 20
0.000000
 30
0.000000
  70
     8
  0
VERTEX
  8
0
  5
1C54
 10
-4.33013
 20
-2.50000
 30
-1.00000e-15
  70
    32
  0
VERTEX
  8
0
  5
1C55
 10
-4.31876
 20
-2.51969
 30
-9.97619e-16
  70
    32
  0
VERTEX
  8
0
  5
1C56
 10
-4.30740
 20
-2.53937
 30
-9.95202e-16
  70
    32
  0
VERTEX
  8
0
  5
1C57
 10
-4.29603
 20
-2.55906
 30
-9.92749e-16
  70
    32
  0
VERTEX
  8
0
  5
1C58
 10
-4.28467
 20
-2.57874
 30
-9.90260e-16
  70
    32
  0
VERTEX
  8
0
  5
1C59
 10
-4.27330
 20
-2.59843
 30
-9.87736e-16
  70
    32
  0
VERTEX
  8
0
  5
1C5A
 10
-4.26194
 20
-2.61811
 30
-9.85178e-16
  70
    32
  0
VERTEX
  8
0
  5
1C5B
 10
-4.25057
 20
-2.63780
 30
-9.82587e-16
  70
    32
  0
VERTEX
  8
0
  5
1C5C
 10
-4.23921
 20
-2.65748
 30
-9.79962e-16
  70
    32
  0
VERTEX
  8
0
  5
1C5D
 10
-4.22784
 20
-2.67717
 30
-9.77305e-16
  70
    32
  0
VERTEX
  8
0
  5
1C5E
 10
-4.21648
 20
-2.69685
 30
-9.74616e-16
  70
    32
  0
VERTEX
  8
0
  5
1C5F
 10
-4.20511
 20
-2.71654
 30
-9.71895e-16
  70
    32
  0
VERTEX
  8
0
  5
1C60
 10
-4.19375
 20
-2.73622
 30
-9.69144e-16
  70
    32
  0
VERTEX
  8
0
  5
1C61
 10
-4.18238
 20
-2.75591
 30
-9.66362e-16
  70
    32
  0
VERTEX
  8
0
  5
1C62
 10
-4.17101
 20
-2.77559
 30
-9.63551e-16
  70
    32
  0
VERTEX
  8
0
  5
1C63
 10
-4.15965
 20
-2.79528
 30
-9.60711e-16
  70
    32
  0
VERTEX
  8
0
  5
1C64
 10
-4.14828
 20
-2.81496
 30
-9.57843e-16
  70
    32
  0
VERTEX
  8
0
  5
1C65
 10
-4.13692
 20
-2.83465
 30
-9.54947e-16
  70
    32
  0
VERTEX
  8
0
  5
1C66
 10
-4.12555
 20
-2.85433
 30
-9.52023e-16
  70
    32
  0
VERTEX
  8
0
  5
1C67
 10
-4.11419
 20
-2.87402
 30
-9.49073e-16
  70
    32
  0
VERTEX
  8
0
  5
1C68
 10
-4.10282
 20
-2.89370
 30
-9.46097e-16
  70
    32
  0
VERTEX
  8
0
  5
1C69
 10
-4.09146
 20
-2.91339
 30
-9.43095e-16
  70
    32
  0
VERTEX
  8
0
  5
1C6A
 10
-4.08009
 20
-2.93307
 30
-9.40069e-16
  70
    32
  0
VERTEX
  8
0
  5
1C6B
 10
-4.06873
 20
-2.95276
 30
-9.37018e-16
  70
    32
  0
VERTEX
  8
0
  5
1C6C
 10
-4.05736
 20
-2.97244
 30
-9.33943e-16
  70
    32
  0
VERTEX
  8
0
  5
1C6D
 10
-4.04600
 20
-2.99213
 30
-9.30845e-16
  70
    32
  0
VERTEX
  8
0
  5
1C6E
 10
-4.03463
 20
-3.01181
 30
-9.27725e-16
  70
    32
  0
VERTEX
  8
0
  5
1C6F
 10
-4.02327
 20
-3.03150
 30
-9.24583e-16
  70
    32
  0
VERTEX
  8
0
  5
1C70
 10
-4.01190
 20
-3.05118
 30
-9.21419e-16
  70
    32
  0
VERTEX
  8
0
  5
1C71
 10
-4.00054
 20
-3.07087
 30
-9.18235e-16
  70
    32
  0
VERTEX
  8
0
  5
1C72
 10
-3.98917
 20
-3.09055
 30
-9.15030e-16
  70
    32
  0
VERTEX
  8
0
  5
1C73
 10
-3.97781
 20
-3.11024
 30
-9.11806e-16
  70
    32
  0
VERTEX
  8
0
  5
1C74
 10
-3.96644
 20
-3.12992
 30
-9.08562e-16
  70
    32
  0
VERTEX
  8
0
  5
1C75
 10
-3.95508
 20
-3.14961
 30
-9.05301e-16
  70
    32
  0
VERTEX
  8
0
  5
1C76
 10
-3.94371
 20
-3.16929
 30
-9.02021e-16
  70
    32
  0
VERTEX
  8
0
  5
1C77
 10
-3.93235
 20
-3.18898
 30
-8.98724e-16
  70
    32
  0
VERTEX
  8
0
  5
1C78
 10
-3.92098
 20
-3.20866
 30
-8.95410e-16
  70
    32
  0
VERTEX
  8
0
  5
1C79
 10
-3.90962
 20
-3.22835
 30
-8.92081e-16
  70
    32
  0
VERTEX
  8
0
  5
1C7A
 10
-3.89825
 20
-3.24803
 30
-8.88735e-16
  70
    32
  0
VERTEX
  8
0
  5
1C7B
 10
-3.88689
 20
-3.26772
 30
-8.85375e-16
  70
    32
  0
VERTEX
  8
0
  5
1C7C
 10
-3.87552
 20
-3.28740
 30
-8.82001e-16
  70
    32
  0
VERTEX
  8
0
  5
1C7D
 10
-3.86416
 20
-3.30709
 30
-8.78612e-16
  70
    32
  0
VERTEX
  8
0
  5
1C7E
 10
-3.85279
 20
-3.32677
 30
-8.75211e-16
  70
    32
  0
VERTEX
  8
0
  5
1C7F
 10
-3.84143
 20
-3.34646
 30
-8.71797e-16
  70
    32
  0
VERTEX
  8
0
  5
1C80
 10
-3.83006
 20
-3.36614
 30
-8.68371e-16
  70
    32
  0
VERTEX
  8
0
  5
1C81
 10
-3.81869
 20
-3.38583
 30
-8.64933e-16
  70
    32
  0
VERTEX
  8
0
  5
1C82
 10
-3.80733
 20
-3.40551
 30
-8.61485e-16
  70
    32
  0
VERTEX
  8
0
  5
1C83
 10
-3.79596
 20
-3.42520
 30
-8.58026e-16
  70
    32
  0
VERTEX
  8
0
  5
1C84
 10
-3.78460
 20
-3.44488
 30
-8.54558e-16
  70
    32
  0
VERTEX
  8
0
  5
1C85
 10
-3.77323
 20
-3.46457
 30
-8.51080e-16
  70
    32
  0
VERTEX
  8
0
  5
1C86
 10
-3.76187
 20
-3.48425
 30
-8.47594e-16
  70
    32
  0
VERTEX
  8
0
  5
1C87
 10
-3.75050
 20
-3.50394
 30
-8.44101e-16
  70
    32
  0
VERTEX
  8
0
  5
1C88
 10
-3.73914
 20
-3.52362
 30
-8.40600e-16
  70
    32
  0
VERTEX
  8
0
  5
1C89
 10
-3.72777
 20
-3.54331
 30
-8.37092e-16
  70
    32
  0
VERTEX
  8
0
  5
1C8A
 10
-3.71641
 20
-3.56299
 30
-8.33578e-16
  70
    32
  0
VERTEX
  8
0
  5
1C8B
 10
-3.70504
 20
-3.58268
 30
-8.30058e-16
  70
    32
  0
VERTEX
  8
0
  5
1C8C
 10
-3.69368
 20
-3.60236
 30
-8.26534e-16
  70
    32
  0
VERTEX
  8
0
  5
1C8D
 10
-3.68231
 20
-3.62205
 30
-8.23005e-16
  70
    32
  0
VERTEX
  8
0
  5
1C8E
 10
-3.67095
 20
-3.64173
 30
-8.19472e-16
  70
    32
  0
VERTEX
  8
0
  5
1C8F
 10
-3.65958
 20
-3.66142
 30
-8.15936e-16
  70
    32
  0
VERTEX
  8
0
  5
1C90
 10
-3.64822
 20
-3.68110
 30
-8.12397e-16
  70
    32
  0
VERTEX
  8
0
  5
1C91
 10
-3.63685
 20
-3.70079
 30
-8.08857e-16
  70
    32
  0
VERTEX
  8
0
  5
1C92
 10
-3.62549
 20
-3.72047
 30
-8.05315e-16
  70
    32
  0
VERTEX
  8
0
  5
1C93
 10
-3.61412
 20
-3.74016
 30
-8.01772e-16
  70
    32
  0
VERTEX
  8
0
  5
1C94
 10
-3.60276
 20
-3.75984
 30
-7.98228e-16
  70
    32
  0
VERTEX
  8
0
  5
1C95
 10
-3.59139
 20
-3.77953
 30
-7.94685e-16
  70
    32
  0
VERTEX
  8
0
  5
1C96
 10
-3.58003
 20
-3.79921
 30
-7.91143e-16
  70
    32
  0
VERTEX
  8
0
  5
1C97
 10
-3.56866
 20
-3.81890
 30
-7.87603e-16
  70
    32
  0
VERTEX
  8
0
  5
1C98
 10
-3.55730
 20
-3.83858
 30
-7.84064e-16
  70
    32
  0
VERTEX
  8
0
  5
1C99
 10
-3.54593
 20
-3.85827
 30
-7.80528e-16
  70
    32
  0
VERTEX
  8
0
  5
1C9A
 10
-3.53457
 20
-3.87795
 30
-7.76995e-16
  70
    32
  0
VERTEX
  8
0
  5
1C9B
 10
-3.52320
 20
-3.89764
 30
-7.73466e-16
  70
    32
  0
VERTEX
  8
0
  5
1C9C
 10
-3.51184
 20
-3.91732
 30
-7.69942e-16
  70
    32
  0
VERTEX
  8
0
  5
1C9D
 10
-3.50047
 20
-3.93701
 30
-7.66422e-16
  70
    32
  0
VERTEX
  8
0
  5
1C9E
 10
-3.48910
 20
-3.95669
 30
-7.62908e-16
  70
    32
  0
VERTEX
  8
0
  5
1C9F
 10
-3.47774
 20
-3.97638
 30
-7.59400e-16
  70
    32
  0
VERTEX
  8
0
  5
1CA0
 10
-3.46637
 20
-3.99606
 30
-7.55899e-16
  70
    32
  0
VERTEX
  8
0
  5
1CA1
 10
-3.45501
 20
-4.01575
 30
-7.52406e-16
  70
    32
  0
VERTEX
  8
0
  5
1CA2
 10
-3.44364
 20
-4.03543
 30
-7.48920e-16
  70
    32
  0
VERTEX
  8
0
  5
1CA3
 10
-3.43228
 20
-4.05512
 30
-7.45442e-16
  70
    32
  0
VERTEX
  8
0
  5
1CA4
 10
-3.42091
 20
-4.07480
 30
-7.41974e-16
  70
    32
  0
VERTEX
  8
0
  5
1CA5
 10
-3.40955
 20
-4.09449
 30
-7.38515e-16
  70
    32
  0
VERTEX
  8
0
  5
1CA6
 10
-3.39818
 20
-4.11417
 30
-7.35067e-16
  70
    32
  0
VERTEX
  8
0
  5
1CA7
 10
-3.38682
 20
-4.13386
 30
-7.31629e-16
  70
    32
  0
VERTEX
  8
0
  5
1CA8
 10
-3.37545
 20
-4.15354
 30
-7.28203e-16
  70
    32
  0
VERTEX
  8
0
  5
1CA9
 10
-3.36409
 20
-4.17323
 30
-7.24789e-16
  70
    32
  0
VERTEX
  8
0
  5
1CAA
 10
-3.35272
 20
-4.19291
 30
-7.21388e-16
  70
    32
  0
VERTEX
  8
0
  5
1CAB
 10
-3.34136
 20
-4.21260
 30
-7.17999e-16
  70
    32
  0
VERTEX
  8
0
  5
1CAC
 10
-3.32999
 20
-4.23228
 30
-7.14625e-16
  70
    32
  0
VERTEX
  8
0
  5
1CAD
 10
-3.31863
 20
-4.25197
 30
-7.11265e-16
  70
    32
  0
VERTEX
  8
0
  5
1CAE
 10
-3.30726
 20
-4.27165
 30
-7.07919e-16
  70
    32
  0
VERTEX
  8
0
  5
1CAF
 10
-3.29590
 20
-4.29134
 30
-7.04590e-16
  70
    32
  0
VERTEX
  8
0
  5
1CB0
 10
-3.28453
 20
-4.31102
 30
-7.01276e-16
  70
    32
  0
VERTEX
  8
0
  5
1CB1
 10
-3.27317
 20
-4.33071
 30
-6.97979e-16
  70
    32
  0
VERTEX
  8
0
  5
1CB2
 10
-3.26180
 20
-4.35039
 30
-6.94699e-16
  70
    32
  0
VERTEX
  8
0
  5
1CB3
 10
-3.25044
 20
-4.37008
 30
-6.91438e-16
  70
    32
  0
VERTEX
  8
0
  5
1CB4
 10
-3.23907
 20
-4.38976
 30
-6.88194e-16
  70
    32
  0
VERTEX
  8
0
  5
1CB5
 10
-3.22771
 20
-4.40945
 30
-6.84970e-16
  70
    32
  0
VERTEX
  8
0
  5
1CB6
 10
-3.21634
 20
-4.42913
 30
-6.81765e-16
  70
    32
  0
VERTEX
  8
0
  5
1CB7
 10
-3.20498
 20
-4.44882
 30
-6.78581e-16
  70
    32
  0
VERTEX
  8
0
  5
1CB8
 10
-3.19361
 20
-4.46850
 30
-6.75417e-16
  70
    32
  0
VERTEX
  8
0
  5
1CB9
 10
-3.18225
 20
-4.48819
 30
-6.72275e-16
  70
    32
  0
VERTEX
  8
0
  5
1CBA
 10
-3.17088
 20
-4.50787
 30
-6.69155e-16
  70
    32
  0
VERTEX
  8
0
  5
1CBB
 10
-3.15952
 20
-4.52756
 30
-6.66057e-16
  70
    32
  0
VERTEX
  8
0
  5
1CBC
 10
-3.14815
 20
-4.54724
 30
-6.62982e-16
  70
    32
  0
VERTEX
  8
0
  5
1CBD
 10
-3.13678
 20
-4.56693
 30
-6.59931e-16
  70
    32
  0
VERTEX
  8
0
  5
1CBE
 10
-3.12542
 20
-4.58661
 30
-6.56905e-16
  70
    32
  0
VERTEX
  8
0
  5
1CBF
 10
-3.11405
 20
-4.60630
 30
-6.53903e-16
  70
    32
  0
VERTEX
  8
0
  5
1CC0
 10
-3.10269
 20
-4.62598
 30
-6.50927e-16
  70
    32
  0
VERTEX
  8
0
  5
1CC1
 10
-3.09132
 20
-4.64567
 30
-6.47977e-16
  70
    32
  0
VERTEX
  8
0
  5
1CC2
 10
-3.07996
 20
-4.66535
 30
-6.45053e-16
  70
    32
  0
VERTEX
  8
0
  5
1CC3
 10
-3.06859
 20
-4.68504
 30
-6.42157e-16
  70
    32
  0
VERTEX
  8
0
  5
1CC4
 10
-3.05723
 20
-4.70472
 30
-6.39289e-16
  70
    32
  0
VERTEX
  8
0
  5
1CC5
 10
-3.04586
 20
-4.72441
 30
-6.36449e-16
  70
    32
  0
VERTEX
  8
0
  5
1CC6
 10
-3.03450
 20
-4.74409
 30
-6.33638e-16
  70
    32
  0
VERTEX
  8
0
  5
1CC7
 10
-3.02313
 20
-4.76378
 30
-6.30856e-16
  70
    32
  0
VERTEX
  8
0
  5
1CC8
 10
-3.01177
 20
-4.78346
 30
-6.28105e-16
  70
    32
  0
VERTEX
  8
0
  5
1CC9
 10
-3.00040
 20
-4.80315
 30
-6.25384e-16
  70
    32
  0
VERTEX
  8
0
  5
1CCA
 10
-2.98904
 20
-4.82283
 30
-6.22695e-16
  70
    32
  0
VERTEX
  8
0
  5
1CCB
 10
-2.97767
 20
-4.84252
 30
-6.20038e-16
  70
    32
  0
VERTEX
  8
0
  5
1CCC
 10
-2.96631
 20
-4.86220
 30
-6.17413e-16
  70
    32
  0
VERTEX
  8
0
  5
1CCD
 10
-2.95494
 20
-4.88189
 30
-6.14822e-16
  70
    32
  0
VERTEX
  8
0
  5
1CCE
 10
-2.94358
 20
-4.90157
 30
-6.12264e-16
  70
    32
  0
VERTEX
  8
0
  5
1CCF
 10
-2.93221
 20
-4.92126
 30
-6.09740e-16
  70
    32
  0
VERTEX
  8
0
  5
1CD0
 10
-2.92085
 20
-4.94094
 30
-6.07251e-16
  70
    32
  0
VERTEX
  8
0
  5
1CD1
 10
-2.90948
 20
-4.96063
 30
-6.04798e-16
  70
    32
  0
VERTEX
  8
0
  5
1CD2
 10
-2.89812
 20
-4.98031
 30
-6.02381e-16
  70
    32
  0
VERTEX
  8
0
  5
1CD3
 10
-2.88675
 20
-5.00000
 30
-6.00000e-16
  70
    32
  0
SEQEND
  8
0
  5
1CD4
  0
ARC
  5
1B38
  8
0
  6
CONTINUOUS
 62
     3
 10
0.0000000000000001
 20
-0.0000000000000031
 30
0.0
 40
5.0000000000000213
 50
150.0
 51
210.0
  0
POLYLINE
  8
0
  5
1CD5
  62
3
  66
     1
 10
0.000000
 20
0.000000
 30
0.000000
  70
     8
  0
VERTEX
  8
0
  5
1CD6
 10
-4.33013
 20
2.50000
 30
-1.00000e-15
  70
    32
  0
VERTEX
  8
0
  5
1CD7
 10
-4.34149
 20
2.48031
 30
-1.00236e-15
  70
    32
  0
VERTEX
  8
0
  5
1CD8
 10
-4.35286
 20
2.46063
 30
-1.00472e-15
  70
    32
  0
VERTEX
  8
0
  5
1CD9
 10
-4.36422
 20
2.44094
 30
-1.00709e-15
  70
    32
  0
VERTEX
  8
0
  5
1CDA
 10
-4.37559
 20
2.42126
 30
-1.00945e-15
  70
    32
  0
VERTEX
  8
0
  5
1CDB
 10
-4.38695
 20
2.40157
 30
-1.01181e-15
  70
    32
  0
VERTEX
  8
0
  5
1CDC
 10
-4.39832
 20
2.38189
 30
-1.01417e-15
  70
    32
  0
VERTEX
  8
0
  5
1CDD
 10
-4.40968
 20
2.36220
 30
-1.01654e-15
  70
    32
  0
VERTEX
  8
0
  5
1CDE
 10
-4.42105
 20
2.34252
 30
-1.01890e-15
  70
    32
  0
VERTEX
  8
0
  5
1CDF
 10
-4.43241
 20
2.32283
 30
-1.02126e-15
  70
    32
  0
VERTEX
  8
0
  5
1CE0
 10
-4.44378
 20
2.30315
 30
-1.02362e-15
  70
    32
  0
VERTEX
  8
0
  5
1CE1
 10
-4.45514
 20
2.28346
 30
-1.02598e-15
  70
    32
  0
VERTEX
  8
0
  5
1CE2
 10
-4.46651
 20
2.26378
 30
-1.02835e-15
  70
    32
  0
VERTEX
  8
0
  5
1CE3
 10
-4.47787
 20
2.24409
 30
-1.03071e-15
  70
    32
  0
VERTEX
  8
0
  5
1CE4
 10
-4.48924
 20
2.22441
 30
-1.03307e-15
  70
    32
  0
VERTEX
  8
0
  5
1CE5
 10
-4.50060
 20
2.20472
 30
-1.03543e-15
  70
    32
  0
VERTEX
  8
0
  5
1CE6
 10
-4.51197
 20
2.18504
 30
-1.03780e-15
  70
    32
  0
VERTEX
  8
0
  5
1CE7
 10
-4.52333
 20
2.16535
 30
-1.04016e-15
  70
    32
  0
VERTEX
  8
0
  5
1CE8
 10
-4.53470
 20
2.14567
 30
-1.04252e-15
  70
    32
  0
VERTEX
  8
0
  5
1CE9
 10
-4.54607
 20
2.12598
 30
-1.04488e-15
  70
    32
  0
VERTEX
  8
0
  5
1CEA
 10
-4.55743
 20
2.10630
 30
-1.04724e-15
  70
    32
  0
VERTEX
  8
0
  5
1CEB
 10
-4.56880
 20
2.08661
 30
-1.04961e-15
  70
    32
  0
VERTEX
  8
0
  5
1CEC
 10
-4.58016
 20
2.06693
 30
-1.05197e-15
  70
    32
  0
VERTEX
  8
0
  5
1CED
 10
-4.59153
 20
2.04724
 30
-1.05433e-15
  70
    32
  0
VERTEX
  8
0
  5
1CEE
 10
-4.60289
 20
2.02756
 30
-1.05669e-15
  70
    32
  0
VERTEX
  8
0
  5
1CEF
 10
-4.61426
 20
2.00787
 30
-1.05906e-15
  70
    32
  0
VERTEX
  8
0
  5
1CF0
 10
-4.62562
 20
1.98819
 30
-1.06142e-15
  70
    32
  0
VERTEX
  8
0
  5
1CF1
 10
-4.63699
 20
1.96850
 30
-1.06378e-15
  70
    32
  0
VERTEX
  8
0
  5
1CF2
 10
-4.64835
 20
1.94882
 30
-1.06614e-15
  70
    32
  0
VERTEX
  8
0
  5
1CF3
 10
-4.65972
 20
1.92913
 30
-1.06850e-15
  70
    32
  0
VERTEX
  8
0
  5
1CF4
 10
-4.67108
 20
1.90945
 30
-1.07087e-15
  70
    32
  0
VERTEX
  8
0
  5
1CF5
 10
-4.68245
 20
1.88976
 30
-1.07323e-15
  70
    32
  0
VERTEX
  8
0
  5
1CF6
 10
-4.69381
 20
1.87008
 30
-1.07559e-15
  70
    32
  0
VERTEX
  8
0
  5
1CF7
 10
-4.70518
 20
1.85039
 30
-1.07795e-15
  70
    32
  0
VERTEX
  8
0
  5
1CF8
 10
-4.71654
 20
1.83071
 30
-1.08031e-15
  70
    32
  0
VERTEX
  8
0
  5
1CF9
 10
-4.72791
 20
1.81102
 30
-1.08268e-15
  70
    32
  0
VERTEX
  8
0
  5
1CFA
 10
-4.73927
 20
1.79134
 30
-1.08504e-15
  70
    32
  0
VERTEX
  8
0
  5
1CFB
 10
-4.75064
 20
1.77165
 30
-1.08740e-15
  70
    32
  0
VERTEX
  8
0
  5
1CFC
 10
-4.76200
 20
1.75197
 30
-1.08976e-15
  70
    32
  0
VERTEX
  8
0
  5
1CFD
 10
-4.77337
 20
1.73228
 30
-1.09213e-15
  70
    32
  0
VERTEX
  8
0
  5
1CFE
 10
-4.78473
 20
1.71260
 30
-1.09449e-15
  70
    32
  0
VERTEX
  8
0
  5
1CFF
 10
-4.79610
 20
1.69291
 30
-1.09685e-15
  70
    32
  0
VERTEX
  8
0
  5
1D00
 10
-4.80746
 20
1.67323
 30
-1.09921e-15
  70
    32
  0
VERTEX
  8
0
  5
1D01
 10
-4.81883
 20
1.65354
 30
-1.10157e-15
  70
    32
  0
VERTEX
  8
0
  5
1D02
 10
-4.83019
 20
1.63386
 30
-1.10394e-15
  70
    32
  0
VERTEX
  8
0
  5
1D03
 10
-4.84156
 20
1.61417
 30
-1.10630e-15
  70
    32
  0
VERTEX
  8
0
  5
1D04
 10
-4.85292
 20
1.59449
 30
-1.10866e-15
  70
    32
  0
VERTEX
  8
0
  5
1D05
 10
-4.86429
 20
1.57480
 30
-1.11102e-15
  70
    32
  0
VERTEX
  8
0
  5
1D06
 10
-4.87565
 20
1.55512
 30
-1.11339e-15
  70
    32
  0
VERTEX
  8
0
  5
1D07
 10
-4.88702
 20
1.53543
 30
-1.11575e-15
  70
    32
  0
VERTEX
  8
0
  5
1D08
 10
-4.89839
 20
1.51575
 30
-1.11811e-15
  70
    32
  0
VERTEX
  8
0
  5
1D09
 10
-4.90975
 20
1.49606
 30
-1.12047e-15
  70
    32
  0
VERTEX
  8
0
  5
1D0A
 10
-4.92112
 20
1.47638
 30
-1.12283e-15
  70
    32
  0
VERTEX
  8
0
  5
1D0B
 10
-4.93248
 20
1.45669
 30
-1.12520e-15
  70
    32
  0
VERTEX
  8
0
  5
1D0C
 10
-4.94385
 20
1.43701
 30
-1.12756e-15
  70
    32
  0
VERTEX
  8
0
  5
1D0D
 10
-4.95521
 20
1.41732
 30
-1.12992e-15
  70
    32
  0
VERTEX
  8
0
  5
1D0E
 10
-4.96658
 20
1.39764
 30
-1.13228e-15
  70
    32
  0
VERTEX
  8
0
  5
1D0F
 10
-4.97794
 20
1.37795
 30
-1.13465e-15
  70
    32
  0
VERTEX
  8
0
  5
1D10
 10
-4.98931
 20
1.35827
 30
-1.13701e-15
  70
    32
  0
VERTEX
  8
0
  5
1D11
 10
-5.00067
 20
1.33858
 30
-1.13937e-15
  70
    32
  0
VERTEX
  8
0
  5
1D12
 10
-5.01204
 20
1.31890
 30
-1.14173e-15
  70
    32
  0
VERTEX
  8
0
  5
1D13
 10
-5.02340
 20
1.29921
 30
-1.14409e-15
  70
    32
  0
VERTEX
  8
0
  5
1D14
 10
-5.03477
 20
1.27953
 30
-1.14646e-15
  70
    32
  0
VERTEX
  8
0
  5
1D15
 10
-5.04613
 20
1.25984
 30
-1.14882e-15
  70
    32
  0
VERTEX
  8
0
  5
1D16
 10
-5.05750
 20
1.24016
 30
-1.15118e-15
  70
    32
  0
VERTEX
  8
0
  5
1D17
 10
-5.06886
 20
1.22047
 30
-1.15354e-15
  70
    32
  0
VERTEX
  8
0
  5
1D18
 10
-5.08023
 20
1.20079
 30
-1.15591e-15
  70
    32
  0
VERTEX
  8
0
  5
1D19
 10
-5.09159
 20
1.18110
 30
-1.15827e-15
  70
    32
  0
VERTEX
  8
0
  5
1D1A
 10
-5.10296
 20
1.16142
 30
-1.16063e-15
  70
    32
  0
VERTEX
  8
0
  5
1D1B
 10
-5.11432
 20
1.14173
 30
-1.16299e-15
  70
    32
  0
VERTEX
  8
0
  5
1D1C
 10
-5.12569
 20
1.12205
 30
-1.16535e-15
  70
    32
  0
VERTEX
  8
0
  5
1D1D
 10
-5.13705
 20
1.10236
 30
-1.16772e-15
  70
    32
  0
VERTEX
  8
0
  5
1D1E
 10
-5.14842
 20
1.08268
 30
-1.17008e-15
  70
    32
  0
VERTEX
  8
0
  5
1D1F
 10
-5.15978
 20
1.06299
 30
-1.17244e-15
  70
    32
  0
VERTEX
  8
0
  5
1D20
 10
-5.17115
 20
1.04331
 30
-1.17480e-15
  70
    32
  0
VERTEX
  8
0
  5
1D21
 10
-5.18251
 20
1.02362
 30
-1.17717e-15
  70
    32
  0
VERTEX
  8
0
  5
1D22
 10
-5.19388
 20
1.00394
 30
-1.17953e-15
  70
    32
  0
VERTEX
  8
0
  5
1D23
 10
-5.20524
 20
0.984252
 30
-1.18189e-15
  70
    32
  0
VERTEX
  8
0
  5
1D24
 10
-5.21661
 20
0.964567
 30
-1.18425e-15
  70
    32
  0
VERTEX
  8
0
  5
1D25
 10
-5.22797
 20
0.944882
 30
-1.18661e-15
  70
    32
  0
VERTEX
  8
0
  5
1D26
 10
-5.23934
 20
0.925197
 30
-1.18898e-15
  70
    32
  0
VERTEX
  8
0
  5
1D27
 10
-5.25071
 20
0.905512
 30
-1.19134e-15
  70
    32
  0
VERTEX
  8
0
  5
1D28
 10
-5.26207
 20
0.885827
 30
-1.19370e-15
  70
    32
  0
VERTEX
  8
0
  5
1D29
 10
-5.27344
 20
0.866142
 30
-1.19606e-15
  70
    32
  0
VERTEX
  8
0
  5
1D2A
 10
-5.28480
 20
0.846457
 30
-1.19843e-15
  70
    32
  0
VERTEX
  8
0
  5
1D2B
 10
-5.29617
 20
0.826772
 30
-1.20079e-15
  70
    32
  0
VERTEX
  8
0
  5
1D2C
 10
-5.30753
 20
0.807087
 30
-1.20315e-15
  70
    32
  0
VERTEX
  8
0
  5
1D2D
 10
-5.31890
 20
0.787402
 30
-1.20551e-15
  70
    32
  0
VERTEX
  8
0
  5
1D2E
 10
-5.33026
 20
0.767717
 30
-1.20787e-15
  70
    32
  0
VERTEX
  8
0
  5
1D2F
 10
-5.34163
 20
0.748032
 30
-1.21024e-15
  70
    32
  0
VERTEX
  8
0
  5
1D30
 10
-5.35299
 20
0.728346
 30
-1.21260e-15
  70
    32
  0
VERTEX
  8
0
  5
1D31
 10
-5.36436
 20
0.708661
 30
-1.21496e-15
  70
    32
  0
VERTEX
  8
0
  5
1D32
 10
-5.37572
 20
0.688976
 30
-1.21732e-15
  70
    32
  0
VERTEX
  8
0
  5
1D33
 10
-5.38709
 20
0.669291
 30
-1.21969e-15
  70
    32
  0
VERTEX
  8
0
  5
1D34
 10
-5.39845
 20
0.649606
 30
-1.22205e-15
  70
    32
  0
VERTEX
  8
0
  5
1D35
 10
-5.40982
 20
0.629921
 30
-1.22441e-15
  70
    32
  0
VERTEX
  8
0
  5
1D36
 10
-5.42118
 20
0.610236
 30
-1.22677e-15
  70
    32
  0
VERTEX
  8
0
  5
1D37
 10
-5.43255
 20
0.590551
 30
-1.22913e-15
  70
    32
  0
VERTEX
  8
0
  5
1D38
 10
-5.44391
 20
0.570866
 30
-1.23150e-15
  70
    32
  0
VERTEX
  8
0
  5
1D39
 10
-5.45528
 20
0.551181
 30
-1.23386e-15
  70
    32
  0
VERTEX
  8
0
  5
1D3A
 10
-5.46664
 20
0.531496
 30
-1.23622e-15
  70
    32
  0
VERTEX
  8
0
  5
1D3B
 10
-5.47801
 20
0.511811
 30
-1.23858e-15
  70
    32
  0
VERTEX
  8
0
  5
1D3C
 10
-5.48937
 20
0.492126
 30
-1.24094e-15
  70
    32
  0
VERTEX
  8
0
  5
1D3D
 10
-5.50074
 20
0.472441
 30
-1.24331e-15
  70
    32
  0
VERTEX
  8
0
  5
1D3E
 10
-5.51210
 20
0.452756
 30
-1.24567e-15
  70
    32
  0
VERTEX
  8
0
  5
1D3F
 10
-5.52347
 20
0.433071
 30
-1.24803e-15
  70
    32
  0
VERTEX
  8
0
  5
1D40
 10
-5.53483
 20
0.413386
 30
-1.25039e-15
  70
    32
  0
VERTEX
  8
0
  5
1D41
 10
-5.54620
 20
0.393701
 30
-1.25276e-15
  70
    32
  0
VERTEX
  8
0
  5
1D42
 10
-5.55756
 20
0.374016
 30
-1.25512e-15
  70
    32
  0
VERTEX
  8
0
  5
1D43
 10
-5.56893
 20
0.354331
 30
-1.25748e-15
  70
    32
  0
VERTEX
  8
0
  5
1D44
 10
-5.58029
 20
0.334646
 30
-1.25984e-15
  70
    32
  0
VERTEX
  8
0
  5
1D45
 10
-5.59166
 20
0.314961
 30
-1.26220e-15
  70
    32
  0
VERTEX
  8
0
  5
1D46
 10
-5.60303
 20
0.295276
 30
-1.26457e-15
  70
    32
  0
VERTEX
  8
0
  5
1D47
 10
-5.61439
 20
0.275591
 30
-1.26693e-15
  70
    32
  0
VERTEX
  8
0
  5
1D48
 10
-5.62576
 20
0.255906
 30
-1.26929e-15
  70
    32
  0
VERTEX
  8
0
  5
1D49
 10
-5.63712
 20
0.236220
 30
-1.27165e-15
  70
    32
  0
VERTEX
  8
0
  5
1D4A
 10
-5.64849
 20
0.216535
 30
-1.27402e-15
  70
    32
  0
VERTEX
  8
0
  5
1D4B
 10
-5.65985
 20
0.196850
 30
-1.27638e-15
  70
    32
  0
VERTEX
  8
0
  5
1D4C
 10
-5.67122
 20
0.177165
 30
-1.27874e-15
  70
    32
  0
VERTEX
  8
0
  5
1D4D
 10
-5.68258
 20
0.157480
 30
-1.28110e-15
  70
    32
  0
VERTEX
  8
0
  5
1D4E
 10
-5.69395
 20
0.137795
 30
-1.28346e-15
  70
    32
  0
VERTEX
  8
0
  5
1D4F
 10
-5.70531
 20
0.118110
 30
-1.28583e-15
  70
    32
  0
VERTEX
  8
0
  5
1D50
 10
-5.71668
 20
0.0984252
 30
-1.28819e-15
  70
    32
  0
VERTEX
  8
0
  5
1D51
 10
-5.72804
 20
0.0787402
 30
-1.29055e-15
  70
    32
  0
VERTEX
  8
0
  5
1D52
 10
-5.73941
 20
0.0590551
 30
-1.29291e-15
  70
    32
  0
VERTEX
  8
0
  5
1D53
 10
-5.75077
 20
0.0393701
 30
-1.29528e-15
  70
    32
  0
VERTEX
  8
0
  5
1D54
 10
-5.76214
 20
0.0196850
 30
-1.29764e-15
  70
    32
  0
VERTEX
  8
0
  5
1D55
 10
-5.77350
 20
8.66025e-09
 30
-1.30000e-15
  70
    32
  0
SEQEND
  8
0
  5
1D56
  0
POLYLINE
  8
0
  5
1D57
  62
3
  66
     1
 10
0.000000
 20
0.000000
 30
0.000000
  70
     8
  0
VERTEX
  8
0
  5
1D58
 10
-2.88675
 20
5.00000
 30
-6.00000e-16
  70
    32
  0
VERTEX
  8
0
  5
1D59
 10
-2.89812
 20
4.98031
 30
-6.02381e-16
  70
    32
  0
VERTEX
  8
0
  5
1D5A
 10
-2.90948
 20
4.96063
 30
-6.04798e-16
  70
    32
  0
VERTEX
  8
0
  5
1D5B
 10
-2.92085
 20
4.94094
 30
-6.07251e-16
  70
    32
  0
VERTEX
  8
0
  5
1D5C
 10
-2.93221
 20
4.92126
 30
-6.09740e-16
  70
    32
  0
VERTEX
  8
0
  5
1D5D
 10
-2.94358
 20
4.90157
 30
-6.12264e-16
  70
    32
  0
VERTEX
  8
0
  5
1D5E
 10
-2.95494
 20
4.88189
 30
-6.14822e-16
  70
    32
  0
VERTEX
  8
0
  5
1D5F
 10
-2.96631
 20
4.86220
 30
-6.17413e-16
  70
    32
  0
VERTEX
  8
0
  5
1D60
 10
-2.97767
 20
4.84252
 30
-6.20038e-16
  70
    32
  0
VERTEX
  8
0
  5
1D61
 10
-2.98904
 20
4.82283
 30
-6.22695e-16
  70
    32
  0
VERTEX
  8
0
  5
1D62
 10
-3.00040
 20
4.80315
 30
-6.25384e-16
  70
    32
  0
VERTEX
  8
0
  5
1D63
 10
-3.01177
 20
4.78346
 30
-6.28105e-16
  70
    32
  0
VERTEX
  8
0
  5
1D64
 10
-3.02313
 20
4.76378
 30
-6.30856e-16
  70
    32
  0
VERTEX
  8
0
  5
1D65
 10
-3.03450
 20
4.74409
 30
-6.33638e-16
  70
    32
  0
VERTEX
  8
0
  5
1D66
 10
-3.04586
 20
4.72441
 30
-6.36449e-16
  70
    32
  0
VERTEX
  8
0
  5
1D67
 10
-3.05723
 20
4.70472
 30
-6.39289e-16
  70
    32
  0
VERTEX
  8
0
  5
1D68
 10
-3.06859
 20
4.68504
 30
-6.42157e-16
  70
    32
  0
VERTEX
  8
0
  5
1D69
 10
-3.07996
 20
4.66535
 30
-6.45053e-16
  70
    32
  0
VERTEX
  8
0
  5
1D6A
 10
-3.09132
 20
4.64567
 30
-6.47977e-16
  70
    32
  0
VERTEX
  8
0
  5
1D6B
 10
-3.10269
 20
4.62598
 30
-6.50927e-16
  70
    32
  0
VERTEX
  8
0
  5
1D6C
 10
-3.11405
 20
4.60630
 30
-6.53903e-16
  70
    32
  0
VERTEX
  8
0
  5
1D6D
 10
-3.12542
 20
4.58661
 30
-6.56905e-16
  70
    32
  0
VERTEX
  8
0
  5
1D6E
 10
-3.13678
 20
4.56693
 30
-6.59931e-16
  70
    32
  0
VERTEX
  8
0
  5
1D6F
 10
-3.14815
 20
4.54724
 30
-6.62982e-16
  70
    32
  0
VERTEX
  8
0
  5
1D70
 10
-3.15952
 20
4.52756
 30
-6.66057e-16
  70
    32
  0
VERTEX
  8
0
  5
1D71
 10
-3.17088
 20
4.50787
 30
-6.69155e-16
  70
    32
  0
VERTEX
  8
0
  5
1D72
 10
-3.18225
 20
4.48819
 30
-6.72275e-16
  70
    32
  0
VERTEX
  8
0
  5
1D73
 10
-3.19361
 20
4.46850
 30
-6.75417e-16
  70
    32
  0
VERTEX
  8
0
  5
1D74
 10
-3.20498
 20
4.44882
 30
-6.78581e-16
  70
    32
  0
VERTEX
  8
0
  5
1D75
 10
-3.21634
 20
4.42913
 30
-6.81765e-16
  70
    32
  0
VERTEX
  8
0
  5
1D76
 10
-3.22771
 20
4.40945
 30
-6.84970e-16
  70
    32
  0
VERTEX
  8
0
  5
1D77
 10
-3.23907
 20
4.38976
 30
-6.88194e-16
  70
    32
  0
VERTEX
  8
0
  5
1D78
 10
-3.25044
 20
4.37008
 30
-6.91438e-16
  70
    32
  0
VERTEX
  8
0
  5
1D79
 10
-3.26180
 20
4.35039
 30
-6.94699e-16
  70
    32
  0
VERTEX
  8
0
  5
1D7A
 10
-3.27317
 20
4.33071
 30
-6.97979e-16
  70
    32
  0
VERTEX
  8
0
  5
1D7B
 10
-3.28453
 20
4.31102
 30
-7.01276e-16
  70
    32
  0
VERTEX
  8
0
  5
1D7C
 10
-3.29590
 20
4.29134
 30
-7.04590e-16
  70
    32
  0
VERTEX
  8
0
  5
1D7D
 10
-3.30726
 20
4.27165
 30
-7.07919e-16
  70
    32
  0
VERTEX
  8
0
  5
1D7E
 10
-3.31863
 20
4.25197
 30
-7.11265e-16
  70
    32
  0
VERTEX
  8
0
  5
1D7F
 10
-3.32999
 20
4.23228
 30
-7.14625e-16
  70
    32
  0
VERTEX
  8
0
  5
1D80
 10
-3.34136
 20
4.21260
 30
-7.17999e-16
  70
    32
  0
VERTEX
  8
0
  5
1D81
 10
-3.35272
 20
4.19291
 30
-7.21388e-16
  70
    32
  0
VERTEX
  8
0
  5
1D82
 10
-3.36409
 20
4.17323
 30
-7.24789e-16
  70
    32
  0
VERTEX
  8
0
  5
1D83
 10
-3.37545
 20
4.15354
 30
-7.28203e-16
  70
    32
  0
VERTEX
  8
0
  5
1D84
 10
-3.38682
 20
4.13386
 30
-7.31629e-16
  70
    32
  0
VERTEX
  8
0
  5
1D85
 10
-3.39818
 20
4.11417
 30
-7.35067e-16
  70
    32
  0
VERTEX
  8
0
  5
1D86
 10
-3.40955
 20
4.09449
 30
-7.38515e-16
  70
    32
  0
VERTEX
  8
0
  5
1D87
 10
-3.42091
 20
4.07480
 30
-7.41974e-16
  70
    32
  0
VERTEX
  8
0
  5
1D88
 10
-3.43228
 20
4.05512
 30
-7.45442e-16
  70
    32
  0
VERTEX
  8
0
  5
1D89
 10
-3.44364
 20
4.03543
 30
-7.48920e-16
  70
    32
  0
VERTEX
  8
0
  5
1D8A
 10
-3.45501
 20
4.01575
 30
-7.52406e-16
  70
    32
  0
VERTEX
  8
0
  5
1D8B
 10
-3.46637
 20
3.99606
 30
-7.55899e-16
  70
    32
  0
VERTEX
  8
0
  5
1D8C
 10
-3.47774
 20
3.97638
 30
-7.59400e-16
  70
    32
  0
VERTEX
  8
0
  5
1D8D
 10
-3.48910
 20
3.95669
 30
-7.62908e-16
  70
    32
  0
VERTEX
  8
0
  5
1D8E
 10
-3.50047
 20
3.93701
 30
-7.66422e-16
  70
    32
  0
VERTEX
  8
0
  5
1D8F
 10
-3.51184
 20
3.91732
 30
-7.69942e-16
  70
    32
  0
VERTEX
  8
0
  5
1D90
 10
-3.52320
 20
3.89764
 30
-7.73466e-16
  70
    32
  0
VERTEX
  8
0
  5
1D91
 10
-3.53457
 20
3.87795
 30
-7.76995e-16
  70
    32
  0
VERTEX
  8
0
  5
1D92
 10
-3.54593
 20
3.85827
 30
-7.80528e-16
  70
    32
  0
VERTEX
  8
0
  5
1D93
 10
-3.55730
 20
3.83858
 30
-7.84064e-16
  70
    32
  0
VERTEX
  8
0
  5
1D94
 10
-3.56866
 20
3.81890
 30
-7.87603e-16
  70
    32
  0
VERTEX
  8
0
  5
1D95
 10
-3.58003
 20
3.79921
 30
-7.91143e-16
  70
    32
  0
VERTEX
  8
0
  5
1D96
 10
-3.59139
 20
3.77953
 30
-7.94685e-16
  70
    32
  0
VERTEX
  8
0
  5
1D97
 10
-3.60276
 20
3.75984
 30
-7.98228e-16
  70
    32
  0
VERTEX
  8
0
  5
1D98
 10
-3.61412
 20
3.74016
 30
-8.01772e-16
  70
    32
  0
VERTEX
  8
0
  5
1D99
 10
-3.62549
 20
3.72047
 30
-8.05315e-16
  70
    32
  0
VERTEX
  8
0
  5
1D9A
 10
-3.63685
 20
3.70079
 30
-8.08857e-16
  70
    32
  0
VERTEX
  8
0
  5
1D9B
 10
-3.64822
 20
3.68110
 30
-8.12397e-16
  70
    32
  0
VERTEX
  8
0
  5
1D9C
 10
-3.65958
 20
3.66142
 30
-8.15936e-16
  70
    32
  0
VERTEX
  8
0
  5
1D9D
 10
-3.67095
 20
3.64173
 30
-8.19472e-16
  70
    32
  0
VERTEX
  8
0
  5
1D9E
 10
-3.68231
 20
3.62205
 30
-8.23005e-16
  70
    32
  0
VERTEX
  8
0
  5
1D9F
 10
-3.69368
 20
3.60236
 30
-8.26534e-16
  70
    32
  0
VERTEX
  8
0
  5
1DA0
 10
-3.70504
 20
3.58268
 30
-8.30058e-16
  70
    32
  0
VERTEX
  8
0
  5
1DA1
 10
-3.71641
 20
3.56299
 30
-8.33578e-16
  70
    32
  0
VERTEX
  8
0
  5
1DA2
 10
-3.72777
 20
3.54331
 30
-8.37092e-16
  70
    32
  0
VERTEX
  8
0
  5
1DA3
 10
-3.73914
 20
3.52362
 30
-8.40600e-16
  70
    32
  0
VERTEX
  8
0
  5
1DA4
 10
-3.75050
 20
3.50394
 30
-8.44101e-16
  70
    32
  0
VERTEX
  8
0
  5
1DA5
 10
-3.76187
 20
3.48425
 30
-8.47594e-16
  70
    32
  0
VERTEX
  8
0
  5
1DA6
 10
-3.77323
 20
3.46457
 30
-8.51080e-16
  70
    32
  0
VERTEX
  8
0
  5
1DA7
 10
-3.78460
 20
3.44488
 30
-8.54558e-16
  70
    32
  0
VERTEX
  8
0
  5
1DA8
 10
-3.79596
 20
3.42520
 30
-8.58026e-16
  70
    32
  0
VERTEX
  8
0
  5
1DA9
 10
-3.80733
 20
3.40551
 30
-8.61485e-16
  70
    32
  0
VERTEX
  8
0
  5
1DAA
 10
-3.81869
 20
3.38583
 30
-8.64933e-16
  70
    32
  0
VERTEX
  8
0
  5
1DAB
 10
-3.83006
 20
3.36614
 30
-8.68371e-16
  70
    32
  0
VERTEX
  8
0
  5
1DAC
 10
-3.84143
 20
3.34646
 30
-8.71797e-16
  70
    32
  0
VERTEX
  8
0
  5
1DAD
 10
-3.85279
 20
3.32677
 30
-8.75211e-16
  70
    32
  0
VERTEX
  8
0
  5
1DAE
 10
-3.86416
 20
3.30709
 30
-8.78612e-16
  70
    32
  0
VERTEX
  8
0
  5
1DAF
 10
-3.87552
 20
3.28740
 30
-8.82001e-16
  70
    32
  0
VERTEX
  8
0
  5
1DB0
 10
-3.88689
 20
3.26772
 30
-8.85375e-16
  70
    32
  0
VERTEX
  8
0
  5
1DB1
 10
-3.89825
 20
3.24803
 30
-8.88735e-16
  70
    32
  0
VERTEX
  8
0
  5
1DB2
 10
-3.90962
 20
3.22835
 30
-8.92081e-16
  70
    32
  0
VERTEX
  8
0
  5
1DB3
 10
-3.92098
 20
3.20866
 30
-8.95410e-16
  70
    32
  0
VERTEX
  8
0
  5
1DB4
 10
-3.93235
 20
3.18898
 30
-8.98724e-16
  70
    32
  0
VERTEX
  8
0
  5
1DB5
 10
-3.94371
 20
3.16929
 30
-9.02021e-16
  70
    32
  0
VERTEX
  8
0
  5
1DB6
 10
-3.95508
 20
3.14961
 30
-9.05301e-16
  70
    32
  0
VERTEX
  8
0
  5
1DB7
 10
-3.96644
 20
3.12992
 30
-9.08562e-16
  70
    32
  0
VERTEX
  8
0
  5
1DB8
 10
-3.97781
 20
3.11024
 30
-9.11806e-16
  70
    32
  0
VERTEX
  8
0
  5
1DB9
 10
-3.98917
 20
3.09055
 30
-9.15030e-16
  70
    32
  0
VERTEX
  8
0
  5
1DBA
 10
-4.00054
 20
3.07087
 30
-9.18235e-16
  70
    32
  0
VERTEX
  8
0
  5
1DBB
 10
-4.01190
 20
3.05118
 30
-9.21419e-16
  70
    32
  0
VERTEX
  8
0
  5
1DBC
 10
-4.02327
 20
3.03150
 30
-9.24583e-16
  70
    32
  0
VERTEX
  8
0
  5
1DBD
 10
-4.03463
 20
3.01181
 30
-9.27725e-16
  70
    32
  0
VERTEX
  8
0
  5
1DBE
 10
-4.04600
 20
2.99213
 30
-9.30845e-16
  70
    32
  0
VERTEX
  8
0
  5
1DBF
 10
-4.05736
 20
2.97244
 30
-9.33943e-16
  70
    32
  0
VERTEX
  8
0
  5
1DC0
 10
-4.06873
 20
2.95276
 30
-9.37018e-16
  70
    32
  0
VERTEX
  8
0
  5
1DC1
 10
-4.08009
 20
2.93307
 30
-9.40069e-16
  70
    32
  0
VERTEX
  8
0
  5
1DC2
 10
-4.09146
 20
2.91339
 30
-9.43095e-16
  70
    32
  0
VERTEX
  8
0
  5
1DC3
 10
-4.10282
 20
2.89370
 30
-9.46097e-16
  70
    32
  0
VERTEX
  8
0
  5
1DC4
 10
-4.11419
 20
2.87402
 30
-9.49073e-16
  70
    32
  0
VERTEX
  8
0
  5
1DC5
 10
-4.12555
 20
2.85433
 30
-9.52023e-16
  70
    32
  0
VERTEX
  8
0
  5
1DC6
 10
-4.13692
 20
2.83465
 30
-9.54947e-16
  70
    32
  0
VERTEX
  8
0
  5
1DC7
 10
-4.14828
 20
2.81496
 30
-9.57843e-16
  70
    32
  0
VERTEX
  8
0
  5
1DC8
 10
-4.15965
 20
2.79528
 30
-9.60711e-16
  70
    32
  0
VERTEX
  8
0
  5
1DC9
 10
-4.17101
 20
2.77559
 30
-9.63551e-16
  70
    32
  0
VERTEX
  8
0
  5
1DCA
 10
-4.18238
 20
2.75591
 30
-9.66362e-16
  70
    32
  0
VERTEX
  8
0
  5
1DCB
 10
-4.19375
 20
2.73622
 30
-9.69144e-16
  70
    32
  0
VERTEX
  8
0
  5
1DCC
 10
-4.20511
 20
2.71654
 30
-9.71895e-16
  70
    32
  0
VERTEX
  8
0
  5
1DCD
 10
-4.21648
 20
2.69685
 30
-9.74616e-16
  70
    32
  0
VERTEX
  8
0
  5
1DCE
 10
-4.22784
 20
2.67717
 30
-9.77305e-16
  70
    32
  0
VERTEX
  8
0
  5
1DCF
 10
-4.23921
 20
2.65748
 30
-9.79962e-16
  70
    32
  0
VERTEX
  8
0
  5
1DD0
 10
-4.25057
 20
2.63780
 30
-9.82587e-16
  70
    32
  0
VERTEX
  8
0
  5
1DD1
 10
-4.26194
 20
2.61811
 30
-9.85178e-16
  70
    32
  0
VERTEX
  8
0
  5
1DD2
 10
-4.27330
 20
2.59843
 30
-9.87736e-16
  70
    32
  0
VERTEX
  8
0
  5
1DD3
 10
-4.28467
 20
2.57874
 30
-9.90260e-16
  70
    32
  0
VERTEX
  8
0
  5
1DD4
 10
-4.29603
 20
2.55906
 30
-9.92749e-16
  70
    32
  0
VERTEX
  8
0
  5
1DD5
 10
-4.30740
 20
2.53937
 30
-9.95202e-16
  70
    32
  0
VERTEX
  8
0
  5
1DD6
 10
-4.31876
 20
2.51969
 30
-9.97619e-16
  70
    32
  0
VERTEX
  8
0
  5
1DD7
 10
-4.33013
 20
2.50000
 30
-1.00000e-15
  70
    32
  0
SEQEND
  8
0
  5
1DD8
  0
POLYLINE
  8
0
  5
1DD9
  62
3
  66
     1
 10
0.000000
 20
0.000000
 30
0.000000
  70
     8
  0
VERTEX
  8
0
  5
1DDA
 10
2.88675
 20
-5.00000
 30
6.00000e-16
  70
    32
  0
VERTEX
  8
0
  5
1DDB
 10
2.89812
 20
-4.98031
 30
6.02381e-16
  70
    32
  0
VERTEX
  8
0
  5
1DDC
 10
2.90948
 20
-4.96063
 30
6.04798e-16
  70
    32
  0
VERTEX
  8
0
  5
1DDD
 10
2.92085
 20
-4.94094
 30
6.07251e-16
  70
    32
  0
VERTEX
  8
0
  5
1DDE
 10
2.93221
 20
-4.92126
 30
6.09740e-16
  70
    32
  0
VERTEX
  8
0
  5
1DDF
 10
2.94358
 20
-4.90157
 30
6.12264e-16
  70
    32
  0
VERTEX
  8
0
  5
1DE0
 10
2.95494
 20
-4.88189
 30
6.14822e-16
  70
    32
  0
VERTEX
  8
0
  5
1DE1
 10
2.96631
 20
-4.86220
 30
6.17413e-16
  70
    32
  0
VERTEX
  8
0
  5
1DE2
 10
2.97767
 20
-4.84252
 30
6.20038e-16
  70
    32
  0
VERTEX
  8
0
  5
1DE3
 10
2.98904
 20
-4.82283
 30
6.22695e-16
  70
    32
  0
VERTEX
  8
0
  5
1DE4
 10
3.00040
 20
-4.80315
 30
6.25384e-16
  70
    32
  0
VERTEX
  8
0
  5
1DE5
 10
3.01177
 20
-4.78346
 30
6.28105e-16
  70
    32
  0
VERTEX
  8
0
  5
1DE6
 10
3.02313
 20
-4.76378
 30
6.30856e-16
  70
    32
  0
VERTEX
  8
0
  5
1DE7
 10
3.03450
 20
-4.74409
 30
6.33638e-16
  70
    32
  0
VERTEX
  8
0
  5
1DE8
 10
3.04586
 20
-4.72441
 30
6.36449e-16
  70
    32
  0
VERTEX
  8
0
  5
1DE9
 10
3.05723
 20
-4.70472
 30
6.39289e-16
  70
    32
  0
VERTEX
  8
0
  5
1DEA
 10
3.06859
 20
-4.68504
 30
6.42157e-16
  70
    32
  0
VERTEX
  8
0
  5
1DEB
 10
3.07996
 20
-4.66535
 30
6.45053e-16
  70
    32
  0
VERTEX
  8
0
  5
1DEC
 10
3.09132
 20
-4.64567
 30
6.47977e-16
  70
    32
  0
VERTEX
  8
0
  5
1DED
 10
3.10269
 20
-4.62598
 30
6.50927e-16
  70
    32
  0
VERTEX
  8
0
  5
1DEE
 10
3.11405
 20
-4.60630
 30
6.53903e-16
  70
    32
  0
VERTEX
  8
0
  5
1DEF
 10
3.12542
 20
-4.58661
 30
6.56905e-16
  70
    32
  0
VERTEX
  8
0
  5
1DF0
 10
3.13678
 20
-4.56693
 30
6.59931e-16
  70
    32
  0
VERTEX
  8
0
  5
1DF1
 10
3.14815
 20
-4.54724
 30
6.62982e-16
  70
    32
  0
VERTEX
  8
0
  5
1DF2
 10
3.15952
 20
-4.52756
 30
6.66057e-16
  70
    32
  0
VERTEX
  8
0
  5
1DF3
 10
3.17088
 20
-4.50787
 30
6.69155e-16
  70
    32
  0
VERTEX
  8
0
  5
1DF4
 10
3.18225
 20
-4.48819
 30
6.72275e-16
  70
    32
  0
VERTEX
  8
0
  5
1DF5
 10
3.19361
 20
-4.46850
 30
6.75417e-16
  70
    32
  0
VERTEX
  8
0
  5
1DF6
 10
3.20498
 20
-4.44882
 30
6.78581e-16
  70
    32
  0
VERTEX
  8
0
  5
1DF7
 10
3.21634
 20
-4.42913
 30
6.81765e-16
  70
    32
  0
VERTEX
  8
0
  5
1DF8
 10
3.22771
 20
-4.40945
 30
6.84970e-16
  70
    32
  0
VERTEX
  8
0
  5
1DF9
 10
3.23907
 20
-4.38976
 30
6.88194e-16
  70
    32
  0
VERTEX
  8
0
  5
1DFA
 10
3.25044
 20
-4.37008
 30
6.91438e-16
  70
    32
  0
VERTEX
  8
0
  5
1DFB
 10
3.26180
 20
-4.35039
 30
6.94699e-16
  70
    32
  0
VERTEX
  8
0
  5
1DFC
 10
3.27317
 20
-4.33071
 30
6.97979e-16
  70
    32
  0
VERTEX
  8
0
  5
1DFD
 10
3.28453
 20
-4.31102
 30
7.01276e-16
  70
    32
  0
VERTEX
  8
0
  5
1DFE
 10
3.29590
 20
-4.29134
 30
7.04590e-16
  70
    32
  0
VERTEX
  8
0
  5
1DFF
 10
3.30726
 20
-4.27165
 30
7.07919e-16
  70
    32
  0
VERTEX
  8
0
  5
1E00
 10
3.31863
 20
-4.25197
 30
7.11265e-16
  70
    32
  0
VERTEX
  8
0
  5
1E01
 10
3.32999
 20
-4.23228
 30
7.14625e-16
  70
    32
  0
VERTEX
  8
0
  5
1E02
 10
3.34136
 20
-4.21260
 30
7.17999e-16
  70
    32
  0
VERTEX
  8
0
  5
1E03
 10
3.35272
 20
-4.19291
 30
7.21388e-16
  70
    32
  0
VERTEX
  8
0
  5
1E04
 10
3.36409
 20
-4.17323
 30
7.24789e-16
  70
    32
  0
VERTEX
  8
0
  5
1E05
 10
3.37545
 20
-4.15354
 30
7.28203e-16
  70
    32
  0
VERTEX
  8
0
  5
1E06
 10
3.38682
 20
-4.13386
 30
7.31629e-16
  70
    32
  0
VERTEX
  8
0
  5
1E07
 10
3.39818
 20
-4.11417
 30
7.35067e-16
  70
    32
  0
VERTEX
  8
0
  5
1E08
 10
3.40955
 20
-4.09449
 30
7.38515e-16
  70
    32
  0
VERTEX
  8
0
  5
1E09
 10
3.42091
 20
-4.07480
 30
7.41974e-16
  70
    32
  0
VERTEX
  8
0
  5
1E0A
 10
3.43228
 20
-4.05512
 30
7.45442e-16
  70
    32
  0
VERTEX
  8
0
  5
1E0B
 10
3.44364
 20
-4.03543
 30
7.48920e-16
  70
    32
  0
VERTEX
  8
0
  5
1E0C
 10
3.45501
 20
-4.01575
 30
7.52406e-16
  70
    32
  0
VERTEX
  8
0
  5
1E0D
 10
3.46637
 20
-3.99606
 30
7.55899e-16
  70
    32
  0
VERTEX
  8
0
  5
1E0E
 10
3.47774
 20
-3.97638
 30
7.59400e-16
  70
    32
  0
VERTEX
  8
0
  5
1E0F
 10
3.48910
 20
-3.95669
 30
7.62908e-16
  70
    32
  0
VERTEX
  8
0
  5
1E10
 10
3.50047
 20
-3.93701
 30
7.66422e-16
  70
    32
  0
VERTEX
  8
0
  5
1E11
 10
3.51184
 20
-3.91732
 30
7.69942e-16
  70
    32
  0
VERTEX
  8
0
  5
1E12
 10
3.52320
 20
-3.89764
 30
7.73466e-16
  70
    32
  0
VERTEX
  8
0
  5
1E13
 10
3.53457
 20
-3.87795
 30
7.76995e-16
  70
    32
  0
VERTEX
  8
0
  5
1E14
 10
3.54593
 20
-3.85827
 30
7.80528e-16
  70
    32
  0
VERTEX
  8
0
  5
1E15
 10
3.55730
 20
-3.83858
 30
7.84064e-16
  70
    32
  0
VERTEX
  8
0
  5
1E16
 10
3.56866
 20
-3.81890
 30
7.87603e-16
  70
    32
  0
VERTEX
  8
0
  5
1E17
 10
3.58003
 20
-3.79921
 30
7.91143e-16
  70
    32
  0
VERTEX
  8
0
  5
1E18
 10
3.59139
 20
-3.77953
 30
7.94685e-16
  70
    32
  0
VERTEX
  8
0
  5
1E19
 10
3.60276
 20
-3.75984
 30
7.98228e-16
  70
    32
  0
VERTEX
  8
0
  5
1E1A
 10
3.61412
 20
-3.74016
 30
8.01772e-16
  70
    32
  0
VERTEX
  8
0
  5
1E1B
 10
3.62549
 20
-3.72047
 30
8.05315e-16
  70
    32
  0
VERTEX
  8
0
  5
1E1C
 10
3.63685
 20
-3.70079
 30
8.08857e-16
  70
    32
  0
VERTEX
  8
0
  5
1E1D
 10
3.64822
 20
-3.68110
 30
8.12397e-16
  70
    32
  0
VERTEX
  8
0
  5
1E1E
 10
3.65958
 20
-3.66142
 30
8.15936e-16
  70
    32
  0
VERTEX
  8
0
  5
1E1F
 10
3.67095
 20
-3.64173
 30
8.19472e-16
  70
    32
  0
VERTEX
  8
0
  5
1E20
 10
3.68231
 20
-3.62205
 30
8.23005e-16
  70
    32
  0
VERTEX
  8
0
  5
1E21
 10
3.69368
 20
-3.60236
 30
8.26534e-16
  70
    32
  0
VERTEX
  8
0
  5
1E22
 10
3.70504
 20
-3.58268
 30
8.30058e-16
  70
    32
  0
VERTEX
  8
0
  5
1E23
 10
3.71641
 20
-3.56299
 30
8.33578e-16
  70
    32
  0
VERTEX
  8
0
  5
1E24
 10
3.72777
 20
-3.54331
 30
8.37092e-16
  70
    32
  0
VERTEX
  8
0
  5
1E25
 10
3.73914
 20
-3.52362
 30
8.40600e-16
  70
    32
  0
VERTEX
  8
0
  5
1E26
 10
3.75050
 20
-3.50394
 30
8.44101e-16
  70
    32
  0
VERTEX
  8
0
  5
1E27
 10
3.76187
 20
-3.48425
 30
8.47594e-16
  70
    32
  0
VERTEX
  8
0
  5
1E28
 10
3.77323
 20
-3.46457
 30
8.51080e-16
  70
    32
  0
VERTEX
  8
0
  5
1E29
 10
3.78460
 20
-3.44488
 30
8.54558e-16
  70
    32
  0
VERTEX
  8
0
  5
1E2A
 10
3.79596
 20
-3.42520
 30
8.58026e-16
  70
    32
  0
VERTEX
  8
0
  5
1E2B
 10
3.80733
 20
-3.40551
 30
8.61485e-16
  70
    32
  0
VERTEX
  8
0
  5
1E2C
 10
3.81869
 20
-3.38583
 30
8.64933e-16
  70
    32
  0
VERTEX
  8
0
  5
1E2D
 10
3.83006
 20
-3.36614
 30
8.68371e-16
  70
    32
  0
VERTEX
  8
0
  5
1E2E
 10
3.84143
 20
-3.34646
 30
8.71797e-16
  70
    32
  0
VERTEX
  8
0
  5
1E2F
 10
3.85279
 20
-3.32677
 30
8.75211e-16
  70
    32
  0
VERTEX
  8
0
  5
1E30
 10
3.86416
 20
-3.30709
 30
8.78612e-16
  70
    32
  0
VERTEX
  8
0
  5
1E31
 10
3.87552
 20
-3.28740
 30
8.82001e-16
  70
    32
  0
VERTEX
  8
0
  5
1E32
 10
3.88689
 20
-3.26772
 30
8.85375e-16
  70
    32
  0
VERTEX
  8
0
  5
1E33
 10
3.89825
 20
-3.24803
 30
8.88735e-16
  70
    32
  0
VERTEX
  8
0
  5
1E34
 10
3.90962
 20
-3.22835
 30
8.92081e-16
  70
    32
  0
VERTEX
  8
0
  5
1E35
 10
3.92098
 20
-3.20866
 30
8.95410e-16
  70
    32
  0
VERTEX
  8
0
  5
1E36
 10
3.93235
 20
-3.18898
 30
8.98724e-16
  70
    32
  0
VERTEX
  8
0
  5
1E37
 10
3.94371
 20
-3.16929
 30
9.02021e-16
  70
    32
  0
VERTEX
  8
0
  5
1E38
 10
3.95508
 20
-3.14961
 30
9.05301e-16
  70
    32
  0
VERTEX
  8
0
  5
1E39
 10
3.96644
 20
-3.12992
 30
9.08562e-16
  70
    32
  0
VERTEX
  8
0
  5
1E3A
 10
3.97781
 20
-3.11024
 30
9.11806e-16
  70
    32
  0
VERTEX
  8
0
  5
1E3B
 10
3.98917
 20
-3.09055
 30
9.15030e-16
  70
    32
  0
VERTEX
  8
0
  5
1E3C
 10
4.00054
 20
-3.07087
 30
9.18235e-16
  70
    32
  0
VERTEX
  8
0
  5
1E3D
 10
4.01190
 20
-3.05118
 30
9.21419e-16
  70
    32
  0
VERTEX
  8
0
  5
1E3E
 10
4.02327
 20
-3.03150
 30
9.24583e-16
  70
    32
  0
VERTEX
  8
0
  5
1E3F
 10
4.03463
 20
-3.01181
 30
9.27725e-16
  70
    32
  0
VERTEX
  8
0
  5
1E40
 10
4.04600
 20
-2.99213
 30
9.30845e-16
  70
    32
  0
VERTEX
  8
0
  5
1E41
 10
4.05736
 20
-2.97244
 30
9.33943e-16
  70
    32
  0
VERTEX
  8
0
  5
1E42
 10
4.06873
 20
-2.95276
 30
9.37018e-16
  70
    32
  0
VERTEX
  8
0
  5
1E43
 10
4.08009
 20
-2.93307
 30
9.40069e-16
  70
    32
  0
VERTEX
  8
0
  5
1E44
 10
4.09146
 20
-2.91339
 30
9.43095e-16
  70
    32
  0
VERTEX
  8
0
  5
1E45
 10
4.10282
 20
-2.89370
 30
9.46097e-16
  70
    32
  0
VERTEX
  8
0
  5
1E46
 10
4.11419
 20
-2.87402
 30
9.49073e-16
  70
    32
  0
VERTEX
  8
0
  5
1E47
 10
4.12555
 20
-2.85433
 30
9.52023e-16
  70
    32
  0
VERTEX
  8
0
  5
1E48
 10
4.13692
 20
-2.83465
 30
9.54947e-16
  70
    32
  0
VERTEX
  8
0
  5
1E49
 10
4.14828
 20
-2.81496
 30
9.57843e-16
  70
    32
  0
VERTEX
  8
0
  5
1E4A
 10
4.15965
 20
-2.79528
 30
9.60711e-16
  70
    32
  0
VERTEX
  8
0
  5
1E4B
 10
4.17101
 20
-2.77559
 30
9.63551e-16
  70
    32
  0
VERTEX
  8
0
  5
1E4C
 10
4.18238
 20
-2.75591
 30
9.66362e-16
  70
    32
  0
VERTEX
  8
0
  5
1E4D
 10
4.19375
 20
-2.73622
 30
9.69144e-16
  70
    32
  0
VERTEX
  8
0
  5
1E4E
 10
4.20511
 20
-2.71654
 30
9.71895e-16
  70
    32
  0
VERTEX
  8
0
  5
1E4F
 10
4.21648
 20
-2.69685
 30
9.74616e-16
  70
    32
  0
VERTEX
  8
0
  5
1E50
 10
4.22784
 20
-2.67717
 30
9.77305e-16
  70
    32
  0
VERTEX
  8
0
  5
1E51
 10
4.23921
 20
-2.65748
 30
9.79962e-16
  70
    32
  0
VERTEX
  8
0
  5
1E52
 10
4.25057
 20
-2.63780
 30
9.82587e-16
  70
    32
  0
VERTEX
  8
0
  5
1E53
 10
4.26194
 20
-2.61811
 30
9.85178e-16
  70
    32
  0
VERTEX
  8
0
  5
1E54
 10
4.27330
 20
-2.59843
 30
9.87736e-16
  70
    32
  0
VERTEX
  8
0
  5
1E55
 10
4.28467
 20
-2.57874
 30
9.90260e-16
  70
    32
  0
VERTEX
  8
0
  5
1E56
 10
4.29603
 20
-2.55906
 30
9.92749e-16
  70
    32
  0
VERTEX
  8
0
  5
1E57
 10
4.30740
 20
-2.53937
 30
9.95202e-16
  70
    32
  0
VERTEX
  8
0
  5
1E58
 10
4.31876
 20
-2.51969
 30
9.97619e-16
  70
    32
  0
VERTEX
  8
0
  5
1E59
 10
4.33013
 20
-2.50000
 30
1.00000e-15
  70
    32
  0
SEQEND
  8
0
  5
1E5A
  0
POLYLINE
  8
0
  5
1E5B
  62
3
  66
     1
 10
0.000000
 20
0.000000
 30
0.000000
  70
     8
  0
VERTEX
  8
0
  5
1E5C
 10
4.33013
 20
-2.50000
 30
1.00000e-15
  70
    32
  0
VERTEX
  8
0
  5
1E5D
 10
4.34149
 20
-2.48031
 30
1.00236e-15
  70
    32
  0
VERTEX
  8
0
  5
1E5E
 10
4.35286
 20
-2.46063
 30
1.00472e-15
  70
    32
  0
VERTEX
  8
0
  5
1E5F
 10
4.36422
 20
-2.44094
 30
1.00709e-15
  70
    32
  0
VERTEX
  8
0
  5
1E60
 10
4.37559
 20
-2.42126
 30
1.00945e-15
  70
    32
  0
VERTEX
  8
0
  5
1E61
 10
4.38695
 20
-2.40157
 30
1.01181e-15
  70
    32
  0
VERTEX
  8
0
  5
1E62
 10
4.39832
 20
-2.38189
 30
1.01417e-15
  70
    32
  0
VERTEX
  8
0
  5
1E63
 10
4.40968
 20
-2.36220
 30
1.01654e-15
  70
    32
  0
VERTEX
  8
0
  5
1E64
 10
4.42105
 20
-2.34252
 30
1.01890e-15
  70
    32
  0
VERTEX
  8
0
  5
1E65
 10
4.43241
 20
-2.32283
 30
1.02126e-15
  70
    32
  0
VERTEX
  8
0
  5
1E66
 10
4.44378
 20
-2.30315
 30
1.02362e-15
  70
    32
  0
VERTEX
  8
0
  5
1E67
 10
4.45514
 20
-2.28346
 30
1.02598e-15
  70
    32
  0
VERTEX
  8
0
  5
1E68
 10
4.46651
 20
-2.26378
 30
1.02835e-15
  70
    32
  0
VERTEX
  8
0
  5
1E69
 10
4.47787
 20
-2.24409
 30
1.03071e-15
  70
    32
  0
VERTEX
  8
0
  5
1E6A
 10
4.48924
 20
-2.22441
 30
1.03307e-15
  70
    32
  0
VERTEX
  8
0
  5
1E6B
 10
4.50060
 20
-2.20472
 30
1.03543e-15
  70
    32
  0
VERTEX
  8
0
  5
1E6C
 10
4.51197
 20
-2.18504
 30
1.03780e-15
  70
    32
  0
VERTEX
  8
0
  5
1E6D
 10
4.52333
 20
-2.16535
 30
1.04016e-15
  70
    32
  0
VERTEX
  8
0
  5
1E6E
 10
4.53470
 20
-2.14567
 30
1.04252e-15
  70
    32
  0
VERTEX
  8
0
  5
1E6F
 10
4.54607
 20
-2.12598
 30
1.04488e-15
  70
    32
  0
VERTEX
  8
0
  5
1E70
 10
4.55743
 20
-2.10630
 30
1.04724e-15
  70
    32
  0
VERTEX
  8
0
  5
1E71
 10
4.56880
 20
-2.08661
 30
1.04961e-15
  70
    32
  0
VERTEX
  8
0
  5
1E72
 10
4.58016
 20
-2.06693
 30
1.05197e-15
  70
    32
  0
VERTEX
  8
0
  5
1E73
 10
4.59153
 20
-2.04724
 30
1.05433e-15
  70
    32
  0
VERTEX
  8
0
  5
1E74
 10
4.60289
 20
-2.02756
 30
1.05669e-15
  70
    32
  0
VERTEX
  8
0
  5
1E75
 10
4.61426
 20
-2.00787
 30
1.05906e-15
  70
    32
  0
VERTEX
  8
0
  5
1E76
 10
4.62562
 20
-1.98819
 30
1.06142e-15
  70
    32
  0
VERTEX
  8
0
  5
1E77
 10
4.63699
 20
-1.96850
 30
1.06378e-15
  70
    32
  0
VERTEX
  8
0
  5
1E78
 10
4.64835
 20
-1.94882
 30
1.06614e-15
  70
    32
  0
VERTEX
  8
0
  5
1E79
 10
4.65972
 20
-1.92913
 30
1.06850e-15
  70
    32
  0
VERTEX
  8
0
  5
1E7A
 10
4.67108
 20
-1.90945
 30
1.07087e-15
  70
    32
  0
VERTEX
  8
0
  5
1E7B
 10
4.68245
 20
-1.88976
 30
1.07323e-15
  70
    32
  0
VERTEX
  8
0
  5
1E7C
 10
4.69381
 20
-1.87008
 30
1.07559e-15
  70
    32
  0
VERTEX
  8
0
  5
1E7D
 10
4.70518
 20
-1.85039
 30
1.07795e-15
  70
    32
  0
VERTEX
  8
0
  5
1E7E
 10
4.71654
 20
-1.83071
 30
1.08031e-15
  70
    32
  0
VERTEX
  8
0
  5
1E7F
 10
4.72791
 20
-1.81102
 30
1.08268e-15
  70
    32
  0
VERTEX
  8
0
  5
1E80
 10
4.73927
 20
-1.79134
 30
1.08504e-15
  70
    32
  0
VERTEX
  8
0
  5
1E81
 10
4.75064
 20
-1.77165
 30
1.08740e-15
  70
    32
  0
VERTEX
  8
0
  5
1E82
 10
4.76200
 20
-1.75197
 30
1.08976e-15
  70
    32
  0
VERTEX
  8
0
  5
1E83
 10
4.77337
 20
-1.73228
 30
1.09213e-15
  70
    32
  0
VERTEX
  8
0
  5
1E84
 10
4.78473
 20
-1.71260
 30
1.09449e-15
  70
    32
  0
VERTEX
  8
0
  5
1E85
 10
4.79610
 20
-1.69291
 30
1.09685e-15
  70
    32
  0
VERTEX
  8
0
  5
1E86
 10
4.80746
 20
-1.67323
 30
1.09921e-15
  70
    32
  0
VERTEX
  8
0
  5
1E87
 10
4.81883
 20
-1.65354
 30
1.10157e-15
  70
    32
  0
VERTEX
  8
0
  5
1E88
 10
4.83019
 20
-1.63386
 30
1.10394e-15
  70
    32
  0
VERTEX
  8
0
  5
1E89
 10
4.84156
 20
-1.61417
 30
1.10630e-15
  70
    32
  0
VERTEX
  8
0
  5
1E8A
 10
4.85292
 20
-1.59449
 30
1.10866e-15
  70
    32
  0
VERTEX
  8
0
  5
1E8B
 10
4.86429
 20
-1.57480
 30
1.11102e-15
  70
    32
  0
VERTEX
  8
0
  5
1E8C
 10
4.87565
 20
-1.55512
 30
1.11339e-15
  70
    32
  0
VERTEX
  8
0
  5
1E8D
 10
4.88702
 20
-1.53543
 30
1.11575e-15
  70
    32
  0
VERTEX
  8
0
  5
1E8E
 10
4.89839
 20
-1.51575
 30
1.11811e-15
  70
    32
  0
VERTEX
  8
0
  5
1E8F
 10
4.90975
 20
-1.49606
 30
1.12047e-15
  70
    32
  0
VERTEX
  8
0
  5
1E90
 10
4.92112
 20
-1.47638
 30
1.12283e-15
  70
    32
  0
VERTEX
  8
0
  5
1E91
 10
4.93248
 20
-1.45669
 30
1.12520e-15
  70
    32
  0
VERTEX
  8
0
  5
1E92
 10
4.94385
 20
-1.43701
 30
1.12756e-15
  70
    32
  0
VERTEX
  8
0
  5
1E93
 10
4.95521
 20
-1.41732
 30
1.12992e-15
  70
    32
  0
VERTEX
  8
0
  5
1E94
 10
4.96658
 20
-1.39764
 30
1.13228e-15
  70
    32
  0
VERTEX
  8
0
  5
1E95
 10
4.97794
 20
-1.37795
 30
1.13465e-15
  70
    32
  0
VERTEX
  8
0
  5
1E96
 10
4.98931
 20
-1.35827
 30
1.13701e-15
  70
    32
  0
VERTEX
  8
0
  5
1E97
 10
5.00067
 20
-1.33858
 30
1.13937e-15
  70
    32
  0
VERTEX
  8
0
  5
1E98
 10
5.01204
 20
-1.31890
 30
1.14173e-15
  70
    32
  0
VERTEX
  8
0
  5
1E99
 10
5.02340
 20
-1.29921
 30
1.14409e-15
  70
    32
  0
VERTEX
  8
0
  5
1E9A
 10
5.03477
 20
-1.27953
 30
1.14646e-15
  70
    32
  0
VERTEX
  8
0
  5
1E9B
 10
5.04613
 20
-1.25984
 30
1.14882e-15
  70
    32
  0
VERTEX
  8
0
  5
1E9C
 10
5.05750
 20
-1.24016
 30
1.15118e-15
  70
    32
  0
VERTEX
  8
0
  5
1E9D
 10
5.06886
 20
-1.22047
 30
1.15354e-15
  70
    32
  0
VERTEX
  8
0
  5
1E9E
 10
5.08023
 20
-1.20079
 30
1.15591e-15
  70
    32
  0
VERTEX
  8
0
  5
1E9F
 10
5.09159
 20
-1.18110
 30
1.15827e-15
  70
    32
  0
VERTEX
  8
0
  5
1EA0
 10
5.10296
 20
-1.16142
 30
1.16063e-15
  70
    32
  0
VERTEX
  8
0
  5
1EA1
 10
5.11432
 20
-1.14173
 30
1.16299e-15
  70
    32
  0
VERTEX
  8
0
  5
1EA2
 10
5.12569
 20
-1.12205
 30
1.16535e-15
  70
    32
  0
VERTEX
  8
0
  5
1EA3
 10
5.13705
 20
-1.10236
 30
1.16772e-15
  70
    32
  0
VERTEX
  8
0
  5
1EA4
 10
5.14842
 20
-1.08268
 30
1.17008e-15
  70
    32
  0
VERTEX
  8
0
  5
1EA5
 10
5.15978
 20
-1.06299
 30
1.17244e-15
  70
    32
  0
VERTEX
  8
0
  5
1EA6
 10
5.17115
 20
-1.04331
 30
1.17480e-15
  70
    32
  0
VERTEX
  8
0
  5
1EA7
 10
5.18251
 20
-1.02362
 30
1.17717e-15
  70
    32
  0
VERTEX
  8
0
  5
1EA8
 10
5.19388
 20
-1.00394
 30
1.17953e-15
  70
    32
  0
VERTEX
  8
0
  5
1EA9
 10
5.20524
 20
-0.984252
 30
1.18189e-15
  70
    32
  0
VERTEX
  8
0
  5
1EAA
 10
5.21661
 20
-0.964567
 30
1.18425e-15
  70
    32
  0
VERTEX
  8
0
  5
1EAB
 10
5.22797
 20
-0.944882
 30
1.18661e-15
  70
    32
  0
VERTEX
  8
0
  5
1EAC
 10
5.23934
 20
-0.925197
 30
1.18898e-15
  70
    32
  0
VERTEX
  8
0
  5
1EAD
 10
5.25071
 20
-0.905512
 30
1.19134e-15
  70
    32
  0
VERTEX
  8
0
  5
1EAE
 10
5.26207
 20
-0.885827
 30
1.19370e-15
  70
    32
  0
VERTEX
  8
0
  5
1EAF
 10
5.27344
 20
-0.866142
 30
1.19606e-15
  70
    32
  0
VERTEX
  8
0
  5
1EB0
 10
5.28480
 20
-0.846457
 30
1.19843e-15
  70
    32
  0
VERTEX
  8
0
  5
1EB1
 10
5.29617
 20
-0.826772
 30
1.20079e-15
  70
    32
  0
VERTEX
  8
0
  5
1EB2
 10
5.30753
 20
-0.807087
 30
1.20315e-15
  70
    32
  0
VERTEX
  8
0
  5
1EB3
 10
5.31890
 20
-0.787402
 30
1.20551e-15
  70
    32
  0
VERTEX
  8
0
  5
1EB4
 10
5.33026
 20
-0.767717
 30
1.20787e-15
  70
    32
  0
VERTEX
  8
0
  5
1EB5
 10
5.34163
 20
-0.748032
 30
1.21024e-15
  70
    32
  0
VERTEX
  8
0
  5
1EB6
 10
5.35299
 20
-0.728346
 30
1.21260e-15
  70
    32
  0
VERTEX
  8
0
  5
1EB7
 10
5.36436
 20
-0.708661
 30
1.21496e-15
  70
    32
  0
VERTEX
  8
0
  5
1EB8
 10
5.37572
 20
-0.688976
 30
1.21732e-15
  70
    32
  0
VERTEX
  8
0
  5
1EB9
 10
5.38709
 20
-0.669291
 30
1.21969e-15
  70
    32
  0
VERTEX
  8
0
  5
1EBA
 10
5.39845
 20
-0.649606
 30
1.22205e-15
  70
    32
  0
VERTEX
  8
0
  5
1EBB
 10
5.40982
 20
-0.629921
 30
1.22441e-15
  70
    32
  0
VERTEX
  8
0
  5
1EBC
 10
5.42118
 20
-0.610236
 30
1.22677e-15
  70
    32
  0
VERTEX
  8
0
  5
1EBD
 10
5.43255
 20
-0.590551
 30
1.22913e-15
  70
    32
  0
VERTEX
  8
0
  5
1EBE
 10
5.44391
 20
-0.570866
 30
1.23150e-15
  70
    32
  0
VERTEX
  8
0
  5
1EBF
 10
5.45528
 20
-0.551181
 30
1.23386e-15
  70
    32
  0
VERTEX
  8
0
  5
1EC0
 10
5.46664
 20
-0.531496
 30
1.23622e-15
  70
    32
  0
VERTEX
  8
0
  5
1EC1
 10
5.47801
 20
-0.511811
 30
1.23858e-15
  70
    32
  0
VERTEX
  8
0
  5
1EC2
 10
5.48937
 20
-0.492126
 30
1.24094e-15
  70
    32
  0
VERTEX
  8
0
  5
1EC3
 10
5.50074
 20
-0.472441
 30
1.24331e-15
  70
    32
  0
VERTEX
  8
0
  5
1EC4
 10
5.51210
 20
-0.452756
 30
1.24567e-15
  70
    32
  0
VERTEX
  8
0
  5
1EC5
 10
5.52347
 20
-0.433071
 30
1.24803e-15
  70
    32
  0
VERTEX
  8
0
  5
1EC6
 10
5.53483
 20
-0.413386
 30
1.25039e-15
  70
    32
  0
VERTEX
  8
0
  5
1EC7
 10
5.54620
 20
-0.393701
 30
1.25276e-15
  70
    32
  0
VERTEX
  8
0
  5
1EC8
 10
5.55756
 20
-0.374016
 30
1.25512e-15
  70
    32
  0
VERTEX
  8
0
  5
1EC9
 10
5.56893
 20
-0.354331
 30
1.25748e-15
  70
    32
  0
VERTEX
  8
0
  5
1ECA
 10
5.58029
 20
-0.334646
 30
1.25984e-15
  70
    32
  0
VERTEX
  8
0
  5
1ECB
 10
5.59166
 20
-0.314961
 30
1.26220e-15
  70
    32
  0
VERTEX
  8
0
  5
1ECC
 10
5.60303
 20
-0.295276
 30
1.26457e-15
  70
    32
  0
VERTEX
  8
0
  5
1ECD
 10
5.61439
 20
-0.275591
 30
1.26693e-15
  70
    32
  0
VERTEX
  8
0
  5
1ECE
 10
5.62576
 20
-0.255906
 30
1.26929e-15
  70
    32
  0
VERTEX
  8
0
  5
1ECF
 10
5.63712
 20
-0.236220
 30
1.27165e-15
  70
    32
  0
VERTEX
  8
0
  5
1ED0
 10
5.64849
 20
-0.216535
 30
1.27402e-15
  70
    32
  0
VERTEX
  8
0
  5
1ED1
 10
5.65985
 20
-0.196850
 30
1.27638e-15
  70
    32
  0
VERTEX
  8
0
  5
1ED2
 10
5.67122
 20
-0.177165
 30
1.27874e-15
  70
    32
  0
VERTEX
  8
0
  5
1ED3
 10
5.68258
 20
-0.157480
 30
1.28110e-15
  70
    32
  0
VERTEX
  8
0
  5
1ED4
 10
5.69395
 20
-0.137795
 30
1.28346e-15
  70
    32
  0
VERTEX
  8
0
  5
1ED5
 10
5.70531
 20
-0.118110
 30
1.28583e-15
  70
    32
  0
VERTEX
  8
0
  5
1ED6
 10
5.71668
 20
-0.0984252
 30
1.28819e-15
  70
    32
  0
VERTEX
  8
0
  5
1ED7
 10
5.72804
 20
-0.0787402
 30
1.29055e-15
  70
    32
  0
VERTEX
  8
0
  5
1ED8
 10
5.73941
 20
-0.0590551
 30
1.29291e-15
  70
    32
  0
VERTEX
  8
0
  5
1ED9
 10
5.75077
 20
-0.0393701
 30
1.29528e-15
  70
    32
  0
VERTEX
  8
0
  5
1EDA
 10
5.76214
 20
-0.0196850
 30
1.29764e-15
  70
    32
  0
VERTEX
  8
0
  5
1EDB
 10
5.77350
 20
-8.66026e-09
 30
1.30000e-15
  70
    32
  0
SEQEND
  8
0
  5
1EDC
  0
POLYLINE
  8
0
  5
1EDD
  62
3
  66
     1
 10
0.000000
 20
0.000000
 30
0.000000
  70
     8
  0
VERTEX
  8
0
  5
1EDE
 10
5.77350
 20
-3.10000e-15
 30
1.30000e-15
  70
    32
  0
VERTEX
  8
0
  5
1EDF
 10
5.76214
 20
0.0196850
 30
1.29764e-15
  70
    32
  0
VERTEX
  8
0
  5
1EE0
 10
5.75077
 20
0.0393701
 30
1.29528e-15
  70
    32
  0
VERTEX
  8
0
  5
1EE1
 10
5.73941
 20
0.0590551
 30
1.29291e-15
  70
    32
  0
VERTEX
  8
0
  5
1EE2
 10
5.72804
 20
0.0787402
 30
1.29055e-15
  70
    32
  0
VERTEX
  8
0
  5
1EE3
 10
5.71668
 20
0.0984252
 30
1.28819e-15
  70
    32
  0
VERTEX
  8
0
  5
1EE4
 10
5.70531
 20
0.118110
 30
1.28583e-15
  70
    32
  0
VERTEX
  8
0
  5
1EE5
 10
5.69395
 20
0.137795
 30
1.28346e-15
  70
    32
  0
VERTEX
  8
0
  5
1EE6
 10
5.68258
 20
0.157480
 30
1.28110e-15
  70
    32
  0
VERTEX
  8
0
  5
1EE7
 10
5.67122
 20
0.177165
 30
1.27874e-15
  70
    32
  0
VERTEX
  8
0
  5
1EE8
 10
5.65985
 20
0.196850
 30
1.27638e-15
  70
    32
  0
VERTEX
  8
0
  5
1EE9
 10
5.64849
 20
0.216535
 30
1.27402e-15
  70
    32
  0
VERTEX
  8
0
  5
1EEA
 10
5.63712
 20
0.236220
 30
1.27165e-15
  70
    32
  0
VERTEX
  8
0
  5
1EEB
 10
5.62576
 20
0.255906
 30
1.26929e-15
  70
    32
  0
VERTEX
  8
0
  5
1EEC
 10
5.61439
 20
0.275591
 30
1.26693e-15
  70
    32
  0
VERTEX
  8
0
  5
1EED
 10
5.60303
 20
0.295276
 30
1.26457e-15
  70
    32
  0
VERTEX
  8
0
  5
1EEE
 10
5.59166
 20
0.314961
 30
1.26220e-15
  70
    32
  0
VERTEX
  8
0
  5
1EEF
 10
5.58029
 20
0.334646
 30
1.25984e-15
  70
    32
  0
VERTEX
  8
0
  5
1EF0
 10
5.56893
 20
0.354331
 30
1.25748e-15
  70
    32
  0
VERTEX
  8
0
  5
1EF1
 10
5.55756
 20
0.374016
 30
1.25512e-15
  70
    32
  0
VERTEX
  8
0
  5
1EF2
 10
5.54620
 20
0.393701
 30
1.25276e-15
  70
    32
  0
VERTEX
  8
0
  5
1EF3
 10
5.53483
 20
0.413386
 30
1.25039e-15
  70
    32
  0
VERTEX
  8
0
  5
1EF4
 10
5.52347
 20
0.433071
 30
1.24803e-15
  70
    32
  0
VERTEX
  8
0
  5
1EF5
 10
5.51210
 20
0.452756
 30
1.24567e-15
  70
    32
  0
VERTEX
  8
0
  5
1EF6
 10
5.50074
 20
0.472441
 30
1.24331e-15
  70
    32
  0
VERTEX
  8
0
  5
1EF7
 10
5.48937
 20
0.492126
 30
1.24094e-15
  70
    32
  0
VERTEX
  8
0
  5
1EF8
 10
5.47801
 20
0.511811
 30
1.23858e-15
  70
    32
  0
VERTEX
  8
0
  5
1EF9
 10
5.46664
 20
0.531496
 30
1.23622e-15
  70
    32
  0
VERTEX
  8
0
  5
1EFA
 10
5.45528
 20
0.551181
 30
1.23386e-15
  70
    32
  0
VERTEX
  8
0
  5
1EFB
 10
5.44391
 20
0.570866
 30
1.23150e-15
  70
    32
  0
VERTEX
  8
0
  5
1EFC
 10
5.43255
 20
0.590551
 30
1.22913e-15
  70
    32
  0
VERTEX
  8
0
  5
1EFD
 10
5.42118
 20
0.610236
 30
1.22677e-15
  70
    32
  0
VERTEX
  8
0
  5
1EFE
 10
5.40982
 20
0.629921
 30
1.22441e-15
  70
    32
  0
VERTEX
  8
0
  5
1EFF
 10
5.39845
 20
0.649606
 30
1.22205e-15
  70
    32
  0
VERTEX
  8
0
  5
1F00
 10
5.38709
 20
0.669291
 30
1.21969e-15
  70
    32
  0
VERTEX
  8
0
  5
1F01
 10
5.37572
 20
0.688976
 30
1.21732e-15
  70
    32
  0
VERTEX
  8
0
  5
1F02
 10
5.36436
 20
0.708661
 30
1.21496e-15
  70
    32
  0
VERTEX
  8
0
  5
1F03
 10
5.35299
 20
0.728346
 30
1.21260e-15
  70
    32
  0
VERTEX
  8
0
  5
1F04
 10
5.34163
 20
0.748031
 30
1.21024e-15
  70
    32
  0
VERTEX
  8
0
  5
1F05
 10
5.33026
 20
0.767717
 30
1.20787e-15
  70
    32
  0
VERTEX
  8
0
  5
1F06
 10
5.31890
 20
0.787402
 30
1.20551e-15
  70
    32
  0
VERTEX
  8
0
  5
1F07
 10
5.30753
 20
0.807087
 30
1.20315e-15
  70
    32
  0
VERTEX
  8
0
  5
1F08
 10
5.29617
 20
0.826772
 30
1.20079e-15
  70
    32
  0
VERTEX
  8
0
  5
1F09
 10
5.28480
 20
0.846457
 30
1.19843e-15
  70
    32
  0
VERTEX
  8
0
  5
1F0A
 10
5.27344
 20
0.866142
 30
1.19606e-15
  70
    32
  0
VERTEX
  8
0
  5
1F0B
 10
5.26207
 20
0.885827
 30
1.19370e-15
  70
    32
  0
VERTEX
  8
0
  5
1F0C
 10
5.25071
 20
0.905512
 30
1.19134e-15
  70
    32
  0
VERTEX
  8
0
  5
1F0D
 10
5.23934
 20
0.925197
 30
1.18898e-15
  70
    32
  0
VERTEX
  8
0
  5
1F0E
 10
5.22797
 20
0.944882
 30
1.18661e-15
  70
    32
  0
VERTEX
  8
0
  5
1F0F
 10
5.21661
 20
0.964567
 30
1.18425e-15
  70
    32
  0
VERTEX
  8
0
  5
1F10
 10
5.20524
 20
0.984252
 30
1.18189e-15
  70
    32
  0
VERTEX
  8
0
  5
1F11
 10
5.19388
 20
1.00394
 30
1.17953e-15
  70
    32
  0
VERTEX
  8
0
  5
1F12
 10
5.18251
 20
1.02362
 30
1.17717e-15
  70
    32
  0
VERTEX
  8
0
  5
1F13
 10
5.17115
 20
1.04331
 30
1.17480e-15
  70
    32
  0
VERTEX
  8
0
  5
1F14
 10
5.15978
 20
1.06299
 30
1.17244e-15
  70
    32
  0
VERTEX
  8
0
  5
1F15
 10
5.14842
 20
1.08268
 30
1.17008e-15
  70
    32
  0
VERTEX
  8
0
  5
1F16
 10
5.13705
 20
1.10236
 30
1.16772e-15
  70
    32
  0
VERTEX
  8
0
  5
1F17
 10
5.12569
 20
1.12205
 30
1.16535e-15
  70
    32
  0
VERTEX
  8
0
  5
1F18
 10
5.11432
 20
1.14173
 30
1.16299e-15
  70
    32
  0
VERTEX
  8
0
  5
1F19
 10
5.10296
 20
1.16142
 30
1.16063e-15
  70
    32
  0
VERTEX
  8
0
  5
1F1A
 10
5.09159
 20
1.18110
 30
1.15827e-15
  70
    32
  0
VERTEX
  8
0
  5
1F1B
 10
5.08023
 20
1.20079
 30
1.15591e-15
  70
    32
  0
VERTEX
  8
0
  5
1F1C
 10
5.06886
 20
1.22047
 30
1.15354e-15
  70
    32
  0
VERTEX
  8
0
  5
1F1D
 10
5.05750
 20
1.24016
 30
1.15118e-15
  70
    32
  0
VERTEX
  8
0
  5
1F1E
 10
5.04613
 20
1.25984
 30
1.14882e-15
  70
    32
  0
VERTEX
  8
0
  5
1F1F
 10
5.03477
 20
1.27953
 30
1.14646e-15
  70
    32
  0
VERTEX
  8
0
  5
1F20
 10
5.02340
 20
1.29921
 30
1.14409e-15
  70
    32
  0
VERTEX
  8
0
  5
1F21
 10
5.01204
 20
1.31890
 30
1.14173e-15
  70
    32
  0
VERTEX
  8
0
  5
1F22
 10
5.00067
 20
1.33858
 30
1.13937e-15
  70
    32
  0
VERTEX
  8
0
  5
1F23
 10
4.98931
 20
1.35827
 30
1.13701e-15
  70
    32
  0
VERTEX
  8
0
  5
1F24
 10
4.97794
 20
1.37795
 30
1.13465e-15
  70
    32
  0
VERTEX
  8
0
  5
1F25
 10
4.96658
 20
1.39764
 30
1.13228e-15
  70
    32
  0
VERTEX
  8
0
  5
1F26
 10
4.95521
 20
1.41732
 30
1.12992e-15
  70
    32
  0
VERTEX
  8
0
  5
1F27
 10
4.94385
 20
1.43701
 30
1.12756e-15
  70
    32
  0
VERTEX
  8
0
  5
1F28
 10
4.93248
 20
1.45669
 30
1.12520e-15
  70
    32
  0
VERTEX
  8
0
  5
1F29
 10
4.92112
 20
1.47638
 30
1.12283e-15
  70
    32
  0
VERTEX
  8
0
  5
1F2A
 10
4.90975
 20
1.49606
 30
1.12047e-15
  70
    32
  0
VERTEX
  8
0
  5
1F2B
 10
4.89839
 20
1.51575
 30
1.11811e-15
  70
    32
  0
VERTEX
  8
0
  5
1F2C
 10
4.88702
 20
1.53543
 30
1.11575e-15
  70
    32
  0
VERTEX
  8
0
  5
1F2D
 10
4.87565
 20
1.55512
 30
1.11339e-15
  70
    32
  0
VERTEX
  8
0
  5
1F2E
 10
4.86429
 20
1.57480
 30
1.11102e-15
  70
    32
  0
VERTEX
  8
0
  5
1F2F
 10
4.85292
 20
1.59449
 30
1.10866e-15
  70
    32
  0
VERTEX
  8
0
  5
1F30
 10
4.84156
 20
1.61417
 30
1.10630e-15
  70
    32
  0
VERTEX
  8
0
  5
1F31
 10
4.83019
 20
1.63386
 30
1.10394e-15
  70
    32
  0
VERTEX
  8
0
  5
1F32
 10
4.81883
 20
1.65354
 30
1.10157e-15
  70
    32
  0
VERTEX
  8
0
  5
1F33
 10
4.80746
 20
1.67323
 30
1.09921e-15
  70
    32
  0
VERTEX
  8
0
  5
1F34
 10
4.79610
 20
1.69291
 30
1.09685e-15
  70
    32
  0
VERTEX
  8
0
  5
1F35
 10
4.78473
 20
1.71260
 30
1.09449e-15
  70
    32
  0
VERTEX
  8
0
  5
1F36
 10
4.77337
 20
1.73228
 30
1.09213e-15
  70
    32
  0
VERTEX
  8
0
  5
1F37
 10
4.76200
 20
1.75197
 30
1.08976e-15
  70
    32
  0
VERTEX
  8
0
  5
1F38
 10
4.75064
 20
1.77165
 30
1.08740e-15
  70
    32
  0
VERTEX
  8
0
  5
1F39
 10
4.73927
 20
1.79134
 30
1.08504e-15
  70
    32
  0
VERTEX
  8
0
  5
1F3A
 10
4.72791
 20
1.81102
 30
1.08268e-15
  70
    32
  0
VERTEX
  8
0
  5
1F3B
 10
4.71654
 20
1.83071
 30
1.08031e-15
  70
    32
  0
VERTEX
  8
0
  5
1F3C
 10
4.70518
 20
1.85039
 30
1.07795e-15
  70
    32
  0
VERTEX
  8
0
  5
1F3D
 10
4.69381
 20
1.87008
 30
1.07559e-15
  70
    32
  0
VERTEX
  8
0
  5
1F3E
 10
4.68245
 20
1.88976
 30
1.07323e-15
  70
    32
  0
VERTEX
  8
0
  5
1F3F
 10
4.67108
 20
1.90945
 30
1.07087e-15
  70
    32
  0
VERTEX
  8
0
  5
1F40
 10
4.65972
 20
1.92913
 30
1.06850e-15
  70
    32
  0
VERTEX
  8
0
  5
1F41
 10
4.64835
 20
1.94882
 30
1.06614e-15
  70
    32
  0
VERTEX
  8
0
  5
1F42
 10
4.63699
 20
1.96850
 30
1.06378e-15
  70
    32
  0
VERTEX
  8
0
  5
1F43
 10
4.62562
 20
1.98819
 30
1.06142e-15
  70
    32
  0
VERTEX
  8
0
  5
1F44
 10
4.61426
 20
2.00787
 30
1.05906e-15
  70
    32
  0
VERTEX
  8
0
  5
1F45
 10
4.60289
 20
2.02756
 30
1.05669e-15
  70
    32
  0
VERTEX
  8
0
  5
1F46
 10
4.59153
 20
2.04724
 30
1.05433e-15
  70
    32
  0
VERTEX
  8
0
  5
1F47
 10
4.58016
 20
2.06693
 30
1.05197e-15
  70
    32
  0
VERTEX
  8
0
  5
1F48
 10
4.56880
 20
2.08661
 30
1.04961e-15
  70
    32
  0
VERTEX
  8
0
  5
1F49
 10
4.55743
 20
2.10630
 30
1.04724e-15
  70
    32
  0
VERTEX
  8
0
  5
1F4A
 10
4.54607
 20
2.12598
 30
1.04488e-15
  70
    32
  0
VERTEX
  8
0
  5
1F4B
 10
4.53470
 20
2.14567
 30
1.04252e-15
  70
    32
  0
VERTEX
  8
0
  5
1F4C
 10
4.52333
 20
2.16535
 30
1.04016e-15
  70
    32
  0
VERTEX
  8
0
  5
1F4D
 10
4.51197
 20
2.18504
 30
1.03780e-15
  70
    32
  0
VERTEX
  8
0
  5
1F4E
 10
4.50060
 20
2.20472
 30
1.03543e-15
  70
    32
  0
VERTEX
  8
0
  5
1F4F
 10
4.48924
 20
2.22441
 30
1.03307e-15
  70
    32
  0
VERTEX
  8
0
  5
1F50
 10
4.47787
 20
2.24409
 30
1.03071e-15
  70
    32
  0
VERTEX
  8
0
  5
1F51
 10
4.46651
 20
2.26378
 30
1.02835e-15
  70
    32
  0
VERTEX
  8
0
  5
1F52
 10
4.45514
 20
2.28346
 30
1.02598e-15
  70
    32
  0
VERTEX
  8
0
  5
1F53
 10
4.44378
 20
2.30315
 30
1.02362e-15
  70
    32
  0
VERTEX
  8
0
  5
1F54
 10
4.43241
 20
2.32283
 30
1.02126e-15
  70
    32
  0
VERTEX
  8
0
  5
1F55
 10
4.42105
 20
2.34252
 30
1.01890e-15
  70
    32
  0
VERTEX
  8
0
  5
1F56
 10
4.40968
 20
2.36220
 30
1.01654e-15
  70
    32
  0
VERTEX
  8
0
  5
1F57
 10
4.39832
 20
2.38189
 30
1.01417e-15
  70
    32
  0
VERTEX
  8
0
  5
1F58
 10
4.38695
 20
2.40157
 30
1.01181e-15
  70
    32
  0
VERTEX
  8
0
  5
1F59
 10
4.37559
 20
2.42126
 30
1.00945e-15
  70
    32
  0
VERTEX
  8
0
  5
1F5A
 10
4.36422
 20
2.44094
 30
1.00709e-15
  70
    32
  0
VERTEX
  8
0
  5
1F5B
 10
4.35286
 20
2.46063
 30
1.00472e-15
  70
    32
  0
VERTEX
  8
0
  5
1F5C
 10
4.34149
 20
2.48031
 30
1.00236e-15
  70
    32
  0
VERTEX
  8
0
  5
1F5D
 10
4.33013
 20
2.50000
 30
1.00000e-15
  70
    32
  0
SEQEND
  8
0
  5
1F5E
  0
POLYLINE
  8
0
  5
1F5F
  62
3
  66
     1
 10
0.000000
 20
0.000000
 30
0.000000
  70
     8
  0
VERTEX
  8
0
  5
1F60
 10
4.33013
 20
2.50000
 30
1.00000e-15
  70
    32
  0
VERTEX
  8
0
  5
1F61
 10
4.31876
 20
2.51969
 30
9.97619e-16
  70
    32
  0
VERTEX
  8
0
  5
1F62
 10
4.30740
 20
2.53937
 30
9.95202e-16
  70
    32
  0
VERTEX
  8
0
  5
1F63
 10
4.29603
 20
2.55906
 30
9.92749e-16
  70
    32
  0
VERTEX
  8
0
  5
1F64
 10
4.28467
 20
2.57874
 30
9.90260e-16
  70
    32
  0
VERTEX
  8
0
  5
1F65
 10
4.27330
 20
2.59843
 30
9.87736e-16
  70
    32
  0
VERTEX
  8
0
  5
1F66
 10
4.26194
 20
2.61811
 30
9.85178e-16
  70
    32
  0
VERTEX
  8
0
  5
1F67
 10
4.25057
 20
2.63780
 30
9.82587e-16
  70
    32
  0
VERTEX
  8
0
  5
1F68
 10
4.23921
 20
2.65748
 30
9.79962e-16
  70
    32
  0
VERTEX
  8
0
  5
1F69
 10
4.22784
 20
2.67717
 30
9.77305e-16
  70
    32
  0
VERTEX
  8
0
  5
1F6A
 10
4.21648
 20
2.69685
 30
9.74616e-16
  70
    32
  0
VERTEX
  8
0
  5
1F6B
 10
4.20511
 20
2.71654
 30
9.71895e-16
  70
    32
  0
VERTEX
  8
0
  5
1F6C
 10
4.19375
 20
2.73622
 30
9.69144e-16
  70
    32
  0
VERTEX
  8
0
  5
1F6D
 10
4.18238
 20
2.75591
 30
9.66362e-16
  70
    32
  0
VERTEX
  8
0
  5
1F6E
 10
4.17101
 20
2.77559
 30
9.63551e-16
  70
    32
  0
VERTEX
  8
0
  5
1F6F
 10
4.15965
 20
2.79528
 30
9.60711e-16
  70
    32
  0
VERTEX
  8
0
  5
1F70
 10
4.14828
 20
2.81496
 30
9.57843e-16
  70
    32
  0
VERTEX
  8
0
  5
1F71
 10
4.13692
 20
2.83465
 30
9.54947e-16
  70
    32
  0
VERTEX
  8
0
  5
1F72
 10
4.12555
 20
2.85433
 30
9.52023e-16
  70
    32
  0
VERTEX
  8
0
  5
1F73
 10
4.11419
 20
2.87402
 30
9.49073e-16
  70
    32
  0
VERTEX
  8
0
  5
1F74
 10
4.10282
 20
2.89370
 30
9.46097e-16
  70
    32
  0
VERTEX
  8
0
  5
1F75
 10
4.09146
 20
2.91339
 30
9.43095e-16
  70
    32
  0
VERTEX
  8
0
  5
1F76
 10
4.08009
 20
2.93307
 30
9.40069e-16
  70
    32
  0
VERTEX
  8
0
  5
1F77
 10
4.06873
 20
2.95276
 30
9.37018e-16
  70
    32
  0
VERTEX
  8
0
  5
1F78
 10
4.05736
 20
2.97244
 30
9.33943e-16
  70
    32
  0
VERTEX
  8
0
  5
1F79
 10
4.04600
 20
2.99213
 30
9.30845e-16
  70
    32
  0
VERTEX
  8
0
  5
1F7A
 10
4.03463
 20
3.01181
 30
9.27725e-16
  70
    32
  0
VERTEX
  8
0
  5
1F7B
 10
4.02327
 20
3.03150
 30
9.24583e-16
  70
    32
  0
VERTEX
  8
0
  5
1F7C
 10
4.01190
 20
3.05118
 30
9.21419e-16
  70
    32
  0
VERTEX
  8
0
  5
1F7D
 10
4.00054
 20
3.07087
 30
9.18235e-16
  70
    32
  0
VERTEX
  8
0
  5
1F7E
 10
3.98917
 20
3.09055
 30
9.15030e-16
  70
    32
  0
VERTEX
  8
0
  5
1F7F
 10
3.97781
 20
3.11024
 30
9.11806e-16
  70
    32
  0
VERTEX
  8
0
  5
1F80
 10
3.96644
 20
3.12992
 30
9.08562e-16
  70
    32
  0
VERTEX
  8
0
  5
1F81
 10
3.95508
 20
3.14961
 30
9.05301e-16
  70
    32
  0
VERTEX
  8
0
  5
1F82
 10
3.94371
 20
3.16929
 30
9.02021e-16
  70
    32
  0
VERTEX
  8
0
  5
1F83
 10
3.93235
 20
3.18898
 30
8.98724e-16
  70
    32
  0
VERTEX
  8
0
  5
1F84
 10
3.92098
 20
3.20866
 30
8.95410e-16
  70
    32
  0
VERTEX
  8
0
  5
1F85
 10
3.90962
 20
3.22835
 30
8.92081e-16
  70
    32
  0
VERTEX
  8
0
  5
1F86
 10
3.89825
 20
3.24803
 30
8.88735e-16
  70
    32
  0
VERTEX
  8
0
  5
1F87
 10
3.88689
 20
3.26772
 30
8.85375e-16
  70
    32
  0
VERTEX
  8
0
  5
1F88
 10
3.87552
 20
3.28740
 30
8.82001e-16
  70
    32
  0
VERTEX
  8
0
  5
1F89
 10
3.86416
 20
3.30709
 30
8.78612e-16
  70
    32
  0
VERTEX
  8
0
  5
1F8A
 10
3.85279
 20
3.32677
 30
8.75211e-16
  70
    32
  0
VERTEX
  8
0
  5
1F8B
 10
3.84143
 20
3.34646
 30
8.71797e-16
  70
    32
  0
VERTEX
  8
0
  5
1F8C
 10
3.83006
 20
3.36614
 30
8.68371e-16
  70
    32
  0
VERTEX
  8
0
  5
1F8D
 10
3.81869
 20
3.38583
 30
8.64933e-16
  70
    32
  0
VERTEX
  8
0
  5
1F8E
 10
3.80733
 20
3.40551
 30
8.61485e-16
  70
    32
  0
VERTEX
  8
0
  5
1F8F
 10
3.79596
 20
3.42520
 30
8.58026e-16
  70
    32
  0
VERTEX
  8
0
  5
1F90
 10
3.78460
 20
3.44488
 30
8.54558e-16
  70
    32
  0
VERTEX
  8
0
  5
1F91
 10
3.77323
 20
3.46457
 30
8.51080e-16
  70
    32
  0
VERTEX
  8
0
  5
1F92
 10
3.76187
 20
3.48425
 30
8.47594e-16
  70
    32
  0
VERTEX
  8
0
  5
1F93
 10
3.75050
 20
3.50394
 30
8.44101e-16
  70
    32
  0
VERTEX
  8
0
  5
1F94
 10
3.73914
 20
3.52362
 30
8.40600e-16
  70
    32
  0
VERTEX
  8
0
  5
1F95
 10
3.72777
 20
3.54331
 30
8.37092e-16
  70
    32
  0
VERTEX
  8
0
  5
1F96
 10
3.71641
 20
3.56299
 30
8.33578e-16
  70
    32
  0
VERTEX
  8
0
  5
1F97
 10
3.70504
 20
3.58268
 30
8.30058e-16
  70
    32
  0
VERTEX
  8
0
  5
1F98
 10
3.69368
 20
3.60236
 30
8.26534e-16
  70
    32
  0
VERTEX
  8
0
  5
1F99
 10
3.68231
 20
3.62205
 30
8.23005e-16
  70
    32
  0
VERTEX
  8
0
  5
1F9A
 10
3.67095
 20
3.64173
 30
8.19472e-16
  70
    32
  0
VERTEX
  8
0
  5
1F9B
 10
3.65958
 20
3.66142
 30
8.15936e-16
  70
    32
  0
VERTEX
  8
0
  5
1F9C
 10
3.64822
 20
3.68110
 30
8.12397e-16
  70
    32
  0
VERTEX
  8
0
  5
1F9D
 10
3.63685
 20
3.70079
 30
8.08857e-16
  70
    32
  0
VERTEX
  8
0
  5
1F9E
 10
3.62549
 20
3.72047
 30
8.05315e-16
  70
    32
  0
VERTEX
  8
0
  5
1F9F
 10
3.61412
 20
3.74016
 30
8.01772e-16
  70
    32
  0
VERTEX
  8
0
  5
1FA0
 10
3.60276
 20
3.75984
 30
7.98228e-16
  70
    32
  0
VERTEX
  8
0
  5
1FA1
 10
3.59139
 20
3.77953
 30
7.94685e-16
  70
    32
  0
VERTEX
  8
0
  5
1FA2
 10
3.58003
 20
3.79921
 30
7.91143e-16
  70
    32
  0
VERTEX
  8
0
  5
1FA3
 10
3.56866
 20
3.81890
 30
7.87603e-16
  70
    32
  0
VERTEX
  8
0
  5
1FA4
 10
3.55730
 20
3.83858
 30
7.84064e-16
  70
    32
  0
VERTEX
  8
0
  5
1FA5
 10
3.54593
 20
3.85827
 30
7.80528e-16
  70
    32
  0
VERTEX
  8
0
  5
1FA6
 10
3.53457
 20
3.87795
 30
7.76995e-16
  70
    32
  0
VERTEX
  8
0
  5
1FA7
 10
3.52320
 20
3.89764
 30
7.73466e-16
  70
    32
  0
VERTEX
  8
0
  5
1FA8
 10
3.51184
 20
3.91732
 30
7.69942e-16
  70
    32
  0
VERTEX
  8
0
  5
1FA9
 10
3.50047
 20
3.93701
 30
7.66422e-16
  70
    32
  0
VERTEX
  8
0
  5
1FAA
 10
3.48910
 20
3.95669
 30
7.62908e-16
  70
    32
  0
VERTEX
  8
0
  5
1FAB
 10
3.47774
 20
3.97638
 30
7.59400e-16
  70
    32
  0
VERTEX
  8
0
  5
1FAC
 10
3.46637
 20
3.99606
 30
7.55899e-16
  70
    32
  0
VERTEX
  8
0
  5
1FAD
 10
3.45501
 20
4.01575
 30
7.52406e-16
  70
    32
  0
VERTEX
  8
0
  5
1FAE
 10
3.44364
 20
4.03543
 30
7.48920e-16
  70
    32
  0
VERTEX
  8
0
  5
1FAF
 10
3.43228
 20
4.05512
 30
7.45442e-16
  70
    32
  0
VERTEX
  8
0
  5
1FB0
 10
3.42091
 20
4.07480
 30
7.41974e-16
  70
    32
  0
VERTEX
  8
0
  5
1FB1
 10
3.40955
 20
4.09449
 30
7.38515e-16
  70
    32
  0
VERTEX
  8
0
  5
1FB2
 10
3.39818
 20
4.11417
 30
7.35067e-16
  70
    32
  0
VERTEX
  8
0
  5
1FB3
 10
3.38682
 20
4.13386
 30
7.31629e-16
  70
    32
  0
VERTEX
  8
0
  5
1FB4
 10
3.37545
 20
4.15354
 30
7.28203e-16
  70
    32
  0
VERTEX
  8
0
  5
1FB5
 10
3.36409
 20
4.17323
 30
7.24789e-16
  70
    32
  0
VERTEX
  8
0
  5
1FB6
 10
3.35272
 20
4.19291
 30
7.21388e-16
  70
    32
  0
VERTEX
  8
0
  5
1FB7
 10
3.34136
 20
4.21260
 30
7.17999e-16
  70
    32
  0
VERTEX
  8
0
  5
1FB8
 10
3.32999
 20
4.23228
 30
7.14625e-16
  70
    32
  0
VERTEX
  8
0
  5
1FB9
 10
3.31863
 20
4.25197
 30
7.11265e-16
  70
    32
  0
VERTEX
  8
0
  5
1FBA
 10
3.30726
 20
4.27165
 30
7.07919e-16
  70
    32
  0
VERTEX
  8
0
  5
1FBB
 10
3.29590
 20
4.29134
 30
7.04590e-16
  70
    32
  0
VERTEX
  8
0
  5
1FBC
 10
3.28453
 20
4.31102
 30
7.01276e-16
  70
    32
  0
VERTEX
  8
0
  5
1FBD
 10
3.27317
 20
4.33071
 30
6.97979e-16
  70
    32
  0
VERTEX
  8
0
  5
1FBE
 10
3.26180
 20
4.35039
 30
6.94699e-16
  70
    32
  0
VERTEX
  8
0
  5
1FBF
 10
3.25044
 20
4.37008
 30
6.91438e-16
  70
    32
  0
VERTEX
  8
0
  5
1FC0
 10
3.23907
 20
4.38976
 30
6.88194e-16
  70
    32
  0
VERTEX
  8
0
  5
1FC1
 10
3.22771
 20
4.40945
 30
6.84970e-16
  70
    32
  0
VERTEX
  8
0
  5
1FC2
 10
3.21634
 20
4.42913
 30
6.81765e-16
  70
    32
  0
VERTEX
  8
0
  5
1FC3
 10
3.20498
 20
4.44882
 30
6.78581e-16
  70
    32
  0
VERTEX
  8
0
  5
1FC4
 10
3.19361
 20
4.46850
 30
6.75417e-16
  70
    32
  0
VERTEX
  8
0
  5
1FC5
 10
3.18225
 20
4.48819
 30
6.72275e-16
  70
    32
  0
VERTEX
  8
0
  5
1FC6
 10
3.17088
 20
4.50787
 30
6.69155e-16
  70
    32
  0
VERTEX
  8
0
  5
1FC7
 10
3.15952
 20
4.52756
 30
6.66057e-16
  70
    32
  0
VERTEX
  8
0
  5
1FC8
 10
3.14815
 20
4.54724
 30
6.62982e-16
  70
    32
  0
VERTEX
  8
0
  5
1FC9
 10
3.13678
 20
4.56693
 30
6.59931e-16
  70
    32
  0
VERTEX
  8
0
  5
1FCA
 10
3.12542
 20
4.58661
 30
6.56905e-16
  70
    32
  0
VERTEX
  8
0
  5
1FCB
 10
3.11405
 20
4.60630
 30
6.53903e-16
  70
    32
  0
VERTEX
  8
0
  5
1FCC
 10
3.10269
 20
4.62598
 30
6.50927e-16
  70
    32
  0
VERTEX
  8
0
  5
1FCD
 10
3.09132
 20
4.64567
 30
6.47977e-16
  70
    32
  0
VERTEX
  8
0
  5
1FCE
 10
3.07996
 20
4.66535
 30
6.45053e-16
  70
    32
  0
VERTEX
  8
0
  5
1FCF
 10
3.06859
 20
4.68504
 30
6.42157e-16
  70
    32
  0
VERTEX
  8
0
  5
1FD0
 10
3.05723
 20
4.70472
 30
6.39289e-16
  70
    32
  0
VERTEX
  8
0
  5
1FD1
 10
3.04586
 20
4.72441
 30
6.36449e-16
  70
    32
  0
VERTEX
  8
0
  5
1FD2
 10
3.03450
 20
4.74409
 30
6.33638e-16
  70
    32
  0
VERTEX
  8
0
  5
1FD3
 10
3.02313
 20
4.76378
 30
6.30856e-16
  70
    32
  0
VERTEX
  8
0
  5
1FD4
 10
3.01177
 20
4.78346
 30
6.28105e-16
  70
    32
  0
VERTEX
  8
0
  5
1FD5
 10
3.00040
 20
4.80315
 30
6.25384e-16
  70
    32
  0
VERTEX
  8
0
  5
1FD6
 10
2.98904
 20
4.82283
 30
6.22695e-16
  70
    32
  0
VERTEX
  8
0
  5
1FD7
 10
2.97767
 20
4.84252
 30
6.20038e-16
  70
    32
  0
VERTEX
  8
0
  5
1FD8
 10
2.96631
 20
4.86220
 30
6.17413e-16
  70
    32
  0
VERTEX
  8
0
  5
1FD9
 10
2.95494
 20
4.88189
 30
6.14822e-16
  70
    32
  0
VERTEX
  8
0
  5
1FDA
 10
2.94358
 20
4.90157
 30
6.12264e-16
  70
    32
  0
VERTEX
  8
0
  5
1FDB
 10
2.93221
 20
4.92126
 30
6.09740e-16
  70
    32
  0
VERTEX
  8
0
  5
1FDC
 10
2.92085
 20
4.94094
 30
6.07251e-16
  70
    32
  0
VERTEX
  8
0
  5
1FDD
 10
2.90948
 20
4.96063
 30
6.04798e-16
  70
    32
  0
VERTEX
  8
0
  5
1FDE
 10
2.89812
 20
4.98031
 30
6.02381e-16
  70
    32
  0
VERTEX
  8
0
  5
1FDF
 10
2.88675
 20
5.00000
 30
6.00000e-16
  70
    32
  0
SEQEND
  8
0
  5
1FE0
  0
POLYLINE
  8
0
  5
1FE1
  62
3
  66
     1
 10
0.000000
 20
0.000000
 30
0.000000
  70
     8
  0
VERTEX
  8
0
  5
1FE2
 10
-2.88675
 20
-5.00000
 30
-6.00000e-16
  70
    32
  0
VERTEX
  8
0
  5
1FE3
 10
-2.86406
 20
-5.00000
 30
-5.95276e-16
  70
    32
  0
VERTEX
  8
0
  5
1FE4
 10
-2.84137
 20
-5.00000
 30
-5.90551e-16
  70
    32
  0
VERTEX
  8
0
  5
1FE5
 10
-2.81868
 20
-5.00000
 30
-5.85827e-16
  70
    32
  0
VERTEX
  8
0
  5
1FE6
 10
-2.79599
 20
-5.00000
 30
-5.81102e-16
  70
    32
  0
VERTEX
  8
0
  5
1FE7
 10
-2.77329
 20
-5.00000
 30
-5.76378e-16
  70
    32
  0
VERTEX
  8
0
  5
1FE8
 10
-2.75060
 20
-5.00000
 30
-5.71654e-16
  70
    32
  0
VERTEX
  8
0
  5
1FE9
 10
-2.72791
 20
-5.00000
 30
-5.66929e-16
  70
    32
  0
VERTEX
  8
0
  5
1FEA
 10
-2.70521
 20
-5.00000
 30
-5.62205e-16
  70
    32
  0
VERTEX
  8
0
  5
1FEB
 10
-2.68252
 20
-5.00000
 30
-5.57480e-16
  70
    32
  0
VERTEX
  8
0
  5
1FEC
 10
-2.65982
 20
-5.00000
 30
-5.52756e-16
  70
    32
  0
VERTEX
  8
0
  5
1FED
 10
-2.63713
 20
-5.00000
 30
-5.48031e-16
  70
    32
  0
VERTEX
  8
0
  5
1FEE
 10
-2.61443
 20
-5.00000
 30
-5.43307e-16
  70
    32
  0
VERTEX
  8
0
  5
1FEF
 10
-2.59173
 20
-5.00000
 30
-5.38583e-16
  70
    32
  0
VERTEX
  8
0
  5
1FF0
 10
-2.56904
 20
-5.00000
 30
-5.33858e-16
  70
    32
  0
VERTEX
  8
0
  5
1FF1
 10
-2.54634
 20
-5.00000
 30
-5.29134e-16
  70
    32
  0
VERTEX
  8
0
  5
1FF2
 10
-2.52364
 20
-5.00000
 30
-5.24409e-16
  70
    32
  0
VERTEX
  8
0
  5
1FF3
 10
-2.50094
 20
-5.00000
 30
-5.19685e-16
  70
    32
  0
VERTEX
  8
0
  5
1FF4
 10
-2.47824
 20
-5.00000
 30
-5.14961e-16
  70
    32
  0
VERTEX
  8
0
  5
1FF5
 10
-2.45554
 20
-5.00000
 30
-5.10236e-16
  70
    32
  0
VERTEX
  8
0
  5
1FF6
 10
-2.43284
 20
-5.00000
 30
-5.05512e-16
  70
    32
  0
VERTEX
  8
0
  5
1FF7
 10
-2.41014
 20
-5.00000
 30
-5.00787e-16
  70
    32
  0
VERTEX
  8
0
  5
1FF8
 10
-2.38744
 20
-5.00000
 30
-4.96063e-16
  70
    32
  0
VERTEX
  8
0
  5
1FF9
 10
-2.36473
 20
-5.00000
 30
-4.91339e-16
  70
    32
  0
VERTEX
  8
0
  5
1FFA
 10
-2.34203
 20
-5.00000
 30
-4.86614e-16
  70
    32
  0
VERTEX
  8
0
  5
1FFB
 10
-2.31933
 20
-5.00000
 30
-4.81890e-16
  70
    32
  0
VERTEX
  8
0
  5
1FFC
 10
-2.29662
 20
-5.00000
 30
-4.77165e-16
  70
    32
  0
VERTEX
  8
0
  5
1FFD
 10
-2.27392
 20
-5.00000
 30
-4.72441e-16
  70
    32
  0
VERTEX
  8
0
  5
1FFE
 10
-2.25121
 20
-5.00000
 30
-4.67717e-16
  70
    32
  0
VERTEX
  8
0
  5
1FFF
 10
-2.22850
 20
-5.00000
 30
-4.62992e-16
  70
    32
  0
VERTEX
  8
0
  5
2000
 10
-2.20580
 20
-5.00000
 30
-4.58268e-16
  70
    32
  0
VERTEX
  8
0
  5
2001
 10
-2.18309
 20
-5.00000
 30
-4.53543e-16
  70
    32
  0
VERTEX
  8
0
  5
2002
 10
-2.16038
 20
-5.00000
 30
-4.48819e-16
  70
    32
  0
VERTEX
  8
0
  5
2003
 10
-2.13767
 20
-5.00000
 30
-4.44094e-16
  70
    32
  0
VERTEX
  8
0
  5
2004
 10
-2.11496
 20
-5.00000
 30
-4.39370e-16
  70
    32
  0
VERTEX
  8
0
  5
2005
 10
-2.09225
 20
-5.00000
 30
-4.34646e-16
  70
    32
  0
VERTEX
  8
0
  5
2006
 10
-2.06954
 20
-5.00000
 30
-4.29921e-16
  70
    32
  0
VERTEX
  8
0
  5
2007
 10
-2.04683
 20
-5.00000
 30
-4.25197e-16
  70
    32
  0
VERTEX
  8
0
  5
2008
 10
-2.02412
 20
-5.00000
 30
-4.20472e-16
  70
    32
  0
VERTEX
  8
0
  5
2009
 10
-2.00141
 20
-5.00000
 30
-4.15748e-16
  70
    32
  0
VERTEX
  8
0
  5
200A
 10
-1.97869
 20
-5.00000
 30
-4.11024e-16
  70
    32
  0
VERTEX
  8
0
  5
200B
 10
-1.95598
 20
-5.00000
 30
-4.06299e-16
  70
    32
  0
VERTEX
  8
0
  5
200C
 10
-1.93327
 20
-5.00000
 30
-4.01575e-16
  70
    32
  0
VERTEX
  8
0
  5
200D
 10
-1.91055
 20
-5.00000
 30
-3.96850e-16
  70
    32
  0
VERTEX
  8
0
  5
200E
 10
-1.88784
 20
-5.00000
 30
-3.92126e-16
  70
    32
  0
VERTEX
  8
0
  5
200F
 10
-1.86512
 20
-5.00000
 30
-3.87402e-16
  70
    32
  0
VERTEX
  8
0
  5
2010
 10
-1.84240
 20
-5.00000
 30
-3.82677e-16
  70
    32
  0
VERTEX
  8
0
  5
2011
 10
-1.81969
 20
-5.00000
 30
-3.77953e-16
  70
    32
  0
VERTEX
  8
0
  5
2012
 10
-1.79697
 20
-5.00000
 30
-3.73228e-16
  70
    32
  0
VERTEX
  8
0
  5
2013
 10
-1.77425
 20
-5.00000
 30
-3.68504e-16
  70
    32
  0
VERTEX
  8
0
  5
2014
 10
-1.75153
 20
-5.00000
 30
-3.63780e-16
  70
    32
  0
VERTEX
  8
0
  5
2015
 10
-1.72881
 20
-5.00000
 30
-3.59055e-16
  70
    32
  0
VERTEX
  8
0
  5
2016
 10
-1.70609
 20
-5.00000
 30
-3.54331e-16
  70
    32
  0
VERTEX
  8
0
  5
2017
 10
-1.68337
 20
-5.00000
 30
-3.49606e-16
  70
    32
  0
VERTEX
  8
0
  5
2018
 10
-1.66065
 20
-5.00000
 30
-3.44882e-16
  70
    32
  0
VERTEX
  8
0
  5
2019
 10
-1.63792
 20
-5.00000
 30
-3.40157e-16
  70
    32
  0
VERTEX
  8
0
  5
201A
 10
-1.61520
 20
-5.00000
 30
-3.35433e-16
  70
    32
  0
VERTEX
  8
0
  5
201B
 10
-1.59248
 20
-5.00000
 30
-3.30709e-16
  70
    32
  0
VERTEX
  8
0
  5
201C
 10
-1.56975
 20
-5.00000
 30
-3.25984e-16
  70
    32
  0
VERTEX
  8
0
  5
201D
 10
-1.54703
 20
-5.00000
 30
-3.21260e-16
  70
    32
  0
VERTEX
  8
0
  5
201E
 10
-1.52430
 20
-5.00000
 30
-3.16535e-16
  70
    32
  0
VERTEX
  8
0
  5
201F
 10
-1.50157
 20
-5.00000
 30
-3.11811e-16
  70
    32
  0
VERTEX
  8
0
  5
2020
 10
-1.47885
 20
-5.00000
 30
-3.07087e-16
  70
    32
  0
VERTEX
  8
0
  5
2021
 10
-1.45612
 20
-5.00000
 30
-3.02362e-16
  70
    32
  0
VERTEX
  8
0
  5
2022
 10
-1.43339
 20
-5.00000
 30
-2.97638e-16
  70
    32
  0
VERTEX
  8
0
  5
2023
 10
-1.41066
 20
-5.00000
 30
-2.92913e-16
  70
    32
  0
VERTEX
  8
0
  5
2024
 10
-1.38793
 20
-5.00000
 30
-2.88189e-16
  70
    32
  0
VERTEX
  8
0
  5
2025
 10
-1.36520
 20
-5.00000
 30
-2.83465e-16
  70
    32
  0
VERTEX
  8
0
  5
2026
 10
-1.34247
 20
-5.00000
 30
-2.78740e-16
  70
    32
  0
VERTEX
  8
0
  5
2027
 10
-1.31973
 20
-5.00000
 30
-2.74016e-16
  70
    32
  0
VERTEX
  8
0
  5
2028
 10
-1.29700
 20
-5.00000
 30
-2.69291e-16
  70
    32
  0
VERTEX
  8
0
  5
2029
 10
-1.27427
 20
-5.00000
 30
-2.64567e-16
  70
    32
  0
VERTEX
  8
0
  5
202A
 10
-1.25153
 20
-5.00000
 30
-2.59843e-16
  70
    32
  0
VERTEX
  8
0
  5
202B
 10
-1.22880
 20
-5.00000
 30
-2.55118e-16
  70
    32
  0
VERTEX
  8
0
  5
202C
 10
-1.20606
 20
-5.00000
 30
-2.50394e-16
  70
    32
  0
VERTEX
  8
0
  5
202D
 10
-1.18333
 20
-5.00000
 30
-2.45669e-16
  70
    32
  0
VERTEX
  8
0
  5
202E
 10
-1.16059
 20
-5.00000
 30
-2.40945e-16
  70
    32
  0
VERTEX
  8
0
  5
202F
 10
-1.13785
 20
-5.00000
 30
-2.36220e-16
  70
    32
  0
VERTEX
  8
0
  5
2030
 10
-1.11511
 20
-5.00000
 30
-2.31496e-16
  70
    32
  0
VERTEX
  8
0
  5
2031
 10
-1.09237
 20
-5.00000
 30
-2.26772e-16
  70
    32
  0
VERTEX
  8
0
  5
2032
 10
-1.06963
 20
-5.00000
 30
-2.22047e-16
  70
    32
  0
VERTEX
  8
0
  5
2033
 10
-1.04689
 20
-5.00000
 30
-2.17323e-16
  70
    32
  0
VERTEX
  8
0
  5
2034
 10
-1.02415
 20
-5.00000
 30
-2.12598e-16
  70
    32
  0
VERTEX
  8
0
  5
2035
 10
-1.00141
 20
-5.00000
 30
-2.07874e-16
  70
    32
  0
VERTEX
  8
0
  5
2036
 10
-0.978667
 20
-5.00000
 30
-2.03150e-16
  70
    32
  0
VERTEX
  8
0
  5
2037
 10
-0.955923
 20
-5.00000
 30
-1.98425e-16
  70
    32
  0
VERTEX
  8
0
  5
2038
 10
-0.933179
 20
-5.00000
 30
-1.93701e-16
  70
    32
  0
VERTEX
  8
0
  5
2039
 10
-0.910434
 20
-5.00000
 30
-1.88976e-16
  70
    32
  0
VERTEX
  8
0
  5
203A
 10
-0.887688
 20
-5.00000
 30
-1.84252e-16
  70
    32
  0
VERTEX
  8
0
  5
203B
 10
-0.864942
 20
-5.00000
 30
-1.79528e-16
  70
    32
  0
VERTEX
  8
0
  5
203C
 10
-0.842194
 20
-5.00000
 30
-1.74803e-16
  70
    32
  0
VERTEX
  8
0
  5
203D
 10
-0.819446
 20
-5.00000
 30
-1.70079e-16
  70
    32
  0
VERTEX
  8
0
  5
203E
 10
-0.796697
 20
-5.00000
 30
-1.65354e-16
  70
    32
  0
VERTEX
  8
0
  5
203F
 10
-0.773948
 20
-5.00000
 30
-1.60630e-16
  70
    32
  0
VERTEX
  8
0
  5
2040
 10
-0.751198
 20
-5.00000
 30
-1.55906e-16
  70
    32
  0
VERTEX
  8
0
  5
2041
 10
-0.728447
 20
-5.00000
 30
-1.51181e-16
  70
    32
  0
VERTEX
  8
0
  5
2042
 10
-0.705695
 20
-5.00000
 30
-1.46457e-16
  70
    32
  0
VERTEX
  8
0
  5
2043
 10
-0.682942
 20
-5.00000
 30
-1.41732e-16
  70
    32
  0
VERTEX
  8
0
  5
2044
 10
-0.660189
 20
-5.00000
 30
-1.37008e-16
  70
    32
  0
VERTEX
  8
0
  5
2045
 10
-0.637435
 20
-5.00000
 30
-1.32283e-16
  70
    32
  0
VERTEX
  8
0
  5
2046
 10
-0.614680
 20
-5.00000
 30
-1.27559e-16
  70
    32
  0
VERTEX
  8
0
  5
2047
 10
-0.591924
 20
-5.00000
 30
-1.22835e-16
  70
    32
  0
VERTEX
  8
0
  5
2048
 10
-0.569168
 20
-5.00000
 30
-1.18110e-16
  70
    32
  0
VERTEX
  8
0
  5
2049
 10
-0.546411
 20
-5.00000
 30
-1.13386e-16
  70
    32
  0
VERTEX
  8
0
  5
204A
 10
-0.523653
 20
-5.00000
 30
-1.08661e-16
  70
    32
  0
VERTEX
  8
0
  5
204B
 10
-0.500894
 20
-5.00000
 30
-1.03937e-16
  70
    32
  0
VERTEX
  8
0
  5
204C
 10
-0.478135
 20
-5.00000
 30
-9.92126e-17
  70
    32
  0
VERTEX
  8
0
  5
204D
 10
-0.455374
 20
-5.00000
 30
-9.44882e-17
  70
    32
  0
VERTEX
  8
0
  5
204E
 10
-0.432613
 20
-5.00000
 30
-8.97638e-17
  70
    32
  0
VERTEX
  8
0
  5
204F
 10
-0.409851
 20
-5.00000
 30
-8.50394e-17
  70
    32
  0
VERTEX
  8
0
  5
2050
 10
-0.387089
 20
-5.00000
 30
-8.03150e-17
  70
    32
  0
VERTEX
  8
0
  5
2051
 10
-0.364325
 20
-5.00000
 30
-7.55906e-17
  70
    32
  0
VERTEX
  8
0
  5
2052
 10
-0.341561
 20
-5.00000
 30
-7.08661e-17
  70
    32
  0
VERTEX
  8
0
  5
2053
 10
-0.318796
 20
-5.00000
 30
-6.61417e-17
  70
    32
  0
VERTEX
  8
0
  5
2054
 10
-0.296030
 20
-5.00000
 30
-6.14173e-17
  70
    32
  0
VERTEX
  8
0
  5
2055
 10
-0.273263
 20
-5.00000
 30
-5.66929e-17
  70
    32
  0
VERTEX
  8
0
  5
2056
 10
-0.250496
 20
-5.00000
 30
-5.19685e-17
  70
    32
  0
VERTEX
  8
0
  5
2057
 10
-0.227728
 20
-5.00000
 30
-4.72441e-17
  70
    32
  0
VERTEX
  8
0
  5
2058
 10
-0.204959
 20
-5.00000
 30
-4.25197e-17
  70
    32
  0
VERTEX
  8
0
  5
2059
 10
-0.182189
 20
-5.00000
 30
-3.77953e-17
  70
    32
  0
VERTEX
  8
0
  5
205A
 10
-0.159418
 20
-5.00000
 30
-3.30709e-17
  70
    32
  0
VERTEX
  8
0
  5
205B
 10
-0.136646
 20
-5.00000
 30
-2.83465e-17
  70
    32
  0
VERTEX
  8
0
  5
205C
 10
-0.113874
 20
-5.00000
 30
-2.36220e-17
  70
    32
  0
VERTEX
  8
0
  5
205D
 10
-0.0911009
 20
-5.00000
 30
-1.88976e-17
  70
    32
  0
VERTEX
  8
0
  5
205E
 10
-0.0683270
 20
-5.00000
 30
-1.41732e-17
  70
    32
  0
VERTEX
  8
0
  5
205F
 10
-0.0455521
 20
-5.00000
 30
-9.44882e-18
  70
    32
  0
VERTEX
  8
0
  5
2060
 10
-0.0227765
 20
-5.00000
 30
-4.72441e-18
  70
    32
  0
VERTEX
  8
0
  5
2061
 10
-9.93793e-09
 20
-5.00000
 30
-2.06134e-24
  70
    32
  0
SEQEND
  8
0
  5
2062
  0
POLYLINE
  8
0
  5
2063
  62
3
  66
     1
 10
0.000000
 20
0.000000
 30
0.000000
  70
     8
  0
VERTEX
  8
0
  5
2064
 10
7.00000e-16
 20
-5.00000
 30
0.000000
  70
    32
  0
VERTEX
  8
0
  5
2065
 10
0.0150934
 20
-5.00000
 30
3.14136e-18
  70
    32
  0
VERTEX
  8
0
  5
2066
 10
0.0301871
 20
-5.00000
 30
6.28272e-18
  70
    32
  0
VERTEX
  8
0
  5
2067
 10
0.0452811
 20
-5.00000
 30
9.42408e-18
  70
    32
  0
VERTEX
  8
0
  5
2068
 10
0.0603755
 20
-5.00000
 30
1.25654e-17
  70
    32
  0
VERTEX
  8
0
  5
2069
 10
0.0754703
 20
-5.00000
 30
1.57068e-17
  70
    32
  0
VERTEX
  8
0
  5
206A
 10
0.0905654
 20
-5.00000
 30
1.88482e-17
  70
    32
  0
VERTEX
  8
0
  5
206B
 10
0.105661
 20
-5.00000
 30
2.19895e-17
  70
    32
  0
VERTEX
  8
0
  5
206C
 10
0.120757
 20
-5.00000
 30
2.51309e-17
  70
    32
  0
VERTEX
  8
0
  5
206D
 10
0.135853
 20
-5.00000
 30
2.82723e-17
  70
    32
  0
VERTEX
  8
0
  5
206E
 10
0.150949
 20
-5.00000
 30
3.14136e-17
  70
    32
  0
VERTEX
  8
0
  5
206F
 10
0.166046
 20
-5.00000
 30
3.45550e-17
  70
    32
  0
VERTEX
  8
0
  5
2070
 10
0.181144
 20
-5.00000
 30
3.76963e-17
  70
    32
  0
VERTEX
  8
0
  5
2071
 10
0.196241
 20
-5.00000
 30
4.08377e-17
  70
    32
  0
VERTEX
  8
0
  5
2072
 10
0.211339
 20
-5.00000
 30
4.39791e-17
  70
    32
  0
VERTEX
  8
0
  5
2073
 10
0.226437
 20
-5.00000
 30
4.71204e-17
  70
    32
  0
VERTEX
  8
0
  5
2074
 10
0.241536
 20
-5.00000
 30
5.02618e-17
  70
    32
  0
VERTEX
  8
0
  5
2075
 10
0.256635
 20
-5.00000
 30
5.34031e-17
  70
    32
  0
VERTEX
  8
0
  5
2076
 10
0.271734
 20
-5.00000
 30
5.65445e-17
  70
    32
  0
VERTEX
  8
0
  5
2077
 10
0.286834
 20
-5.00000
 30
5.96859e-17
  70
    32
  0
VERTEX
  8
0
  5
2078
 10
0.301934
 20
-5.00000
 30
6.28272e-17
  70
    32
  0
VERTEX
  8
0
  5
2079
 10
0.317034
 20
-5.00000
 30
6.59686e-17
  70
    32
  0
VERTEX
  8
0
  5
207A
 10
0.332135
 20
-5.00000
 30
6.91099e-17
  70
    32
  0
VERTEX
  8
0
  5
207B
 10
0.347236
 20
-5.00000
 30
7.22513e-17
  70
    32
  0
VERTEX
  8
0
  5
207C
 10
0.362338
 20
-5.00000
 30
7.53927e-17
  70
    32
  0
VERTEX
  8
0
  5
207D
 10
0.377439
 20
-5.00000
 30
7.85340e-17
  70
    32
  0
VERTEX
  8
0
  5
207E
 10
0.392541
 20
-5.00000
 30
8.16754e-17
  70
    32
  0
VERTEX
  8
0
  5
207F
 10
0.407644
 20
-5.00000
 30
8.48168e-17
  70
    32
  0
VERTEX
  8
0
  5
2080
 10
0.422747
 20
-5.00000
 30
8.79581e-17
  70
    32
  0
VERTEX
  8
0
  5
2081
 10
0.437850
 20
-5.00000
 30
9.10995e-17
  70
    32
  0
VERTEX
  8
0
  5
2082
 10
0.452953
 20
-5.00000
 30
9.42408e-17
  70
    32
  0
VERTEX
  8
0
  5
2083
 10
0.468057
 20
-5.00000
 30
9.73822e-17
  70
    32
  0
VERTEX
  8
0
  5
2084
 10
0.483161
 20
-5.00000
 30
1.00524e-16
  70
    32
  0
VERTEX
  8
0
  5
2085
 10
0.498266
 20
-5.00000
 30
1.03665e-16
  70
    32
  0
VERTEX
  8
0
  5
2086
 10
0.513371
 20
-5.00000
 30
1.06806e-16
  70
    32
  0
VERTEX
  8
0
  5
2087
 10
0.528476
 20
-5.00000
 30
1.09948e-16
  70
    32
  0
VERTEX
  8
0
  5
2088
 10
0.543581
 20
-5.00000
 30
1.13089e-16
  70
    32
  0
VERTEX
  8
0
  5
2089
 10
0.558687
 20
-5.00000
 30
1.16230e-16
  70
    32
  0
VERTEX
  8
0
  5
208A
 10
0.573793
 20
-5.00000
 30
1.19372e-16
  70
    32
  0
VERTEX
  8
0
  5
208B
 10
0.588900
 20
-5.00000
 30
1.22513e-16
  70
    32
  0
VERTEX
  8
0
  5
208C
 10
0.604007
 20
-5.00000
 30
1.25654e-16
  70
    32
  0
VERTEX
  8
0
  5
208D
 10
0.619114
 20
-5.00000
 30
1.28796e-16
  70
    32
  0
VERTEX
  8
0
  5
208E
 10
0.634221
 20
-5.00000
 30
1.31937e-16
  70
    32
  0
VERTEX
  8
0
  5
208F
 10
0.649329
 20
-5.00000
 30
1.35079e-16
  70
    32
  0
VERTEX
  8
0
  5
2090
 10
0.664438
 20
-5.00000
 30
1.38220e-16
  70
    32
  0
VERTEX
  8
0
  5
2091
 10
0.679546
 20
-5.00000
 30
1.41361e-16
  70
    32
  0
VERTEX
  8
0
  5
2092
 10
0.694655
 20
-5.00000
 30
1.44503e-16
  70
    32
  0
VERTEX
  8
0
  5
2093
 10
0.709764
 20
-5.00000
 30
1.47644e-16
  70
    32
  0
VERTEX
  8
0
  5
2094
 10
0.724874
 20
-5.00000
 30
1.50785e-16
  70
    32
  0
VERTEX
  8
0
  5
2095
 10
0.739984
 20
-5.00000
 30
1.53927e-16
  70
    32
  0
VERTEX
  8
0
  5
2096
 10
0.755094
 20
-5.00000
 30
1.57068e-16
  70
    32
  0
VERTEX
  8
0
  5
2097
 10
0.770205
 20
-5.00000
 30
1.60209e-16
  70
    32
  0
VERTEX
  8
0
  5
2098
 10
0.785316
 20
-5.00000
 30
1.63351e-16
  70
    32
  0
VERTEX
  8
0
  5
2099
 10
0.800427
 20
-5.00000
 30
1.66492e-16
  70
    32
  0
VERTEX
  8
0
  5
209A
 10
0.815538
 20
-5.00000
 30
1.69634e-16
  70
    32
  0
VERTEX
  8
0
  5
209B
 10
0.830650
 20
-5.00000
 30
1.72775e-16
  70
    32
  0
VERTEX
  8
0
  5
209C
 10
0.845763
 20
-5.00000
 30
1.75916e-16
  70
    32
  0
VERTEX
  8
0
  5
209D
 10
0.860875
 20
-5.00000
 30
1.79058e-16
  70
    32
  0
VERTEX
  8
0
  5
209E
 10
0.875988
 20
-5.00000
 30
1.82199e-16
  70
    32
  0
VERTEX
  8
0
  5
209F
 10
0.891101
 20
-5.00000
 30
1.85340e-16
  70
    32
  0
VERTEX
  8
0
  5
20A0
 10
0.906215
 20
-5.00000
 30
1.88482e-16
  70
    32
  0
VERTEX
  8
0
  5
20A1
 10
0.921329
 20
-5.00000
 30
1.91623e-16
  70
    32
  0
VERTEX
  8
0
  5
20A2
 10
0.936443
 20
-5.00000
 30
1.94764e-16
  70
    32
  0
VERTEX
  8
0
  5
20A3
 10
0.951558
 20
-5.00000
 30
1.97906e-16
  70
    32
  0
VERTEX
  8
0
  5
20A4
 10
0.966673
 20
-5.00000
 30
2.01047e-16
  70
    32
  0
VERTEX
  8
0
  5
20A5
 10
0.981788
 20
-5.00000
 30
2.04188e-16
  70
    32
  0
VERTEX
  8
0
  5
20A6
 10
0.996903
 20
-5.00000
 30
2.07330e-16
  70
    32
  0
VERTEX
  8
0
  5
20A7
 10
1.01202
 20
-5.00000
 30
2.10471e-16
  70
    32
  0
VERTEX
  8
0
  5
20A8
 10
1.02714
 20
-5.00000
 30
2.13613e-16
  70
    32
  0
VERTEX
  8
0
  5
20A9
 10
1.04225
 20
-5.00000
 30
2.16754e-16
  70
    32
  0
VERTEX
  8
0
  5
20AA
 10
1.05737
 20
-5.00000
 30
2.19895e-16
  70
    32
  0
VERTEX
  8
0
  5
20AB
 10
1.07249
 20
-5.00000
 30
2.23037e-16
  70
    32
  0
VERTEX
  8
0
  5
20AC
 10
1.08760
 20
-5.00000
 30
2.26178e-16
  70
    32
  0
VERTEX
  8
0
  5
20AD
 10
1.10272
 20
-5.00000
 30
2.29319e-16
  70
    32
  0
VERTEX
  8
0
  5
20AE
 10
1.11784
 20
-5.00000
 30
2.32461e-16
  70
    32
  0
VERTEX
  8
0
  5
20AF
 10
1.13296
 20
-5.00000
 30
2.35602e-16
  70
    32
  0
VERTEX
  8
0
  5
20B0
 10
1.14808
 20
-5.00000
 30
2.38743e-16
  70
    32
  0
VERTEX
  8
0
  5
20B1
 10
1.16320
 20
-5.00000
 30
2.41885e-16
  70
    32
  0
VERTEX
  8
0
  5
20B2
 10
1.17832
 20
-5.00000
 30
2.45026e-16
  70
    32
  0
VERTEX
  8
0
  5
20B3
 10
1.19344
 20
-5.00000
 30
2.48168e-16
  70
    32
  0
VERTEX
  8
0
  5
20B4
 10
1.20856
 20
-5.00000
 30
2.51309e-16
  70
    32
  0
VERTEX
  8
0
  5
20B5
 10
1.22368
 20
-5.00000
 30
2.54450e-16
  70
    32
  0
VERTEX
  8
0
  5
20B6
 10
1.23880
 20
-5.00000
 30
2.57592e-16
  70
    32
  0
VERTEX
  8
0
  5
20B7
 10
1.25392
 20
-5.00000
 30
2.60733e-16
  70
    32
  0
VERTEX
  8
0
  5
20B8
 10
1.26904
 20
-5.00000
 30
2.63874e-16
  70
    32
  0
VERTEX
  8
0
  5
20B9
 10
1.28416
 20
-5.00000
 30
2.67016e-16
  70
    32
  0
VERTEX
  8
0
  5
20BA
 10
1.29928
 20
-5.00000
 30
2.70157e-16
  70
    32
  0
VERTEX
  8
0
  5
20BB
 10
1.31441
 20
-5.00000
 30
2.73298e-16
  70
    32
  0
VERTEX
  8
0
  5
20BC
 10
1.32953
 20
-5.00000
 30
2.76440e-16
  70
    32
  0
VERTEX
  8
0
  5
20BD
 10
1.34465
 20
-5.00000
 30
2.79581e-16
  70
    32
  0
VERTEX
  8
0
  5
20BE
 10
1.35977
 20
-5.00000
 30
2.82723e-16
  70
    32
  0
VERTEX
  8
0
  5
20BF
 10
1.37490
 20
-5.00000
 30
2.85864e-16
  70
    32
  0
VERTEX
  8
0
  5
20C0
 10
1.39002
 20
-5.00000
 30
2.89005e-16
  70
    32
  0
VERTEX
  8
0
  5
20C1
 10
1.40515
 20
-5.00000
 30
2.92147e-16
  70
    32
  0
VERTEX
  8
0
  5
20C2
 10
1.42027
 20
-5.00000
 30
2.95288e-16
  70
    32
  0
VERTEX
  8
0
  5
20C3
 10
1.43540
 20
-5.00000
 30
2.98429e-16
  70
    32
  0
VERTEX
  8
0
  5
20C4
 10
1.45052
 20
-5.00000
 30
3.01571e-16
  70
    32
  0
VERTEX
  8
0
  5
20C5
 10
1.46565
 20
-5.00000
 30
3.04712e-16
  70
    32
  0
VERTEX
  8
0
  5
20C6
 10
1.48077
 20
-5.00000
 30
3.07853e-16
  70
    32
  0
VERTEX
  8
0
  5
20C7
 10
1.49590
 20
-5.00000
 30
3.10995e-16
  70
    32
  0
VERTEX
  8
0
  5
20C8
 10
1.51103
 20
-5.00000
 30
3.14136e-16
  70
    32
  0
VERTEX
  8
0
  5
20C9
 10
1.52616
 20
-5.00000
 30
3.17277e-16
  70
    32
  0
VERTEX
  8
0
  5
20CA
 10
1.54129
 20
-5.00000
 30
3.20419e-16
  70
    32
  0
VERTEX
  8
0
  5
20CB
 10
1.55642
 20
-5.00000
 30
3.23560e-16
  70
    32
  0
VERTEX
  8
0
  5
20CC
 10
1.57155
 20
-5.00000
 30
3.26702e-16
  70
    32
  0
VERTEX
  8
0
  5
20CD
 10
1.58668
 20
-5.00000
 30
3.29843e-16
  70
    32
  0
VERTEX
  8
0
  5
20CE
 10
1.60181
 20
-5.00000
 30
3.32984e-16
  70
    32
  0
VERTEX
  8
0
  5
20CF
 10
1.61694
 20
-5.00000
 30
3.36126e-16
  70
    32
  0
VERTEX
  8
0
  5
20D0
 10
1.63207
 20
-5.00000
 30
3.39267e-16
  70
    32
  0
VERTEX
  8
0
  5
20D1
 10
1.64721
 20
-5.00000
 30
3.42408e-16
  70
    32
  0
VERTEX
  8
0
  5
20D2
 10
1.66234
 20
-5.00000
 30
3.45550e-16
  70
    32
  0
VERTEX
  8
0
  5
20D3
 10
1.67747
 20
-5.00000
 30
3.48691e-16
  70
    32
  0
VERTEX
  8
0
  5
20D4
 10
1.69261
 20
-5.00000
 30
3.51832e-16
  70
    32
  0
VERTEX
  8
0
  5
20D5
 10
1.70774
 20
-5.00000
 30
3.54974e-16
  70
    32
  0
VERTEX
  8
0
  5
20D6
 10
1.72287
 20
-5.00000
 30
3.58115e-16
  70
    32
  0
VERTEX
  8
0
  5
20D7
 10
1.73801
 20
-5.00000
 30
3.61257e-16
  70
    32
  0
VERTEX
  8
0
  5
20D8
 10
1.75314
 20
-5.00000
 30
3.64398e-16
  70
    32
  0
VERTEX
  8
0
  5
20D9
 10
1.76828
 20
-5.00000
 30
3.67539e-16
  70
    32
  0
VERTEX
  8
0
  5
20DA
 10
1.78341
 20
-5.00000
 30
3.70681e-16
  70
    32
  0
VERTEX
  8
0
  5
20DB
 10
1.79855
 20
-5.00000
 30
3.73822e-16
  70
    32
  0
VERTEX
  8
0
  5
20DC
 10
1.81368
 20
-5.00000
 30
3.76963e-16
  70
    32
  0
VERTEX
  8
0
  5
20DD
 10
1.82882
 20
-5.00000
 30
3.80105e-16
  70
    32
  0
VERTEX
  8
0
  5
20DE
 10
1.84395
 20
-5.00000
 30
3.83246e-16
  70
    32
  0
VERTEX
  8
0
  5
20DF
 10
1.85909
 20
-5.00000
 30
3.86387e-16
  70
    32
  0
VERTEX
  8
0
  5
20E0
 10
1.87422
 20
-5.00000
 30
3.89529e-16
  70
    32
  0
VERTEX
  8
0
  5
20E1
 10
1.88936
 20
-5.00000
 30
3.92670e-16
  70
    32
  0
VERTEX
  8
0
  5
20E2
 10
1.90449
 20
-5.00000
 30
3.95812e-16
  70
    32
  0
VERTEX
  8
0
  5
20E3
 10
1.91963
 20
-5.00000
 30
3.98953e-16
  70
    32
  0
VERTEX
  8
0
  5
20E4
 10
1.93476
 20
-5.00000
 30
4.02094e-16
  70
    32
  0
VERTEX
  8
0
  5
20E5
 10
1.94990
 20
-5.00000
 30
4.05236e-16
  70
    32
  0
VERTEX
  8
0
  5
20E6
 10
1.96503
 20
-5.00000
 30
4.08377e-16
  70
    32
  0
VERTEX
  8
0
  5
20E7
 10
1.98017
 20
-5.00000
 30
4.11518e-16
  70
    32
  0
VERTEX
  8
0
  5
20E8
 10
1.99530
 20
-5.00000
 30
4.14660e-16
  70
    32
  0
VERTEX
  8
0
  5
20E9
 10
2.01043
 20
-5.00000
 30
4.17801e-16
  70
    32
  0
VERTEX
  8
0
  5
20EA
 10
2.02557
 20
-5.00000
 30
4.20942e-16
  70
    32
  0
VERTEX
  8
0
  5
20EB
 10
2.04070
 20
-5.00000
 30
4.24084e-16
  70
    32
  0
VERTEX
  8
0
  5
20EC
 10
2.05583
 20
-5.00000
 30
4.27225e-16
  70
    32
  0
VERTEX
  8
0
  5
20ED
 10
2.07096
 20
-5.00000
 30
4.30366e-16
  70
    32
  0
VERTEX
  8
0
  5
20EE
 10
2.08610
 20
-5.00000
 30
4.33508e-16
  70
    32
  0
VERTEX
  8
0
  5
20EF
 10
2.10123
 20
-5.00000
 30
4.36649e-16
  70
    32
  0
VERTEX
  8
0
  5
20F0
 10
2.11636
 20
-5.00000
 30
4.39791e-16
  70
    32
  0
VERTEX
  8
0
  5
20F1
 10
2.13149
 20
-5.00000
 30
4.42932e-16
  70
    32
  0
VERTEX
  8
0
  5
20F2
 10
2.14662
 20
-5.00000
 30
4.46073e-16
  70
    32
  0
VERTEX
  8
0
  5
20F3
 10
2.16175
 20
-5.00000
 30
4.49215e-16
  70
    32
  0
VERTEX
  8
0
  5
20F4
 10
2.17688
 20
-5.00000
 30
4.52356e-16
  70
    32
  0
VERTEX
  8
0
  5
20F5
 10
2.19201
 20
-5.00000
 30
4.55497e-16
  70
    32
  0
VERTEX
  8
0
  5
20F6
 10
2.20713
 20
-5.00000
 30
4.58639e-16
  70
    32
  0
VERTEX
  8
0
  5
20F7
 10
2.22226
 20
-5.00000
 30
4.61780e-16
  70
    32
  0
VERTEX
  8
0
  5
20F8
 10
2.23739
 20
-5.00000
 30
4.64921e-16
  70
    32
  0
VERTEX
  8
0
  5
20F9
 10
2.25251
 20
-5.00000
 30
4.68063e-16
  70
    32
  0
VERTEX
  8
0
  5
20FA
 10
2.26764
 20
-5.00000
 30
4.71204e-16
  70
    32
  0
VERTEX
  8
0
  5
20FB
 10
2.28276
 20
-5.00000
 30
4.74346e-16
  70
    32
  0
VERTEX
  8
0
  5
20FC
 10
2.29788
 20
-5.00000
 30
4.77487e-16
  70
    32
  0
VERTEX
  8
0
  5
20FD
 10
2.31301
 20
-5.00000
 30
4.80628e-16
  70
    32
  0
VERTEX
  8
0
  5
20FE
 10
2.32813
 20
-5.00000
 30
4.83770e-16
  70
    32
  0
VERTEX
  8
0
  5
20FF
 10
2.34325
 20
-5.00000
 30
4.86911e-16
  70
    32
  0
VERTEX
  8
0
  5
2100
 10
2.35837
 20
-5.00000
 30
4.90052e-16
  70
    32
  0
VERTEX
  8
0
  5
2101
 10
2.37349
 20
-5.00000
 30
4.93194e-16
  70
    32
  0
VERTEX
  8
0
  5
2102
 10
2.38860
 20
-5.00000
 30
4.96335e-16
  70
    32
  0
VERTEX
  8
0
  5
2103
 10
2.40372
 20
-5.00000
 30
4.99476e-16
  70
    32
  0
VERTEX
  8
0
  5
2104
 10
2.41884
 20
-5.00000
 30
5.02618e-16
  70
    32
  0
VERTEX
  8
0
  5
2105
 10
2.43395
 20
-5.00000
 30
5.05759e-16
  70
    32
  0
VERTEX
  8
0
  5
2106
 10
2.44906
 20
-5.00000
 30
5.08901e-16
  70
    32
  0
VERTEX
  8
0
  5
2107
 10
2.46418
 20
-5.00000
 30
5.12042e-16
  70
    32
  0
VERTEX
  8
0
  5
2108
 10
2.47929
 20
-5.00000
 30
5.15183e-16
  70
    32
  0
VERTEX
  8
0
  5
2109
 10
2.49440
 20
-5.00000
 30
5.18325e-16
  70
    32
  0
VERTEX
  8
0
  5
210A
 10
2.50951
 20
-5.00000
 30
5.21466e-16
  70
    32
  0
VERTEX
  8
0
  5
210B
 10
2.52461
 20
-5.00000
 30
5.24607e-16
  70
    32
  0
VERTEX
  8
0
  5
210C
 10
2.53972
 20
-5.00000
 30
5.27749e-16
  70
    32
  0
VERTEX
  8
0
  5
210D
 10
2.55482
 20
-5.00000
 30
5.30890e-16
  70
    32
  0
VERTEX
  8
0
  5
210E
 10
2.56993
 20
-5.00000
 30
5.34031e-16
  70
    32
  0
VERTEX
  8
0
  5
210F
 10
2.58503
 20
-5.00000
 30
5.37173e-16
  70
    32
  0
VERTEX
  8
0
  5
2110
 10
2.60013
 20
-5.00000
 30
5.40314e-16
  70
    32
  0
VERTEX
  8
0
  5
2111
 10
2.61523
 20
-5.00000
 30
5.43455e-16
  70
    32
  0
VERTEX
  8
0
  5
2112
 10
2.63033
 20
-5.00000
 30
5.46597e-16
  70
    32
  0
VERTEX
  8
0
  5
2113
 10
2.64543
 20
-5.00000
 30
5.49738e-16
  70
    32
  0
VERTEX
  8
0
  5
2114
 10
2.66052
 20
-5.00000
 30
5.52880e-16
  70
    32
  0
VERTEX
  8
0
  5
2115
 10
2.67561
 20
-5.00000
 30
5.56021e-16
  70
    32
  0
VERTEX
  8
0
  5
2116
 10
2.69071
 20
-5.00000
 30
5.59162e-16
  70
    32
  0
VERTEX
  8
0
  5
2117
 10
2.70580
 20
-5.00000
 30
5.62304e-16
  70
    32
  0
VERTEX
  8
0
  5
2118
 10
2.72089
 20
-5.00000
 30
5.65445e-16
  70
    32
  0
VERTEX
  8
0
  5
2119
 10
2.73597
 20
-5.00000
 30
5.68586e-16
  70
    32
  0
VERTEX
  8
0
  5
211A
 10
2.75106
 20
-5.00000
 30
5.71728e-16
  70
    32
  0
VERTEX
  8
0
  5
211B
 10
2.76614
 20
-5.00000
 30
5.74869e-16
  70
    32
  0
VERTEX
  8
0
  5
211C
 10
2.78123
 20
-5.00000
 30
5.78010e-16
  70
    32
  0
VERTEX
  8
0
  5
211D
 10
2.79631
 20
-5.00000
 30
5.81152e-16
  70
    32
  0
VERTEX
  8
0
  5
211E
 10
2.81138
 20
-5.00000
 30
5.84293e-16
  70
    32
  0
VERTEX
  8
0
  5
211F
 10
2.82646
 20
-5.00000
 30
5.87435e-16
  70
    32
  0
VERTEX
  8
0
  5
2120
 10
2.84154
 20
-5.00000
 30
5.90576e-16
  70
    32
  0
VERTEX
  8
0
  5
2121
 10
2.85661
 20
-5.00000
 30
5.93717e-16
  70
    32
  0
VERTEX
  8
0
  5
2122
 10
2.87168
 20
-5.00000
 30
5.96859e-16
  70
    32
  0
VERTEX
  8
0
  5
2123
 10
2.88675
 20
-5.00000
 30
6.00000e-16
  70
    32
  0
SEQEND
  8
0
  5
2124
  0
ARC
  5
1B41
  8
0
  6
CONTINUOUS
 62
     3
 10
0.0000000000000018
 20
-0.000000000000004
 30
0.0
 40
5.0000000000000222
 50
210.0
 51
270.0
  0
POLYLINE
  8
0
  5
2125
  62
3
  66
     1
 10
0.000000
 20
0.000000
 30
0.000000
  70
     8
  0
VERTEX
  8
0
  5
2126
 10
1.10000e-15
 20
5.00000
 30
0.000000
  70
    32
  0
VERTEX
  8
0
  5
2127
 10
-0.0227765
 20
5.00000
 30
-4.72441e-18
  70
    32
  0
VERTEX
  8
0
  5
2128
 10
-0.0455521
 20
5.00000
 30
-9.44882e-18
  70
    32
  0
VERTEX
  8
0
  5
2129
 10
-0.0683269
 20
5.00000
 30
-1.41732e-17
  70
    32
  0
VERTEX
  8
0
  5
212A
 10
-0.0911009
 20
5.00000
 30
-1.88976e-17
  70
    32
  0
VERTEX
  8
0
  5
212B
 10
-0.113874
 20
5.00000
 30
-2.36220e-17
  70
    32
  0
VERTEX
  8
0
  5
212C
 10
-0.136646
 20
5.00000
 30
-2.83465e-17
  70
    32
  0
VERTEX
  8
0
  5
212D
 10
-0.159418
 20
5.00000
 30
-3.30709e-17
  70
    32
  0
VERTEX
  8
0
  5
212E
 10
-0.182189
 20
5.00000
 30
-3.77953e-17
  70
    32
  0
VERTEX
  8
0
  5
212F
 10
-0.204959
 20
5.00000
 30
-4.25197e-17
  70
    32
  0
VERTEX
  8
0
  5
2130
 10
-0.227728
 20
5.00000
 30
-4.72441e-17
  70
    32
  0
VERTEX
  8
0
  5
2131
 10
-0.250496
 20
5.00000
 30
-5.19685e-17
  70
    32
  0
VERTEX
  8
0
  5
2132
 10
-0.273263
 20
5.00000
 30
-5.66929e-17
  70
    32
  0
VERTEX
  8
0
  5
2133
 10
-0.296030
 20
5.00000
 30
-6.14173e-17
  70
    32
  0
VERTEX
  8
0
  5
2134
 10
-0.318796
 20
5.00000
 30
-6.61417e-17
  70
    32
  0
VERTEX
  8
0
  5
2135
 10
-0.341561
 20
5.00000
 30
-7.08661e-17
  70
    32
  0
VERTEX
  8
0
  5
2136
 10
-0.364325
 20
5.00000
 30
-7.55906e-17
  70
    32
  0
VERTEX
  8
0
  5
2137
 10
-0.387089
 20
5.00000
 30
-8.03150e-17
  70
    32
  0
VERTEX
  8
0
  5
2138
 10
-0.409851
 20
5.00000
 30
-8.50394e-17
  70
    32
  0
VERTEX
  8
0
  5
2139
 10
-0.432613
 20
5.00000
 30
-8.97638e-17
  70
    32
  0
VERTEX
  8
0
  5
213A
 10
-0.455374
 20
5.00000
 30
-9.44882e-17
  70
    32
  0
VERTEX
  8
0
  5
213B
 10
-0.478135
 20
5.00000
 30
-9.92126e-17
  70
    32
  0
VERTEX
  8
0
  5
213C
 10
-0.500894
 20
5.00000
 30
-1.03937e-16
  70
    32
  0
VERTEX
  8
0
  5
213D
 10
-0.523653
 20
5.00000
 30
-1.08661e-16
  70
    32
  0
VERTEX
  8
0
  5
213E
 10
-0.546411
 20
5.00000
 30
-1.13386e-16
  70
    32
  0
VERTEX
  8
0
  5
213F
 10
-0.569168
 20
5.00000
 30
-1.18110e-16
  70
    32
  0
VERTEX
  8
0
  5
2140
 10
-0.591924
 20
5.00000
 30
-1.22835e-16
  70
    32
  0
VERTEX
  8
0
  5
2141
 10
-0.614680
 20
5.00000
 30
-1.27559e-16
  70
    32
  0
VERTEX
  8
0
  5
2142
 10
-0.637435
 20
5.00000
 30
-1.32283e-16
  70
    32
  0
VERTEX
  8
0
  5
2143
 10
-0.660189
 20
5.00000
 30
-1.37008e-16
  70
    32
  0
VERTEX
  8
0
  5
2144
 10
-0.682942
 20
5.00000
 30
-1.41732e-16
  70
    32
  0
VERTEX
  8
0
  5
2145
 10
-0.705695
 20
5.00000
 30
-1.46457e-16
  70
    32
  0
VERTEX
  8
0
  5
2146
 10
-0.728447
 20
5.00000
 30
-1.51181e-16
  70
    32
  0
VERTEX
  8
0
  5
2147
 10
-0.751198
 20
5.00000
 30
-1.55906e-16
  70
    32
  0
VERTEX
  8
0
  5
2148
 10
-0.773948
 20
5.00000
 30
-1.60630e-16
  70
    32
  0
VERTEX
  8
0
  5
2149
 10
-0.796697
 20
5.00000
 30
-1.65354e-16
  70
    32
  0
VERTEX
  8
0
  5
214A
 10
-0.819446
 20
5.00000
 30
-1.70079e-16
  70
    32
  0
VERTEX
  8
0
  5
214B
 10
-0.842194
 20
5.00000
 30
-1.74803e-16
  70
    32
  0
VERTEX
  8
0
  5
214C
 10
-0.864942
 20
5.00000
 30
-1.79528e-16
  70
    32
  0
VERTEX
  8
0
  5
214D
 10
-0.887688
 20
5.00000
 30
-1.84252e-16
  70
    32
  0
VERTEX
  8
0
  5
214E
 10
-0.910434
 20
5.00000
 30
-1.88976e-16
  70
    32
  0
VERTEX
  8
0
  5
214F
 10
-0.933179
 20
5.00000
 30
-1.93701e-16
  70
    32
  0
VERTEX
  8
0
  5
2150
 10
-0.955923
 20
5.00000
 30
-1.98425e-16
  70
    32
  0
VERTEX
  8
0
  5
2151
 10
-0.978667
 20
5.00000
 30
-2.03150e-16
  70
    32
  0
VERTEX
  8
0
  5
2152
 10
-1.00141
 20
5.00000
 30
-2.07874e-16
  70
    32
  0
VERTEX
  8
0
  5
2153
 10
-1.02415
 20
5.00000
 30
-2.12598e-16
  70
    32
  0
VERTEX
  8
0
  5
2154
 10
-1.04689
 20
5.00000
 30
-2.17323e-16
  70
    32
  0
VERTEX
  8
0
  5
2155
 10
-1.06963
 20
5.00000
 30
-2.22047e-16
  70
    32
  0
VERTEX
  8
0
  5
2156
 10
-1.09237
 20
5.00000
 30
-2.26772e-16
  70
    32
  0
VERTEX
  8
0
  5
2157
 10
-1.11511
 20
5.00000
 30
-2.31496e-16
  70
    32
  0
VERTEX
  8
0
  5
2158
 10
-1.13785
 20
5.00000
 30
-2.36220e-16
  70
    32
  0
VERTEX
  8
0
  5
2159
 10
-1.16059
 20
5.00000
 30
-2.40945e-16
  70
    32
  0
VERTEX
  8
0
  5
215A
 10
-1.18333
 20
5.00000
 30
-2.45669e-16
  70
    32
  0
VERTEX
  8
0
  5
215B
 10
-1.20606
 20
5.00000
 30
-2.50394e-16
  70
    32
  0
VERTEX
  8
0
  5
215C
 10
-1.22880
 20
5.00000
 30
-2.55118e-16
  70
    32
  0
VERTEX
  8
0
  5
215D
 10
-1.25153
 20
5.00000
 30
-2.59843e-16
  70
    32
  0
VERTEX
  8
0
  5
215E
 10
-1.27427
 20
5.00000
 30
-2.64567e-16
  70
    32
  0
VERTEX
  8
0
  5
215F
 10
-1.29700
 20
5.00000
 30
-2.69291e-16
  70
    32
  0
VERTEX
  8
0
  5
2160
 10
-1.31973
 20
5.00000
 30
-2.74016e-16
  70
    32
  0
VERTEX
  8
0
  5
2161
 10
-1.34247
 20
5.00000
 30
-2.78740e-16
  70
    32
  0
VERTEX
  8
0
  5
2162
 10
-1.36520
 20
5.00000
 30
-2.83465e-16
  70
    32
  0
VERTEX
  8
0
  5
2163
 10
-1.38793
 20
5.00000
 30
-2.88189e-16
  70
    32
  0
VERTEX
  8
0
  5
2164
 10
-1.41066
 20
5.00000
 30
-2.92913e-16
  70
    32
  0
VERTEX
  8
0
  5
2165
 10
-1.43339
 20
5.00000
 30
-2.97638e-16
  70
    32
  0
VERTEX
  8
0
  5
2166
 10
-1.45612
 20
5.00000
 30
-3.02362e-16
  70
    32
  0
VERTEX
  8
0
  5
2167
 10
-1.47885
 20
5.00000
 30
-3.07087e-16
  70
    32
  0
VERTEX
  8
0
  5
2168
 10
-1.50157
 20
5.00000
 30
-3.11811e-16
  70
    32
  0
VERTEX
  8
0
  5
2169
 10
-1.52430
 20
5.00000
 30
-3.16535e-16
  70
    32
  0
VERTEX
  8
0
  5
216A
 10
-1.54703
 20
5.00000
 30
-3.21260e-16
  70
    32
  0
VERTEX
  8
0
  5
216B
 10
-1.56975
 20
5.00000
 30
-3.25984e-16
  70
    32
  0
VERTEX
  8
0
  5
216C
 10
-1.59248
 20
5.00000
 30
-3.30709e-16
  70
    32
  0
VERTEX
  8
0
  5
216D
 10
-1.61520
 20
5.00000
 30
-3.35433e-16
  70
    32
  0
VERTEX
  8
0
  5
216E
 10
-1.63792
 20
5.00000
 30
-3.40157e-16
  70
    32
  0
VERTEX
  8
0
  5
216F
 10
-1.66065
 20
5.00000
 30
-3.44882e-16
  70
    32
  0
VERTEX
  8
0
  5
2170
 10
-1.68337
 20
5.00000
 30
-3.49606e-16
  70
    32
  0
VERTEX
  8
0
  5
2171
 10
-1.70609
 20
5.00000
 30
-3.54331e-16
  70
    32
  0
VERTEX
  8
0
  5
2172
 10
-1.72881
 20
5.00000
 30
-3.59055e-16
  70
    32
  0
VERTEX
  8
0
  5
2173
 10
-1.75153
 20
5.00000
 30
-3.63780e-16
  70
    32
  0
VERTEX
  8
0
  5
2174
 10
-1.77425
 20
5.00000
 30
-3.68504e-16
  70
    32
  0
VERTEX
  8
0
  5
2175
 10
-1.79697
 20
5.00000
 30
-3.73228e-16
  70
    32
  0
VERTEX
  8
0
  5
2176
 10
-1.81969
 20
5.00000
 30
-3.77953e-16
  70
    32
  0
VERTEX
  8
0
  5
2177
 10
-1.84240
 20
5.00000
 30
-3.82677e-16
  70
    32
  0
VERTEX
  8
0
  5
2178
 10
-1.86512
 20
5.00000
 30
-3.87402e-16
  70
    32
  0
VERTEX
  8
0
  5
2179
 10
-1.88784
 20
5.00000
 30
-3.92126e-16
  70
    32
  0
VERTEX
  8
0
  5
217A
 10
-1.91055
 20
5.00000
 30
-3.96850e-16
  70
    32
  0
VERTEX
  8
0
  5
217B
 10
-1.93327
 20
5.00000
 30
-4.01575e-16
  70
    32
  0
VERTEX
  8
0
  5
217C
 10
-1.95598
 20
5.00000
 30
-4.06299e-16
  70
    32
  0
VERTEX
  8
0
  5
217D
 10
-1.97869
 20
5.00000
 30
-4.11024e-16
  70
    32
  0
VERTEX
  8
0
  5
217E
 10
-2.00141
 20
5.00000
 30
-4.15748e-16
  70
    32
  0
VERTEX
  8
0
  5
217F
 10
-2.02412
 20
5.00000
 30
-4.20472e-16
  70
    32
  0
VERTEX
  8
0
  5
2180
 10
-2.04683
 20
5.00000
 30
-4.25197e-16
  70
    32
  0
VERTEX
  8
0
  5
2181
 10
-2.06954
 20
5.00000
 30
-4.29921e-16
  70
    32
  0
VERTEX
  8
0
  5
2182
 10
-2.09225
 20
5.00000
 30
-4.34646e-16
  70
    32
  0
VERTEX
  8
0
  5
2183
 10
-2.11496
 20
5.00000
 30
-4.39370e-16
  70
    32
  0
VERTEX
  8
0
  5
2184
 10
-2.13767
 20
5.00000
 30
-4.44094e-16
  70
    32
  0
VERTEX
  8
0
  5
2185
 10
-2.16038
 20
5.00000
 30
-4.48819e-16
  70
    32
  0
VERTEX
  8
0
  5
2186
 10
-2.18309
 20
5.00000
 30
-4.53543e-16
  70
    32
  0
VERTEX
  8
0
  5
2187
 10
-2.20580
 20
5.00000
 30
-4.58268e-16
  70
    32
  0
VERTEX
  8
0
  5
2188
 10
-2.22850
 20
5.00000
 30
-4.62992e-16
  70
    32
  0
VERTEX
  8
0
  5
2189
 10
-2.25121
 20
5.00000
 30
-4.67717e-16
  70
    32
  0
VERTEX
  8
0
  5
218A
 10
-2.27392
 20
5.00000
 30
-4.72441e-16
  70
    32
  0
VERTEX
  8
0
  5
218B
 10
-2.29662
 20
5.00000
 30
-4.77165e-16
  70
    32
  0
VERTEX
  8
0
  5
218C
 10
-2.31933
 20
5.00000
 30
-4.81890e-16
  70
    32
  0
VERTEX
  8
0
  5
218D
 10
-2.34203
 20
5.00000
 30
-4.86614e-16
  70
    32
  0
VERTEX
  8
0
  5
218E
 10
-2.36473
 20
5.00000
 30
-4.91339e-16
  70
    32
  0
VERTEX
  8
0
  5
218F
 10
-2.38744
 20
5.00000
 30
-4.96063e-16
  70
    32
  0
VERTEX
  8
0
  5
2190
 10
-2.41014
 20
5.00000
 30
-5.00787e-16
  70
    32
  0
VERTEX
  8
0
  5
2191
 10
-2.43284
 20
5.00000
 30
-5.05512e-16
  70
    32
  0
VERTEX
  8
0
  5
2192
 10
-2.45554
 20
5.00000
 30
-5.10236e-16
  70
    32
  0
VERTEX
  8
0
  5
2193
 10
-2.47824
 20
5.00000
 30
-5.14961e-16
  70
    32
  0
VERTEX
  8
0
  5
2194
 10
-2.50094
 20
5.00000
 30
-5.19685e-16
  70
    32
  0
VERTEX
  8
0
  5
2195
 10
-2.52364
 20
5.00000
 30
-5.24409e-16
  70
    32
  0
VERTEX
  8
0
  5
2196
 10
-2.54634
 20
5.00000
 30
-5.29134e-16
  70
    32
  0
VERTEX
  8
0
  5
2197
 10
-2.56904
 20
5.00000
 30
-5.33858e-16
  70
    32
  0
VERTEX
  8
0
  5
2198
 10
-2.59173
 20
5.00000
 30
-5.38583e-16
  70
    32
  0
VERTEX
  8
0
  5
2199
 10
-2.61443
 20
5.00000
 30
-5.43307e-16
  70
    32
  0
VERTEX
  8
0
  5
219A
 10
-2.63713
 20
5.00000
 30
-5.48031e-16
  70
    32
  0
VERTEX
  8
0
  5
219B
 10
-2.65982
 20
5.00000
 30
-5.52756e-16
  70
    32
  0
VERTEX
  8
0
  5
219C
 10
-2.68252
 20
5.00000
 30
-5.57480e-16
  70
    32
  0
VERTEX
  8
0
  5
219D
 10
-2.70521
 20
5.00000
 30
-5.62205e-16
  70
    32
  0
VERTEX
  8
0
  5
219E
 10
-2.72791
 20
5.00000
 30
-5.66929e-16
  70
    32
  0
VERTEX
  8
0
  5
219F
 10
-2.75060
 20
5.00000
 30
-5.71654e-16
  70
    32
  0
VERTEX
  8
0
  5
21A0
 10
-2.77329
 20
5.00000
 30
-5.76378e-16
  70
    32
  0
VERTEX
  8
0
  5
21A1
 10
-2.79599
 20
5.00000
 30
-5.81102e-16
  70
    32
  0
VERTEX
  8
0
  5
21A2
 10
-2.81868
 20
5.00000
 30
-5.85827e-16
  70
    32
  0
VERTEX
  8
0
  5
21A3
 10
-2.84137
 20
5.00000
 30
-5.90551e-16
  70
    32
  0
VERTEX
  8
0
  5
21A4
 10
-2.86406
 20
5.00000
 30
-5.95276e-16
  70
    32
  0
VERTEX
  8
0
  5
21A5
 10
-2.88675
 20
5.00000
 30
-6.00000e-16
  70
    32
  0
SEQEND
  8
0
  5
21A6
  0
ARC
  5
1B43
  8
0
  6
CONTINUOUS
 62
     3
 10
0.0000000000000018
 20
-0.0000000000000027
 30
0.0
 40
5.0000000000000231
 50
90.0
 51
150.0
  0
ARC
  5
1B44
  8
0
  6
CONTINUOUS
 62
     3
 10
0.000000000000005
 20
-0.0000000000000093
 30
0.0
 40
5.000000000000016
 50
269.9999999999998863
 51
330.0000000000001137
  0
ARC
  5
1B45
  8
0
  6
CONTINUOUS
 62
     3
 10
0.0000000000000027
 20
-0.0000000000000031
 30
0.0
 40
5.0000000000000231
 50
330.0
 51
29.9999999999999716
  0
ARC
  5
1B46
  8
0
  6
CONTINUOUS
 62
     3
 10
0.0000000000000041
 20
0.0000000000000013
 30
0.0
 40
5.0000000000000187
 50
29.9999999999999396
 51
90.0000000000000284
  0
CIRCLE
  5
1B47
  8
0
  6
CONTINUOUS
 62
     3
 10
0.0000000000000022
 20
-0.0000000000000031
 30
0.0
 40
3.0
  0
POLYLINE
  8
0
  5
21A7
  62
3
  66
     1
 10
0.000000
 20
0.000000
 30
0.000000
  70
     8
  0
VERTEX
  8
0
  5
21A8
 10
2.88675
 20
5.00000
 30
6.00000e-16
  70
    32
  0
VERTEX
  8
0
  5
21A9
 10
2.87168
 20
5.00000
 30
5.96859e-16
  70
    32
  0
VERTEX
  8
0
  5
21AA
 10
2.85661
 20
5.00000
 30
5.93717e-16
  70
    32
  0
VERTEX
  8
0
  5
21AB
 10
2.84154
 20
5.00000
 30
5.90576e-16
  70
    32
  0
VERTEX
  8
0
  5
21AC
 10
2.82646
 20
5.00000
 30
5.87435e-16
  70
    32
  0
VERTEX
  8
0
  5
21AD
 10
2.81138
 20
5.00000
 30
5.84293e-16
  70
    32
  0
VERTEX
  8
0
  5
21AE
 10
2.79631
 20
5.00000
 30
5.81152e-16
  70
    32
  0
VERTEX
  8
0
  5
21AF
 10
2.78123
 20
5.00000
 30
5.78010e-16
  70
    32
  0
VERTEX
  8
0
  5
21B0
 10
2.76614
 20
5.00000
 30
5.74869e-16
  70
    32
  0
VERTEX
  8
0
  5
21B1
 10
2.75106
 20
5.00000
 30
5.71728e-16
  70
    32
  0
VERTEX
  8
0
  5
21B2
 10
2.73597
 20
5.00000
 30
5.68586e-16
  70
    32
  0
VERTEX
  8
0
  5
21B3
 10
2.72089
 20
5.00000
 30
5.65445e-16
  70
    32
  0
VERTEX
  8
0
  5
21B4
 10
2.70580
 20
5.00000
 30
5.62304e-16
  70
    32
  0
VERTEX
  8
0
  5
21B5
 10
2.69071
 20
5.00000
 30
5.59162e-16
  70
    32
  0
VERTEX
  8
0
  5
21B6
 10
2.67561
 20
5.00000
 30
5.56021e-16
  70
    32
  0
VERTEX
  8
0
  5
21B7
 10
2.66052
 20
5.00000
 30
5.52880e-16
  70
    32
  0
VERTEX
  8
0
  5
21B8
 10
2.64543
 20
5.00000
 30
5.49738e-16
  70
    32
  0
VERTEX
  8
0
  5
21B9
 10
2.63033
 20
5.00000
 30
5.46597e-16
  70
    32
  0
VERTEX
  8
0
  5
21BA
 10
2.61523
 20
5.00000
 30
5.43455e-16
  70
    32
  0
VERTEX
  8
0
  5
21BB
 10
2.60013
 20
5.00000
 30
5.40314e-16
  70
    32
  0
VERTEX
  8
0
  5
21BC
 10
2.58503
 20
5.00000
 30
5.37173e-16
  70
    32
  0
VERTEX
  8
0
  5
21BD
 10
2.56993
 20
5.00000
 30
5.34031e-16
  70
    32
  0
VERTEX
  8
0
  5
21BE
 10
2.55482
 20
5.00000
 30
5.30890e-16
  70
    32
  0
VERTEX
  8
0
  5
21BF
 10
2.53972
 20
5.00000
 30
5.27749e-16
  70
    32
  0
VERTEX
  8
0
  5
21C0
 10
2.52461
 20
5.00000
 30
5.24607e-16
  70
    32
  0
VERTEX
  8
0
  5
21C1
 10
2.50951
 20
5.00000
 30
5.21466e-16
  70
    32
  0
VERTEX
  8
0
  5
21C2
 10
2.49440
 20
5.00000
 30
5.18325e-16
  70
    32
  0
VERTEX
  8
0
  5
21C3
 10
2.47929
 20
5.00000
 30
5.15183e-16
  70
    32
  0
VERTEX
  8
0
  5
21C4
 10
2.46418
 20
5.00000
 30
5.12042e-16
  70
    32
  0
VERTEX
  8
0
  5
21C5
 10
2.44906
 20
5.00000
 30
5.08901e-16
  70
    32
  0
VERTEX
  8
0
  5
21C6
 10
2.43395
 20
5.00000
 30
5.05759e-16
  70
    32
  0
VERTEX
  8
0
  5
21C7
 10
2.41884
 20
5.00000
 30
5.02618e-16
  70
    32
  0
VERTEX
  8
0
  5
21C8
 10
2.40372
 20
5.00000
 30
4.99476e-16
  70
    32
  0
VERTEX
  8
0
  5
21C9
 10
2.38860
 20
5.00000
 30
4.96335e-16
  70
    32
  0
VERTEX
  8
0
  5
21CA
 10
2.37349
 20
5.00000
 30
4.93194e-16
  70
    32
  0
VERTEX
  8
0
  5
21CB
 10
2.35837
 20
5.00000
 30
4.90052e-16
  70
    32
  0
VERTEX
  8
0
  5
21CC
 10
2.34325
 20
5.00000
 30
4.86911e-16
  70
    32
  0
VERTEX
  8
0
  5
21CD
 10
2.32813
 20
5.00000
 30
4.83770e-16
  70
    32
  0
VERTEX
  8
0
  5
21CE
 10
2.31301
 20
5.00000
 30
4.80628e-16
  70
    32
  0
VERTEX
  8
0
  5
21CF
 10
2.29788
 20
5.00000
 30
4.77487e-16
  70
    32
  0
VERTEX
  8
0
  5
21D0
 10
2.28276
 20
5.00000
 30
4.74346e-16
  70
    32
  0
VERTEX
  8
0
  5
21D1
 10
2.26764
 20
5.00000
 30
4.71204e-16
  70
    32
  0
VERTEX
  8
0
  5
21D2
 10
2.25251
 20
5.00000
 30
4.68063e-16
  70
    32
  0
VERTEX
  8
0
  5
21D3
 10
2.23739
 20
5.00000
 30
4.64921e-16
  70
    32
  0
VERTEX
  8
0
  5
21D4
 10
2.22226
 20
5.00000
 30
4.61780e-16
  70
    32
  0
VERTEX
  8
0
  5
21D5
 10
2.20713
 20
5.00000
 30
4.58639e-16
  70
    32
  0
VERTEX
  8
0
  5
21D6
 10
2.19201
 20
5.00000
 30
4.55497e-16
  70
    32
  0
VERTEX
  8
0
  5
21D7
 10
2.17688
 20
5.00000
 30
4.52356e-16
  70
    32
  0
VERTEX
  8
0
  5
21D8
 10
2.16175
 20
5.00000
 30
4.49215e-16
  70
    32
  0
VERTEX
  8
0
  5
21D9
 10
2.14662
 20
5.00000
 30
4.46073e-16
  70
    32
  0
VERTEX
  8
0
  5
21DA
 10
2.13149
 20
5.00000
 30
4.42932e-16
  70
    32
  0
VERTEX
  8
0
  5
21DB
 10
2.11636
 20
5.00000
 30
4.39791e-16
  70
    32
  0
VERTEX
  8
0
  5
21DC
 10
2.10123
 20
5.00000
 30
4.36649e-16
  70
    32
  0
VERTEX
  8
0
  5
21DD
 10
2.08610
 20
5.00000
 30
4.33508e-16
  70
    32
  0
VERTEX
  8
0
  5
21DE
 10
2.07096
 20
5.00000
 30
4.30366e-16
  70
    32
  0
VERTEX
  8
0
  5
21DF
 10
2.05583
 20
5.00000
 30
4.27225e-16
  70
    32
  0
VERTEX
  8
0
  5
21E0
 10
2.04070
 20
5.00000
 30
4.24084e-16
  70
    32
  0
VERTEX
  8
0
  5
21E1
 10
2.02557
 20
5.00000
 30
4.20942e-16
  70
    32
  0
VERTEX
  8
0
  5
21E2
 10
2.01043
 20
5.00000
 30
4.17801e-16
  70
    32
  0
VERTEX
  8
0
  5
21E3
 10
1.99530
 20
5.00000
 30
4.14660e-16
  70
    32
  0
VERTEX
  8
0
  5
21E4
 10
1.98017
 20
5.00000
 30
4.11518e-16
  70
    32
  0
VERTEX
  8
0
  5
21E5
 10
1.96503
 20
5.00000
 30
4.08377e-16
  70
    32
  0
VERTEX
  8
0
  5
21E6
 10
1.94990
 20
5.00000
 30
4.05236e-16
  70
    32
  0
VERTEX
  8
0
  5
21E7
 10
1.93476
 20
5.00000
 30
4.02094e-16
  70
    32
  0
VERTEX
  8
0
  5
21E8
 10
1.91963
 20
5.00000
 30
3.98953e-16
  70
    32
  0
VERTEX
  8
0
  5
21E9
 10
1.90449
 20
5.00000
 30
3.95812e-16
  70
    32
  0
VERTEX
  8
0
  5
21EA
 10
1.88936
 20
5.00000
 30
3.92670e-16
  70
    32
  0
VERTEX
  8
0
  5
21EB
 10
1.87422
 20
5.00000
 30
3.89529e-16
  70
    32
  0
VERTEX
  8
0
  5
21EC
 10
1.85909
 20
5.00000
 30
3.86387e-16
  70
    32
  0
VERTEX
  8
0
  5
21ED
 10
1.84395
 20
5.00000
 30
3.83246e-16
  70
    32
  0
VERTEX
  8
0
  5
21EE
 10
1.82882
 20
5.00000
 30
3.80105e-16
  70
    32
  0
VERTEX
  8
0
  5
21EF
 10
1.81368
 20
5.00000
 30
3.76963e-16
  70
    32
  0
VERTEX
  8
0
  5
21F0
 10
1.79855
 20
5.00000
 30
3.73822e-16
  70
    32
  0
VERTEX
  8
0
  5
21F1
 10
1.78341
 20
5.00000
 30
3.70681e-16
  70
    32
  0
VERTEX
  8
0
  5
21F2
 10
1.76828
 20
5.00000
 30
3.67539e-16
  70
    32
  0
VERTEX
  8
0
  5
21F3
 10
1.75314
 20
5.00000
 30
3.64398e-16
  70
    32
  0
VERTEX
  8
0
  5
21F4
 10
1.73801
 20
5.00000
 30
3.61257e-16
  70
    32
  0
VERTEX
  8
0
  5
21F5
 10
1.72287
 20
5.00000
 30
3.58115e-16
  70
    32
  0
VERTEX
  8
0
  5
21F6
 10
1.70774
 20
5.00000
 30
3.54974e-16
  70
    32
  0
VERTEX
  8
0
  5
21F7
 10
1.69261
 20
5.00000
 30
3.51832e-16
  70
    32
  0
VERTEX
  8
0
  5
21F8
 10
1.67747
 20
5.00000
 30
3.48691e-16
  70
    32
  0
VERTEX
  8
0
  5
21F9
 10
1.66234
 20
5.00000
 30
3.45550e-16
  70
    32
  0
VERTEX
  8
0
  5
21FA
 10
1.64721
 20
5.00000
 30
3.42408e-16
  70
    32
  0
VERTEX
  8
0
  5
21FB
 10
1.63207
 20
5.00000
 30
3.39267e-16
  70
    32
  0
VERTEX
  8
0
  5
21FC
 10
1.61694
 20
5.00000
 30
3.36126e-16
  70
    32
  0
VERTEX
  8
0
  5
21FD
 10
1.60181
 20
5.00000
 30
3.32984e-16
  70
    32
  0
VERTEX
  8
0
  5
21FE
 10
1.58668
 20
5.00000
 30
3.29843e-16
  70
    32
  0
VERTEX
  8
0
  5
21FF
 10
1.57155
 20
5.00000
 30
3.26702e-16
  70
    32
  0
VERTEX
  8
0
  5
2200
 10
1.55642
 20
5.00000
 30
3.23560e-16
  70
    32
  0
VERTEX
  8
0
  5
2201
 10
1.54129
 20
5.00000
 30
3.20419e-16
  70
    32
  0
VERTEX
  8
0
  5
2202
 10
1.52616
 20
5.00000
 30
3.17277e-16
  70
    32
  0
VERTEX
  8
0
  5
2203
 10
1.51103
 20
5.00000
 30
3.14136e-16
  70
    32
  0
VERTEX
  8
0
  5
2204
 10
1.49590
 20
5.00000
 30
3.10995e-16
  70
    32
  0
VERTEX
  8
0
  5
2205
 10
1.48077
 20
5.00000
 30
3.07853e-16
  70
    32
  0
VERTEX
  8
0
  5
2206
 10
1.46565
 20
5.00000
 30
3.04712e-16
  70
    32
  0
VERTEX
  8
0
  5
2207
 10
1.45052
 20
5.00000
 30
3.01571e-16
  70
    32
  0
VERTEX
  8
0
  5
2208
 10
1.43540
 20
5.00000
 30
2.98429e-16
  70
    32
  0
VERTEX
  8
0
  5
2209
 10
1.42027
 20
5.00000
 30
2.95288e-16
  70
    32
  0
VERTEX
  8
0
  5
220A
 10
1.40515
 20
5.00000
 30
2.92147e-16
  70
    32
  0
VERTEX
  8
0
  5
220B
 10
1.39002
 20
5.00000
 30
2.89005e-16
  70
    32
  0
VERTEX
  8
0
  5
220C
 10
1.37490
 20
5.00000
 30
2.85864e-16
  70
    32
  0
VERTEX
  8
0
  5
220D
 10
1.35977
 20
5.00000
 30
2.82723e-16
  70
    32
  0
VERTEX
  8
0
  5
220E
 10
1.34465
 20
5.00000
 30
2.79581e-16
  70
    32
  0
VERTEX
  8
0
  5
220F
 10
1.32953
 20
5.00000
 30
2.76440e-16
  70
    32
  0
VERTEX
  8
0
  5
2210
 10
1.31441
 20
5.00000
 30
2.73298e-16
  70
    32
  0
VERTEX
  8
0
  5
2211
 10
1.29928
 20
5.00000
 30
2.70157e-16
  70
    32
  0
VERTEX
  8
0
  5
2212
 10
1.28416
 20
5.00000
 30
2.67016e-16
  70
    32
  0
VERTEX
  8
0
  5
2213
 10
1.26904
 20
5.00000
 30
2.63874e-16
  70
    32
  0
VERTEX
  8
0
  5
2214
 10
1.25392
 20
5.00000
 30
2.60733e-16
  70
    32
  0
VERTEX
  8
0
  5
2215
 10
1.23880
 20
5.00000
 30
2.57592e-16
  70
    32
  0
VERTEX
  8
0
  5
2216
 10
1.22368
 20
5.00000
 30
2.54450e-16
  70
    32
  0
VERTEX
  8
0
  5
2217
 10
1.20856
 20
5.00000
 30
2.51309e-16
  70
    32
  0
VERTEX
  8
0
  5
2218
 10
1.19344
 20
5.00000
 30
2.48168e-16
  70
    32
  0
VERTEX
  8
0
  5
2219
 10
1.17832
 20
5.00000
 30
2.45026e-16
  70
    32
  0
VERTEX
  8
0
  5
221A
 10
1.16320
 20
5.00000
 30
2.41885e-16
  70
    32
  0
VERTEX
  8
0
  5
221B
 10
1.14808
 20
5.00000
 30
2.38743e-16
  70
    32
  0
VERTEX
  8
0
  5
221C
 10
1.13296
 20
5.00000
 30
2.35602e-16
  70
    32
  0
VERTEX
  8
0
  5
221D
 10
1.11784
 20
5.00000
 30
2.32461e-16
  70
    32
  0
VERTEX
  8
0
  5
221E
 10
1.10272
 20
5.00000
 30
2.29319e-16
  70
    32
  0
VERTEX
  8
0
  5
221F
 10
1.08760
 20
5.00000
 30
2.26178e-16
  70
    32
  0
VERTEX
  8
0
  5
2220
 10
1.07249
 20
5.00000
 30
2.23037e-16
  70
    32
  0
VERTEX
  8
0
  5
2221
 10
1.05737
 20
5.00000
 30
2.19895e-16
  70
    32
  0
VERTEX
  8
0
  5
2222
 10
1.04225
 20
5.00000
 30
2.16754e-16
  70
    32
  0
VERTEX
  8
0
  5
2223
 10
1.02714
 20
5.00000
 30
2.13613e-16
  70
    32
  0
VERTEX
  8
0
  5
2224
 10
1.01202
 20
5.00000
 30
2.10471e-16
  70
    32
  0
VERTEX
  8
0
  5
2225
 10
0.996903
 20
5.00000
 30
2.07330e-16
  70
    32
  0
VERTEX
  8
0
  5
2226
 10
0.981788
 20
5.00000
 30
2.04188e-16
  70
    32
  0
VERTEX
  8
0
  5
2227
 10
0.966673
 20
5.00000
 30
2.01047e-16
  70
    32
  0
VERTEX
  8
0
  5
2228
 10
0.951558
 20
5.00000
 30
1.97906e-16
  70
    32
  0
VERTEX
  8
0
  5
2229
 10
0.936443
 20
5.00000
 30
1.94764e-16
  70
    32
  0
VERTEX
  8
0
  5
222A
 10
0.921329
 20
5.00000
 30
1.91623e-16
  70
    32
  0
VERTEX
  8
0
  5
222B
 10
0.906215
 20
5.00000
 30
1.88482e-16
  70
    32
  0
VERTEX
  8
0
  5
222C
 10
0.891101
 20
5.00000
 30
1.85340e-16
  70
    32
  0
VERTEX
  8
0
  5
222D
 10
0.875988
 20
5.00000
 30
1.82199e-16
  70
    32
  0
VERTEX
  8
0
  5
222E
 10
0.860875
 20
5.00000
 30
1.79058e-16
  70
    32
  0
VERTEX
  8
0
  5
222F
 10
0.845763
 20
5.00000
 30
1.75916e-16
  70
    32
  0
VERTEX
  8
0
  5
2230
 10
0.830650
 20
5.00000
 30
1.72775e-16
  70
    32
  0
VERTEX
  8
0
  5
2231
 10
0.815538
 20
5.00000
 30
1.69634e-16
  70
    32
  0
VERTEX
  8
0
  5
2232
 10
0.800427
 20
5.00000
 30
1.66492e-16
  70
    32
  0
VERTEX
  8
0
  5
2233
 10
0.785316
 20
5.00000
 30
1.63351e-16
  70
    32
  0
VERTEX
  8
0
  5
2234
 10
0.770205
 20
5.00000
 30
1.60209e-16
  70
    32
  0
VERTEX
  8
0
  5
2235
 10
0.755094
 20
5.00000
 30
1.57068e-16
  70
    32
  0
VERTEX
  8
0
  5
2236
 10
0.739984
 20
5.00000
 30
1.53927e-16
  70
    32
  0
VERTEX
  8
0
  5
2237
 10
0.724874
 20
5.00000
 30
1.50785e-16
  70
    32
  0
VERTEX
  8
0
  5
2238
 10
0.709764
 20
5.00000
 30
1.47644e-16
  70
    32
  0
VERTEX
  8
0
  5
2239
 10
0.694655
 20
5.00000
 30
1.44503e-16
  70
    32
  0
VERTEX
  8
0
  5
223A
 10
0.679546
 20
5.00000
 30
1.41361e-16
  70
    32
  0
VERTEX
  8
0
  5
223B
 10
0.664438
 20
5.00000
 30
1.38220e-16
  70
    32
  0
VERTEX
  8
0
  5
223C
 10
0.649329
 20
5.00000
 30
1.35079e-16
  70
    32
  0
VERTEX
  8
0
  5
223D
 10
0.634221
 20
5.00000
 30
1.31937e-16
  70
    32
  0
VERTEX
  8
0
  5
223E
 10
0.619114
 20
5.00000
 30
1.28796e-16
  70
    32
  0
VERTEX
  8
0
  5
223F
 10
0.604007
 20
5.00000
 30
1.25654e-16
  70
    32
  0
VERTEX
  8
0
  5
2240
 10
0.588900
 20
5.00000
 30
1.22513e-16
  70
    32
  0
VERTEX
  8
0
  5
2241
 10
0.573793
 20
5.00000
 30
1.19372e-16
  70
    32
  0
VERTEX
  8
0
  5
2242
 10
0.558687
 20
5.00000
 30
1.16230e-16
  70
    32
  0
VERTEX
  8
0
  5
2243
 10
0.543581
 20
5.00000
 30
1.13089e-16
  70
    32
  0
VERTEX
  8
0
  5
2244
 10
0.528476
 20
5.00000
 30
1.09948e-16
  70
    32
  0
VERTEX
  8
0
  5
2245
 10
0.513371
 20
5.00000
 30
1.06806e-16
  70
    32
  0
VERTEX
  8
0
  5
2246
 10
0.498266
 20
5.00000
 30
1.03665e-16
  70
    32
  0
VERTEX
  8
0
  5
2247
 10
0.483161
 20
5.00000
 30
1.00524e-16
  70
    32
  0
VERTEX
  8
0
  5
2248
 10
0.468057
 20
5.00000
 30
9.73822e-17
  70
    32
  0
VERTEX
  8
0
  5
2249
 10
0.452953
 20
5.00000
 30
9.42408e-17
  70
    32
  0
VERTEX
  8
0
  5
224A
 10
0.437850
 20
5.00000
 30
9.10995e-17
  70
    32
  0
VERTEX
  8
0
  5
224B
 10
0.422747
 20
5.00000
 30
8.79581e-17
  70
    32
  0
VERTEX
  8
0
  5
224C
 10
0.407644
 20
5.00000
 30
8.48168e-17
  70
    32
  0
VERTEX
  8
0
  5
224D
 10
0.392541
 20
5.00000
 30
8.16754e-17
  70
    32
  0
VERTEX
  8
0
  5
224E
 10
0.377439
 20
5.00000
 30
7.85340e-17
  70
    32
  0
VERTEX
  8
0
  5
224F
 10
0.362338
 20
5.00000
 30
7.53927e-17
  70
    32
  0
VERTEX
  8
0
  5
2250
 10
0.347236
 20
5.00000
 30
7.22513e-17
  70
    32
  0
VERTEX
  8
0
  5
2251
 10
0.332135
 20
5.00000
 30
6.91099e-17
  70
    32
  0
VERTEX
  8
0
  5
2252
 10
0.317034
 20
5.00000
 30
6.59686e-17
  70
    32
  0
VERTEX
  8
0
  5
2253
 10
0.301934
 20
5.00000
 30
6.28272e-17
  70
    32
  0
VERTEX
  8
0
  5
2254
 10
0.286834
 20
5.00000
 30
5.96859e-17
  70
    32
  0
VERTEX
  8
0
  5
2255
 10
0.271734
 20
5.00000
 30
5.65445e-17
  70
    32
  0
VERTEX
  8
0
  5
2256
 10
0.256635
 20
5.00000
 30
5.34031e-17
  70
    32
  0
VERTEX
  8
0
  5
2257
 10
0.241536
 20
5.00000
 30
5.02618e-17
  70
    32
  0
VERTEX
  8
0
  5
2258
 10
0.226437
 20
5.00000
 30
4.71204e-17
  70
    32
  0
VERTEX
  8
0
  5
2259
 10
0.211339
 20
5.00000
 30
4.39791e-17
  70
    32
  0
VERTEX
  8
0
  5
225A
 10
0.196241
 20
5.00000
 30
4.08377e-17
  70
    32
  0
VERTEX
  8
0
  5
225B
 10
0.181144
 20
5.00000
 30
3.76963e-17
  70
    32
  0
VERTEX
  8
0
  5
225C
 10
0.166046
 20
5.00000
 30
3.45550e-17
  70
    32
  0
VERTEX
  8
0
  5
225D
 10
0.150949
 20
5.00000
 30
3.14136e-17
  70
    32
  0
VERTEX
  8
0
  5
225E
 10
0.135853
 20
5.00000
 30
2.82723e-17
  70
    32
  0
VERTEX
  8
0
  5
225F
 10
0.120757
 20
5.00000
 30
2.51309e-17
  70
    32
  0
VERTEX
  8
0
  5
2260
 10
0.105661
 20
5.00000
 30
2.19895e-17
  70
    32
  0
VERTEX
  8
0
  5
2261
 10
0.0905654
 20
5.00000
 30
1.88482e-17
  70
    32
  0
VERTEX
  8
0
  5
2262
 10
0.0754703
 20
5.00000
 30
1.57068e-17
  70
    32
  0
VERTEX
  8
0
  5
2263
 10
0.0603756
 20
5.00000
 30
1.25654e-17
  70
    32
  0
VERTEX
  8
0
  5
2264
 10
0.0452811
 20
5.00000
 30
9.42409e-18
  70
    32
  0
VERTEX
  8
0
  5
2265
 10
0.0301871
 20
5.00000
 30
6.28272e-18
  70
    32
  0
VERTEX
  8
0
  5
2266
 10
0.0150934
 20
5.00000
 30
3.14136e-18
  70
    32
  0
VERTEX
  8
0
  5
2267
 10
9.93794e-09
 20
5.00000
 30
2.06839e-24
  70
    32
  0
SEQEND
  8
0
  5
2268
  0
CIRCLE
  5
1B49
  8
0
  6
CONTINUOUS
 62
     3
 10
-0.000000000000001
 20
-0.0000000000000036
 30
0.0
 40
7.1000000000000014
  0
CIRCLE
  5
1B4A
  8
0
  6
CONTINUOUS
 62
     3
 10
-0.0000000000000036
 20
-0.0000000000000178
 30
0.0
 40
33.4226092978046907
  0
LINE
  5
1B4B
  8
0
  6
CONTINUOUS
 62
     3
 10
-0.4600722728365574
 20
23.1806165260470713
 30
0.0
 11
1.45584513733206
 21
23.180616526047011
 31
0.0000000000000004
  0
ARC
  5
1B4C
  8
0
  6
CONTINUOUS
 62
     3
 10
1.45584513733206
 20
22.6260088546824711
 30
0.0
 40
0.5546076713645505
 50
270.0
 51
90.0
  0
LINE
  5
1B4D
  8
0
  6
CONTINUOUS
 62
     3
 10
1.45584513733206
 20
22.0714011833178887
 30
0.0
 11
-0.4600722728365573
 21
22.0714011833178603
 31
-0.0000000000000004
  0
LINE
  5
1B4E
  8
0
  6
CONTINUOUS
 62
     3
 10
-0.4600722728364437
 20
22.0714011833178887
 30
0.0
 11
-0.4600722728364437
 21
23.1806165260470713
 31
0.0
  0
CIRCLE
  5
1B4F
  8
0
  6
CONTINUOUS
 62
     3
 10
7.7077861599873332
 20
20.9999999999999787
 30
0.0
 40
2.1806165260470598
  0
CIRCLE
  5
1B50
  8
0
  6
CONTINUOUS
 62
     3
 10
-5.4011224359027228
 20
20.9999999999999787
 30
0.0
 40
2.1806165260470598
  0
ARC
  5
1B51
  8
0
  6
CONTINUOUS
 62
     3
 10
3.741843298677165
 20
18.6933362759155912
 30
0.0
 40
1.487356936841407
 50
190.0000000000046896
 51
270.0
  0
LINE
  5
1B52
  8
0
  6
CONTINUOUS
 62
     3
 10
2.003942012136688
 20
20.1038553203252484
 30
0.0
 11
2.2770826557792789
 21
18.4350594542926913
 31
0.0000000000000001
  0
ARC
  5
1B53
  8
0
  6
CONTINUOUS
 62
     3
 10
1.581892335369387
 20
20.0294365751117986
 30
0.0
 40
0.428560473327309
 50
10.0000000000115801
 51
89.9999999999848086
  0
LINE
  5
1B54
  8
0
  6
CONTINUOUS
 62
     3
 10
-0.4600722728365574
 20
20.4579970484391112
 30
0.0
 11
1.5818923353695
 21
20.4579970484391112
 31
0.0000000000000005
  0
LINE
  5
1B55
  8
0
  6
CONTINUOUS
 62
     3
 10
-0.4600722728364437
 20
18.0126814065134901
 30
0.0
 11
-0.4600722728365574
 21
20.4579970484391112
 31
0.0
  0
ARC
  5
1B56
  8
0
  6
CONTINUOUS
 62
     3
 10
-1.2667743402757889
 20
18.0126814065134297
 30
0.0
 40
0.8067020674394598
 50
179.9999999999959073
 51
359.9999999999959073
  0
LINE
  5
1B57
  8
0
  6
CONTINUOUS
 62
     3
 10
-2.0734764077151349
 20
19.1775388381037502
 30
0.0
 11
-2.073476407715249
 21
18.0126814065134901
 31
0.0
  0
ARC
  5
1B58
  8
0
  6
CONTINUOUS
 62
     3
 10
-5.401122435902951
 20
21.0000000000001812
 30
0.0
 40
3.794020660926094
 50
270.0
 51
331.2916789772501147
  0
LINE
  5
1B59
  8
0
  6
CONTINUOUS
 62
     3
 10
-10.0144498840718406
 20
17.2059793390740907
 30
-0.0000000000000036
 11
-5.4011224359027228
 21
17.2059793390740907
 31
-0.0000000000000025
  0
ARC
  5
1B5A
  8
0
  6
CONTINUOUS
 62
     3
 10
-10.0144498840719507
 20
18.6933362759153887
 30
-0.0000000000000036
 40
1.4873569368413651
 50
179.9999999999967031
 51
270.0000000000044906
  0
LINE
  5
1B5B
  8
0
  6
CONTINUOUS
 62
     3
 10
-11.5018068209133197
 20
23.9873185934864708
 30
-0.0000000000000036
 11
-11.5018068209133197
 21
18.6933362759154811
 31
-0.0000000000000036
  0
ARC
  5
1B5C
  8
0
  6
CONTINUOUS
 62
     3
 10
-10.6951047534738599
 20
23.987318593486421
 30
-0.0000000000000036
 40
0.8067020674394598
 50
0.0000000000040457
 51
180.0000000000040075
  0
LINE
  5
1B5D
  8
0
  6
CONTINUOUS
 62
     3
 10
-9.8884026860343983
 20
19.0714778700277705
 30
-0.0000000000000036
 11
-9.8884026860343983
 21
23.9873185934864708
 31
-0.0000000000000036
  0
ARC
  5
1B5E
  8
0
  6
CONTINUOUS
 62
     3
 10
-9.6363082899597448
 20
19.0714778700276284
 30
-0.0000000000000036
 40
0.252094396074682
 50
179.9999999999417923
 51
270.0
  0
LINE
  5
1B5F
  8
0
  6
CONTINUOUS
 62
     3
 10
-8.5058775537598894
 20
18.8193834739528896
 30
-0.0000000000000036
 11
-9.6363082899596311
 21
18.81938347395295
 31
-0.0000000000000038
  0
ARC
  5
1B60
  8
0
  6
CONTINUOUS
 62
     3
 10
-5.4011224359026091
 20
21.0000000000001208
 30
0.0
 40
3.7940206609257539
 50
28.7083210227444106
 51
215.0821845754649928
  0
LINE
  5
1B61
  8
0
  6
CONTINUOUS
 62
     3
 10
-2.073476407715249
 20
24.2898318687763215
 30
0.0
 11
-2.0734764077151349
 21
22.8224611618962108
 31
0.0
  0
ARC
  5
1B62
  8
0
  6
CONTINUOUS
 62
     3
 10
-1.569287615565601
 20
24.2898318687761403
 30
0.0
 40
0.5041887921497903
 50
90.0
 51
179.999999999980588
  0
LINE
  5
1B63
  8
0
  6
CONTINUOUS
 62
     3
 10
1.45584513733206
 20
24.7940206609258205
 30
0.0
 11
-1.569287615565601
 21
24.7940206609259306
 31
-0.0000000000000007
  0
ARC
  5
1B64
  8
0
  6
CONTINUOUS
 62
     3
 10
1.45584513733206
 20
22.6260088546824711
 30
0.0
 40
2.1680118062433751
 50
322.491960162919213
 51
90.0
  0
ARC
  5
1B65
  8
0
  6
CONTINUOUS
 62
     3
 10
1.5818923353698411
 20
20.0294365751091803
 30
0.0
 40
2.0419646082074481
 50
9.2088938665979647
 51
38.6930109383993326
  0
LINE
  5
1B66
  8
0
  6
CONTINUOUS
 62
     3
 10
3.8208432771837102
 20
19.0296316269278307
 30
0.0
 11
3.5975389505324511
 21
20.3562211891217117
 31
0.0
  0
ARC
  5
1B67
  8
0
  6
CONTINUOUS
 62
     3
 10
4.0694402933980847
 20
19.0714778700275396
 30
0.0
 40
0.2520943960746536
 50
189.5550026106407984
 51
270.0000000000259206
  0
LINE
  5
1B68
  8
0
  6
CONTINUOUS
 62
     3
 10
4.6030310421317582
 20
18.8193834739501291
 30
0.0
 11
4.0694402933981992
 21
18.8193834739528896
 31
-0.0000000000000001
  0
ARC
  5
1B69
  8
0
  6
CONTINUOUS
 62
     3
 10
7.707786159987446
 20
21.0000000000001812
 30
0.0
 40
3.794020660926094
 50
270.0
 51
215.0821845755129118
  0
LINE
  5
1B6A
  8
0
  6
CONTINUOUS
 62
     3
 10
3.741843298677165
 20
17.2059793390740907
 30
0.0
 11
7.707786159987446
 21
17.2059793390740907
 31
0.0000000000000009
  0
CIRCLE
  5
1B6B
  8
0
  6
CONTINUOUS
 62
     3
 10
0.0
 20
0.0
 30
0.0
 40
2.0
  0
CIRCLE
  5
1B6C
  8
0
  6
VERDECKT
 62
     1
 10
0.0000000000000019
 20
-0.0000000000000031
 30
0.0
 40
2.4585000000000021
  0
CIRCLE
  5
1B6D
  8
0
  6
VERDECKT
 62
     1
 10
-0.0000000000000037
 20
-0.0000000000000178
 30
0.0
 40
31.9737205583711592
  0
CIRCLE
  5
1B6E
  8
0
  6
VERDECKT
 62
     1
 10
-0.0000000000000014
 20
-0.0000000000000178
 30
0.0
 40
3.25
  0
CIRCLE
  5
1B6F
  8
0
  6
VERDECKT
 62
     1
 10
-0.0000000000000056
 20
-0.0000000000000013
 30
0.0
 40
26.3500000000000192
  0
CIRCLE
  5
1B70
  8
0
  6
VERDECKT
 62
     1
 10
-0.0000000000000004
 20
0.0
 30
0.0
 40
2.25
  0
CIRCLE
  5
1B71
  8
0
  6
VERDECKT
 62
     1
 10
-0.0000000000000024
 20
0.0000000000000044
 30
0.0
 40
18.0
  0
CIRCLE
  5
1B72
  8
0
  6
VERDECKT
 62
     1
 10
-0.0000000000000024
 20
0.0000000000000044
 30
0.0
 40
28.0
  0
CIRCLE
  5
1B73
  8
0
  6
VERDECKT
 62
     1
 10
-0.0000000000000013
 20
0.0000000000000102
 30
0.0
 40
6.0
  0
ENDBLK
  5
1A61
  8
0
  0
BLOCK
  8
0
  2
A$C55C41640
 70
     0
 10
0.0
 20
0.0
 30
0.0
  3
A$C55C41640
  1

  0
POLYLINE
  8
0
  5
2269
  62
3
  66
     1
 10
0.000000
 20
0.000000
 30
0.000000
  70
     8
  0
VERTEX
  8
0
  5
226A
 10
-5.77350
 20
26.3427
 30
-5.80000e-15
  70
    32
  0
VERTEX
  8
0
  5
226B
 10
-5.76214
 20
26.3458
 30
-5.80234e-15
  70
    32
  0
VERTEX
  8
0
  5
226C
 10
-5.75077
 20
26.3488
 30
-5.80465e-15
  70
    32
  0
VERTEX
  8
0
  5
226D
 10
-5.73941
 20
26.3518
 30
-5.80692e-15
  70
    32
  0
VERTEX
  8
0
  5
226E
 10
-5.72804
 20
26.3548
 30
-5.80915e-15
  70
    32
  0
VERTEX
  8
0
  5
226F
 10
-5.71668
 20
26.3577
 30
-5.81135e-15
  70
    32
  0
VERTEX
  8
0
  5
2270
 10
-5.70531
 20
26.3607
 30
-5.81351e-15
  70
    32
  0
VERTEX
  8
0
  5
2271
 10
-5.69395
 20
26.3636
 30
-5.81564e-15
  70
    32
  0
VERTEX
  8
0
  5
2272
 10
-5.68258
 20
26.3665
 30
-5.81773e-15
  70
    32
  0
VERTEX
  8
0
  5
2273
 10
-5.67122
 20
26.3694
 30
-5.81979e-15
  70
    32
  0
VERTEX
  8
0
  5
2274
 10
-5.65985
 20
26.3722
 30
-5.82181e-15
  70
    32
  0
VERTEX
  8
0
  5
2275
 10
-5.64849
 20
26.3751
 30
-5.82380e-15
  70
    32
  0
VERTEX
  8
0
  5
2276
 10
-5.63712
 20
26.3779
 30
-5.82575e-15
  70
    32
  0
VERTEX
  8
0
  5
2277
 10
-5.62576
 20
26.3807
 30
-5.82767e-15
  70
    32
  0
VERTEX
  8
0
  5
2278
 10
-5.61439
 20
26.3835
 30
-5.82956e-15
  70
    32
  0
VERTEX
  8
0
  5
2279
 10
-5.60303
 20
26.3863
 30
-5.83141e-15
  70
    32
  0
VERTEX
  8
0
  5
227A
 10
-5.59166
 20
26.3890
 30
-5.83323e-15
  70
    32
  0
VERTEX
  8
0
  5
227B
 10
-5.58029
 20
26.3917
 30
-5.83502e-15
  70
    32
  0
VERTEX
  8
0
  5
227C
 10
-5.56893
 20
26.3944
 30
-5.83678e-15
  70
    32
  0
VERTEX
  8
0
  5
227D
 10
-5.55756
 20
26.3971
 30
-5.83850e-15
  70
    32
  0
VERTEX
  8
0
  5
227E
 10
-5.54620
 20
26.3998
 30
-5.84019e-15
  70
    32
  0
VERTEX
  8
0
  5
227F
 10
-5.53483
 20
26.4024
 30
-5.84186e-15
  70
    32
  0
VERTEX
  8
0
  5
2280
 10
-5.52347
 20
26.4050
 30
-5.84349e-15
  70
    32
  0
VERTEX
  8
0
  5
2281
 10
-5.51210
 20
26.4076
 30
-5.84509e-15
  70
    32
  0
VERTEX
  8
0
  5
2282
 10
-5.50074
 20
26.4102
 30
-5.84665e-15
  70
    32
  0
VERTEX
  8
0
  5
2283
 10
-5.48937
 20
26.4128
 30
-5.84819e-15
  70
    32
  0
VERTEX
  8
0
  5
2284
 10
-5.47801
 20
26.4153
 30
-5.84970e-15
  70
    32
  0
VERTEX
  8
0
  5
2285
 10
-5.46664
 20
26.4178
 30
-5.85118e-15
  70
    32
  0
VERTEX
  8
0
  5
2286
 10
-5.45528
 20
26.4203
 30
-5.85263e-15
  70
    32
  0
VERTEX
  8
0
  5
2287
 10
-5.44391
 20
26.4228
 30
-5.85405e-15
  70
    32
  0
VERTEX
  8
0
  5
2288
 10
-5.43255
 20
26.4253
 30
-5.85544e-15
  70
    32
  0
VERTEX
  8
0
  5
2289
 10
-5.42118
 20
26.4277
 30
-5.85681e-15
  70
    32
  0
VERTEX
  8
0
  5
228A
 10
-5.40982
 20
26.4301
 30
-5.85814e-15
  70
    32
  0
VERTEX
  8
0
  5
228B
 10
-5.39845
 20
26.4325
 30
-5.85945e-15
  70
    32
  0
VERTEX
  8
0
  5
228C
 10
-5.38709
 20
26.4349
 30
-5.86073e-15
  70
    32
  0
VERTEX
  8
0
  5
228D
 10
-5.37572
 20
26.4372
 30
-5.86199e-15
  70
    32
  0
VERTEX
  8
0
  5
228E
 10
-5.36436
 20
26.4395
 30
-5.86321e-15
  70
    32
  0
VERTEX
  8
0
  5
228F
 10
-5.35299
 20
26.4419
 30
-5.86441e-15
  70
    32
  0
VERTEX
  8
0
  5
2290
 10
-5.34163
 20
26.4441
 30
-5.86558e-15
  70
    32
  0
VERTEX
  8
0
  5
2291
 10
-5.33026
 20
26.4464
 30
-5.86673e-15
  70
    32
  0
VERTEX
  8
0
  5
2292
 10
-5.31890
 20
26.4486
 30
-5.86785e-15
  70
    32
  0
VERTEX
  8
0
  5
2293
 10
-5.30753
 20
26.4508
 30
-5.86895e-15
  70
    32
  0
VERTEX
  8
0
  5
2294
 10
-5.29617
 20
26.4530
 30
-5.87002e-15
  70
    32
  0
VERTEX
  8
0
  5
2295
 10
-5.28480
 20
26.4552
 30
-5.87106e-15
  70
    32
  0
VERTEX
  8
0
  5
2296
 10
-5.27344
 20
26.4574
 30
-5.87209e-15
  70
    32
  0
VERTEX
  8
0
  5
2297
 10
-5.26207
 20
26.4595
 30
-5.87308e-15
  70
    32
  0
VERTEX
  8
0
  5
2298
 10
-5.25071
 20
26.4616
 30
-5.87406e-15
  70
    32
  0
VERTEX
  8
0
  5
2299
 10
-5.23934
 20
26.4637
 30
-5.87500e-15
  70
    32
  0
VERTEX
  8
0
  5
229A
 10
-5.22797
 20
26.4657
 30
-5.87593e-15
  70
    32
  0
VERTEX
  8
0
  5
229B
 10
-5.21661
 20
26.4678
 30
-5.87683e-15
  70
    32
  0
VERTEX
  8
0
  5
229C
 10
-5.20524
 20
26.4698
 30
-5.87771e-15
  70
    32
  0
VERTEX
  8
0
  5
229D
 10
-5.19388
 20
26.4718
 30
-5.87857e-15
  70
    32
  0
VERTEX
  8
0
  5
229E
 10
-5.18251
 20
26.4738
 30
-5.87940e-15
  70
    32
  0
VERTEX
  8
0
  5
229F
 10
-5.17115
 20
26.4757
 30
-5.88022e-15
  70
    32
  0
VERTEX
  8
0
  5
22A0
 10
-5.15978
 20
26.4776
 30
-5.88101e-15
  70
    32
  0
VERTEX
  8
0
  5
22A1
 10
-5.14842
 20
26.4795
 30
-5.88178e-15
  70
    32
  0
VERTEX
  8
0
  5
22A2
 10
-5.13705
 20
26.4814
 30
-5.88253e-15
  70
    32
  0
VERTEX
  8
0
  5
22A3
 10
-5.12569
 20
26.4832
 30
-5.88326e-15
  70
    32
  0
VERTEX
  8
0
  5
22A4
 10
-5.11432
 20
26.4851
 30
-5.88396e-15
  70
    32
  0
VERTEX
  8
0
  5
22A5
 10
-5.10296
 20
26.4869
 30
-5.88465e-15
  70
    32
  0
VERTEX
  8
0
  5
22A6
 10
-5.09159
 20
26.4887
 30
-5.88532e-15
  70
    32
  0
VERTEX
  8
0
  5
22A7
 10
-5.08023
 20
26.4904
 30
-5.88596e-15
  70
    32
  0
VERTEX
  8
0
  5
22A8
 10
-5.06886
 20
26.4922
 30
-5.88659e-15
  70
    32
  0
VERTEX
  8
0
  5
22A9
 10
-5.05750
 20
26.4939
 30
-5.88720e-15
  70
    32
  0
VERTEX
  8
0
  5
22AA
 10
-5.04613
 20
26.4956
 30
-5.88779e-15
  70
    32
  0
VERTEX
  8
0
  5
22AB
 10
-5.03477
 20
26.4972
 30
-5.88837e-15
  70
    32
  0
VERTEX
  8
0
  5
22AC
 10
-5.02340
 20
26.4989
 30
-5.88892e-15
  70
    32
  0
VERTEX
  8
0
  5
22AD
 10
-5.01204
 20
26.5005
 30
-5.88946e-15
  70
    32
  0
VERTEX
  8
0
  5
22AE
 10
-5.00067
 20
26.5021
 30
-5.88997e-15
  70
    32
  0
VERTEX
  8
0
  5
22AF
 10
-4.98931
 20
26.5036
 30
-5.89047e-15
  70
    32
  0
VERTEX
  8
0
  5
22B0
 10
-4.97794
 20
26.5052
 30
-5.89096e-15
  70
    32
  0
VERTEX
  8
0
  5
22B1
 10
-4.96658
 20
26.5067
 30
-5.89143e-15
  70
    32
  0
VERTEX
  8
0
  5
22B2
 10
-4.95521
 20
26.5082
 30
-5.89188e-15
  70
    32
  0
VERTEX
  8
0
  5
22B3
 10
-4.94385
 20
26.5096
 30
-5.89231e-15
  70
    32
  0
VERTEX
  8
0
  5
22B4
 10
-4.93248
 20
26.5111
 30
-5.89273e-15
  70
    32
  0
VERTEX
  8
0
  5
22B5
 10
-4.92112
 20
26.5125
 30
-5.89314e-15
  70
    32
  0
VERTEX
  8
0
  5
22B6
 10
-4.90975
 20
26.5139
 30
-5.89352e-15
  70
    32
  0
VERTEX
  8
0
  5
22B7
 10
-4.89839
 20
26.5153
 30
-5.89390e-15
  70
    32
  0
VERTEX
  8
0
  5
22B8
 10
-4.88702
 20
26.5166
 30
-5.89426e-15
  70
    32
  0
VERTEX
  8
0
  5
22B9
 10
-4.87565
 20
26.5179
 30
-5.89460e-15
  70
    32
  0
VERTEX
  8
0
  5
22BA
 10
-4.86429
 20
26.5192
 30
-5.89493e-15
  70
    32
  0
VERTEX
  8
0
  5
22BB
 10
-4.85292
 20
26.5205
 30
-5.89525e-15
  70
    32
  0
VERTEX
  8
0
  5
22BC
 10
-4.84156
 20
26.5217
 30
-5.89555e-15
  70
    32
  0
VERTEX
  8
0
  5
22BD
 10
-4.83019
 20
26.5229
 30
-5.89584e-15
  70
    32
  0
VERTEX
  8
0
  5
22BE
 10
-4.81883
 20
26.5241
 30
-5.89612e-15
  70
    32
  0
VERTEX
  8
0
  5
22BF
 10
-4.80746
 20
26.5253
 30
-5.89638e-15
  70
    32
  0
VERTEX
  8
0
  5
22C0
 10
-4.79610
 20
26.5264
 30
-5.89664e-15
  70
    32
  0
VERTEX
  8
0
  5
22C1
 10
-4.78473
 20
26.5276
 30
-5.89688e-15
  70
    32
  0
VERTEX
  8
0
  5
22C2
 10
-4.77337
 20
26.5286
 30
-5.89710e-15
  70
    32
  0
VERTEX
  8
0
  5
22C3
 10
-4.76200
 20
26.5297
 30
-5.89732e-15
  70
    32
  0
VERTEX
  8
0
  5
22C4
 10
-4.75064
 20
26.5307
 30
-5.89753e-15
  70
    32
  0
VERTEX
  8
0
  5
22C5
 10
-4.73927
 20
26.5317
 30
-5.89772e-15
  70
    32
  0
VERTEX
  8
0
  5
22C6
 10
-4.72791
 20
26.5327
 30
-5.89791e-15
  70
    32
  0
VERTEX
  8
0
  5
22C7
 10
-4.71654
 20
26.5337
 30
-5.89808e-15
  70
    32
  0
VERTEX
  8
0
  5
22C8
 10
-4.70518
 20
26.5346
 30
-5.89825e-15
  70
    32
  0
VERTEX
  8
0
  5
22C9
 10
-4.69381
 20
26.5355
 30
-5.89840e-15
  70
    32
  0
VERTEX
  8
0
  5
22CA
 10
-4.68245
 20
26.5364
 30
-5.89855e-15
  70
    32
  0
VERTEX
  8
0
  5
22CB
 10
-4.67108
 20
26.5373
 30
-5.89868e-15
  70
    32
  0
VERTEX
  8
0
  5
22CC
 10
-4.65972
 20
26.5381
 30
-5.89881e-15
  70
    32
  0
VERTEX
  8
0
  5
22CD
 10
-4.64835
 20
26.5389
 30
-5.89893e-15
  70
    32
  0
VERTEX
  8
0
  5
22CE
 10
-4.63699
 20
26.5396
 30
-5.89904e-15
  70
    32
  0
VERTEX
  8
0
  5
22CF
 10
-4.62562
 20
26.5404
 30
-5.89914e-15
  70
    32
  0
VERTEX
  8
0
  5
22D0
 10
-4.61426
 20
26.5411
 30
-5.89924e-15
  70
    32
  0
VERTEX
  8
0
  5
22D1
 10
-4.60289
 20
26.5418
 30
-5.89933e-15
  70
    32
  0
VERTEX
  8
0
  5
22D2
 10
-4.59153
 20
26.5425
 30
-5.89941e-15
  70
    32
  0
VERTEX
  8
0
  5
22D3
 10
-4.58016
 20
26.5431
 30
-5.89948e-15
  70
    32
  0
VERTEX
  8
0
  5
22D4
 10
-4.56880
 20
26.5437
 30
-5.89955e-15
  70
    32
  0
VERTEX
  8
0
  5
22D5
 10
-4.55743
 20
26.5443
 30
-5.89961e-15
  70
    32
  0
VERTEX
  8
0
  5
22D6
 10
-4.54607
 20
26.5448
 30
-5.89967e-15
  70
    32
  0
VERTEX
  8
0
  5
22D7
 10
-4.53470
 20
26.5454
 30
-5.89972e-15
  70
    32
  0
VERTEX
  8
0
  5
22D8
 10
-4.52333
 20
26.5459
 30
-5.89976e-15
  70
    32
  0
VERTEX
  8
0
  5
22D9
 10
-4.51197
 20
26.5463
 30
-5.89980e-15
  70
    32
  0
VERTEX
  8
0
  5
22DA
 10
-4.50060
 20
26.5468
 30
-5.89984e-15
  70
    32
  0
VERTEX
  8
0
  5
22DB
 10
-4.48924
 20
26.5472
 30
-5.89987e-15
  70
    32
  0
VERTEX
  8
0
  5
22DC
 10
-4.47787
 20
26.5476
 30
-5.89989e-15
  70
    32
  0
VERTEX
  8
0
  5
22DD
 10
-4.46651
 20
26.5479
 30
-5.89992e-15
  70
    32
  0
VERTEX
  8
0
  5
22DE
 10
-4.45514
 20
26.5483
 30
-5.89994e-15
  70
    32
  0
VERTEX
  8
0
  5
22DF
 10
-4.44378
 20
26.5486
 30
-5.89995e-15
  70
    32
  0
VERTEX
  8
0
  5
22E0
 10
-4.43241
 20
26.5488
 30
-5.89996e-15
  70
    32
  0
VERTEX
  8
0
  5
22E1
 10
-4.42105
 20
26.5491
 30
-5.89998e-15
  70
    32
  0
VERTEX
  8
0
  5
22E2
 10
-4.40968
 20
26.5493
 30
-5.89998e-15
  70
    32
  0
VERTEX
  8
0
  5
22E3
 10
-4.39832
 20
26.5495
 30
-5.89999e-15
  70
    32
  0
VERTEX
  8
0
  5
22E4
 10
-4.38695
 20
26.5496
 30
-5.89999e-15
  70
    32
  0
VERTEX
  8
0
  5
22E5
 10
-4.37559
 20
26.5498
 30
-5.90000e-15
  70
    32
  0
VERTEX
  8
0
  5
22E6
 10
-4.36422
 20
26.5499
 30
-5.90000e-15
  70
    32
  0
VERTEX
  8
0
  5
22E7
 10
-4.35286
 20
26.5499
 30
-5.90000e-15
  70
    32
  0
VERTEX
  8
0
  5
22E8
 10
-4.34149
 20
26.5500
 30
-5.90000e-15
  70
    32
  0
VERTEX
  8
0
  5
22E9
 10
-4.33013
 20
26.5500
 30
-5.90000e-15
  70
    32
  0
SEQEND
  8
0
  5
22EA
  0
LINE
  5
1A66
  8
0
  6
CONTINUOUS
 62
     3
 10
-5.7735026918962546
 20
26.3427405783631414
 30
-0.0000000000000058
 11
-5.7735026918962573
 21
21.9679196819993798
 31
-0.0000000000000049
210
0.0
220
1.0
230
-0.0000000000000002
  0
POLYLINE
  8
0
  5
22EB
  62
3
  66
     1
 10
0.000000
 20
0.000000
 30
0.000000
  70
     8
  0
VERTEX
  8
0
  5
22EC
 10
-2.88675
 20
21.9679
 30
-4.90000e-15
  70
    32
  0
VERTEX
  8
0
  5
22ED
 10
-2.90491
 20
21.9745
 30
-4.90002e-15
  70
    32
  0
VERTEX
  8
0
  5
22EE
 10
-2.92306
 20
21.9810
 30
-4.90009e-15
  70
    32
  0
VERTEX
  8
0
  5
22EF
 10
-2.94122
 20
21.9874
 30
-4.90021e-15
  70
    32
  0
VERTEX
  8
0
  5
22F0
 10
-2.95937
 20
21.9938
 30
-4.90037e-15
  70
    32
  0
VERTEX
  8
0
  5
22F1
 10
-2.97753
 20
22.0001
 30
-4.90057e-15
  70
    32
  0
VERTEX
  8
0
  5
22F2
 10
-2.99569
 20
22.0064
 30
-4.90081e-15
  70
    32
  0
VERTEX
  8
0
  5
22F3
 10
-3.01384
 20
22.0126
 30
-4.90109e-15
  70
    32
  0
VERTEX
  8
0
  5
22F4
 10
-3.03200
 20
22.0187
 30
-4.90142e-15
  70
    32
  0
VERTEX
  8
0
  5
22F5
 10
-3.05015
 20
22.0247
 30
-4.90178e-15
  70
    32
  0
VERTEX
  8
0
  5
22F6
 10
-3.06831
 20
22.0307
 30
-4.90217e-15
  70
    32
  0
VERTEX
  8
0
  5
22F7
 10
-3.08646
 20
22.0366
 30
-4.90261e-15
  70
    32
  0
VERTEX
  8
0
  5
22F8
 10
-3.10462
 20
22.0424
 30
-4.90307e-15
  70
    32
  0
VERTEX
  8
0
  5
22F9
 10
-3.12278
 20
22.0481
 30
-4.90357e-15
  70
    32
  0
VERTEX
  8
0
  5
22FA
 10
-3.14093
 20
22.0538
 30
-4.90411e-15
  70
    32
  0
VERTEX
  8
0
  5
22FB
 10
-3.15909
 20
22.0595
 30
-4.90467e-15
  70
    32
  0
VERTEX
  8
0
  5
22FC
 10
-3.17724
 20
22.0650
 30
-4.90526e-15
  70
    32
  0
VERTEX
  8
0
  5
22FD
 10
-3.19540
 20
22.0705
 30
-4.90588e-15
  70
    32
  0
VERTEX
  8
0
  5
22FE
 10
-3.21355
 20
22.0759
 30
-4.90653e-15
  70
    32
  0
VERTEX
  8
0
  5
22FF
 10
-3.23171
 20
22.0812
 30
-4.90720e-15
  70
    32
  0
VERTEX
  8
0
  5
2300
 10
-3.24986
 20
22.0864
 30
-4.90790e-15
  70
    32
  0
VERTEX
  8
0
  5
2301
 10
-3.26802
 20
22.0916
 30
-4.90862e-15
  70
    32
  0
VERTEX
  8
0
  5
2302
 10
-3.28618
 20
22.0967
 30
-4.90937e-15
  70
    32
  0
VERTEX
  8
0
  5
2303
 10
-3.30433
 20
22.1017
 30
-4.91013e-15
  70
    32
  0
VERTEX
  8
0
  5
2304
 10
-3.32249
 20
22.1067
 30
-4.91092e-15
  70
    32
  0
VERTEX
  8
0
  5
2305
 10
-3.34064
 20
22.1116
 30
-4.91172e-15
  70
    32
  0
VERTEX
  8
0
  5
2306
 10
-3.35880
 20
22.1164
 30
-4.91255e-15
  70
    32
  0
VERTEX
  8
0
  5
2307
 10
-3.37695
 20
22.1211
 30
-4.91338e-15
  70
    32
  0
VERTEX
  8
0
  5
2308
 10
-3.39511
 20
22.1257
 30
-4.91424e-15
  70
    32
  0
VERTEX
  8
0
  5
2309
 10
-3.41327
 20
22.1303
 30
-4.91511e-15
  70
    32
  0
VERTEX
  8
0
  5
230A
 10
-3.43142
 20
22.1348
 30
-4.91599e-15
  70
    32
  0
VERTEX
  8
0
  5
230B
 10
-3.44958
 20
22.1392
 30
-4.91688e-15
  70
    32
  0
VERTEX
  8
0
  5
230C
 10
-3.46773
 20
22.1435
 30
-4.91778e-15
  70
    32
  0
VERTEX
  8
0
  5
230D
 10
-3.48589
 20
22.1478
 30
-4.91869e-15
  70
    32
  0
VERTEX
  8
0
  5
230E
 10
-3.50404
 20
22.1519
 30
-4.91961e-15
  70
    32
  0
VERTEX
  8
0
  5
230F
 10
-3.52220
 20
22.1560
 30
-4.92054e-15
  70
    32
  0
VERTEX
  8
0
  5
2310
 10
-3.54036
 20
22.1600
 30
-4.92147e-15
  70
    32
  0
VERTEX
  8
0
  5
2311
 10
-3.55851
 20
22.1640
 30
-4.92241e-15
  70
    32
  0
VERTEX
  8
0
  5
2312
 10
-3.57667
 20
22.1678
 30
-4.92335e-15
  70
    32
  0
VERTEX
  8
0
  5
2313
 10
-3.59482
 20
22.1716
 30
-4.92429e-15
  70
    32
  0
VERTEX
  8
0
  5
2314
 10
-3.61298
 20
22.1753
 30
-4.92524e-15
  70
    32
  0
VERTEX
  8
0
  5
2315
 10
-3.63113
 20
22.1789
 30
-4.92618e-15
  70
    32
  0
VERTEX
  8
0
  5
2316
 10
-3.64929
 20
22.1824
 30
-4.92712e-15
  70
    32
  0
VERTEX
  8
0
  5
2317
 10
-3.66745
 20
22.1858
 30
-4.92806e-15
  70
    32
  0
VERTEX
  8
0
  5
2318
 10
-3.68560
 20
22.1892
 30
-4.92899e-15
  70
    32
  0
VERTEX
  8
0
  5
2319
 10
-3.70376
 20
22.1924
 30
-4.92992e-15
  70
    32
  0
VERTEX
  8
0
  5
231A
 10
-3.72191
 20
22.1956
 30
-4.93085e-15
  70
    32
  0
VERTEX
  8
0
  5
231B
 10
-3.74007
 20
22.1987
 30
-4.93176e-15
  70
    32
  0
VERTEX
  8
0
  5
231C
 10
-3.75822
 20
22.2017
 30
-4.93267e-15
  70
    32
  0
VERTEX
  8
0
  5
231D
 10
-3.77638
 20
22.2046
 30
-4.93357e-15
  70
    32
  0
VERTEX
  8
0
  5
231E
 10
-3.79453
 20
22.2074
 30
-4.93446e-15
  70
    32
  0
VERTEX
  8
0
  5
231F
 10
-3.81269
 20
22.2102
 30
-4.93533e-15
  70
    32
  0
VERTEX
  8
0
  5
2320
 10
-3.83085
 20
22.2128
 30
-4.93619e-15
  70
    32
  0
VERTEX
  8
0
  5
2321
 10
-3.84900
 20
22.2154
 30
-4.93704e-15
  70
    32
  0
VERTEX
  8
0
  5
2322
 10
-3.86716
 20
22.2179
 30
-4.93787e-15
  70
    32
  0
VERTEX
  8
0
  5
2323
 10
-3.88531
 20
22.2202
 30
-4.93868e-15
  70
    32
  0
VERTEX
  8
0
  5
2324
 10
-3.90347
 20
22.2225
 30
-4.93948e-15
  70
    32
  0
VERTEX
  8
0
  5
2325
 10
-3.92162
 20
22.2247
 30
-4.94025e-15
  70
    32
  0
VERTEX
  8
0
  5
2326
 10
-3.93978
 20
22.2268
 30
-4.94101e-15
  70
    32
  0
VERTEX
  8
0
  5
2327
 10
-3.95794
 20
22.2289
 30
-4.94174e-15
  70
    32
  0
VERTEX
  8
0
  5
2328
 10
-3.97609
 20
22.2308
 30
-4.94245e-15
  70
    32
  0
VERTEX
  8
0
  5
2329
 10
-3.99425
 20
22.2326
 30
-4.94314e-15
  70
    32
  0
VERTEX
  8
0
  5
232A
 10
-4.01240
 20
22.2344
 30
-4.94380e-15
  70
    32
  0
VERTEX
  8
0
  5
232B
 10
-4.03056
 20
22.2360
 30
-4.94443e-15
  70
    32
  0
VERTEX
  8
0
  5
232C
 10
-4.04871
 20
22.2376
 30
-4.94504e-15
  70
    32
  0
VERTEX
  8
0
  5
232D
 10
-4.06687
 20
22.2391
 30
-4.94562e-15
  70
    32
  0
VERTEX
  8
0
  5
232E
 10
-4.08503
 20
22.2404
 30
-4.94616e-15
  70
    32
  0
VERTEX
  8
0
  5
232F
 10
-4.10318
 20
22.2417
 30
-4.94668e-15
  70
    32
  0
VERTEX
  8
0
  5
2330
 10
-4.12134
 20
22.2429
 30
-4.94716e-15
  70
    32
  0
VERTEX
  8
0
  5
2331
 10
-4.13949
 20
22.2440
 30
-4.94761e-15
  70
    32
  0
VERTEX
  8
0
  5
2332
 10
-4.15765
 20
22.2450
 30
-4.94803e-15
  70
    32
  0
VERTEX
  8
0
  5
2333
 10
-4.17580
 20
22.2458
 30
-4.94841e-15
  70
    32
  0
VERTEX
  8
0
  5
2334
 10
-4.19396
 20
22.2466
 30
-4.94875e-15
  70
    32
  0
VERTEX
  8
0
  5
2335
 10
-4.21212
 20
22.2473
 30
-4.94905e-15
  70
    32
  0
VERTEX
  8
0
  5
2336
 10
-4.23027
 20
22.2479
 30
-4.94932e-15
  70
    32
  0
VERTEX
  8
0
  5
2337
 10
-4.24843
 20
22.2484
 30
-4.94954e-15
  70
    32
  0
VERTEX
  8
0
  5
2338
 10
-4.26658
 20
22.2488
 30
-4.94972e-15
  70
    32
  0
VERTEX
  8
0
  5
2339
 10
-4.28474
 20
22.2491
 30
-4.94985e-15
  70
    32
  0
VERTEX
  8
0
  5
233A
 10
-4.30289
 20
22.2493
 30
-4.94995e-15
  70
    32
  0
VERTEX
  8
0
  5
233B
 10
-4.32105
 20
22.2494
 30
-4.94999e-15
  70
    32
  0
VERTEX
  8
0
  5
233C
 10
-4.33920
 20
22.2494
 30
-4.94999e-15
  70
    32
  0
VERTEX
  8
0
  5
233D
 10
-4.35736
 20
22.2493
 30
-4.94995e-15
  70
    32
  0
VERTEX
  8
0
  5
233E
 10
-4.37552
 20
22.2491
 30
-4.94985e-15
  70
    32
  0
VERTEX
  8
0
  5
233F
 10
-4.39367
 20
22.2488
 30
-4.94972e-15
  70
    32
  0
VERTEX
  8
0
  5
2340
 10
-4.41183
 20
22.2484
 30
-4.94954e-15
  70
    32
  0
VERTEX
  8
0
  5
2341
 10
-4.42998
 20
22.2479
 30
-4.94932e-15
  70
    32
  0
VERTEX
  8
0
  5
2342
 10
-4.44814
 20
22.2473
 30
-4.94905e-15
  70
    32
  0
VERTEX
  8
0
  5
2343
 10
-4.46629
 20
22.2466
 30
-4.94875e-15
  70
    32
  0
VERTEX
  8
0
  5
2344
 10
-4.48445
 20
22.2458
 30
-4.94841e-15
  70
    32
  0
VERTEX
  8
0
  5
2345
 10
-4.50261
 20
22.2450
 30
-4.94803e-15
  70
    32
  0
VERTEX
  8
0
  5
2346
 10
-4.52076
 20
22.2440
 30
-4.94761e-15
  70
    32
  0
VERTEX
  8
0
  5
2347
 10
-4.53892
 20
22.2429
 30
-4.94716e-15
  70
    32
  0
VERTEX
  8
0
  5
2348
 10
-4.55707
 20
22.2417
 30
-4.94668e-15
  70
    32
  0
VERTEX
  8
0
  5
2349
 10
-4.57523
 20
22.2404
 30
-4.94616e-15
  70
    32
  0
VERTEX
  8
0
  5
234A
 10
-4.59338
 20
22.2391
 30
-4.94562e-15
  70
    32
  0
VERTEX
  8
0
  5
234B
 10
-4.61154
 20
22.2376
 30
-4.94504e-15
  70
    32
  0
VERTEX
  8
0
  5
234C
 10
-4.62970
 20
22.2360
 30
-4.94443e-15
  70
    32
  0
VERTEX
  8
0
  5
234D
 10
-4.64785
 20
22.2344
 30
-4.94380e-15
  70
    32
  0
VERTEX
  8
0
  5
234E
 10
-4.66601
 20
22.2326
 30
-4.94314e-15
  70
    32
  0
VERTEX
  8
0
  5
234F
 10
-4.68416
 20
22.2308
 30
-4.94245e-15
  70
    32
  0
VERTEX
  8
0
  5
2350
 10
-4.70232
 20
22.2289
 30
-4.94174e-15
  70
    32
  0
VERTEX
  8
0
  5
2351
 10
-4.72047
 20
22.2268
 30
-4.94101e-15
  70
    32
  0
VERTEX
  8
0
  5
2352
 10
-4.73863
 20
22.2247
 30
-4.94025e-15
  70
    32
  0
VERTEX
  8
0
  5
2353
 10
-4.75679
 20
22.2225
 30
-4.93948e-15
  70
    32
  0
VERTEX
  8
0
  5
2354
 10
-4.77494
 20
22.2202
 30
-4.93868e-15
  70
    32
  0
VERTEX
  8
0
  5
2355
 10
-4.79310
 20
22.2179
 30
-4.93787e-15
  70
    32
  0
VERTEX
  8
0
  5
2356
 10
-4.81125
 20
22.2154
 30
-4.93704e-15
  70
    32
  0
VERTEX
  8
0
  5
2357
 10
-4.82941
 20
22.2128
 30
-4.93619e-15
  70
    32
  0
VERTEX
  8
0
  5
2358
 10
-4.84756
 20
22.2102
 30
-4.93533e-15
  70
    32
  0
VERTEX
  8
0
  5
2359
 10
-4.86572
 20
22.2074
 30
-4.93446e-15
  70
    32
  0
VERTEX
  8
0
  5
235A
 10
-4.88387
 20
22.2046
 30
-4.93357e-15
  70
    32
  0
VERTEX
  8
0
  5
235B
 10
-4.90203
 20
22.2017
 30
-4.93267e-15
  70
    32
  0
VERTEX
  8
0
  5
235C
 10
-4.92019
 20
22.1987
 30
-4.93176e-15
  70
    32
  0
VERTEX
  8
0
  5
235D
 10
-4.93834
 20
22.1956
 30
-4.93085e-15
  70
    32
  0
VERTEX
  8
0
  5
235E
 10
-4.95650
 20
22.1924
 30
-4.92992e-15
  70
    32
  0
VERTEX
  8
0
  5
235F
 10
-4.97465
 20
22.1892
 30
-4.92899e-15
  70
    32
  0
VERTEX
  8
0
  5
2360
 10
-4.99281
 20
22.1858
 30
-4.92806e-15
  70
    32
  0
VERTEX
  8
0
  5
2361
 10
-5.01096
 20
22.1824
 30
-4.92712e-15
  70
    32
  0
VERTEX
  8
0
  5
2362
 10
-5.02912
 20
22.1789
 30
-4.92618e-15
  70
    32
  0
VERTEX
  8
0
  5
2363
 10
-5.04728
 20
22.1753
 30
-4.92524e-15
  70
    32
  0
VERTEX
  8
0
  5
2364
 10
-5.06543
 20
22.1716
 30
-4.92429e-15
  70
    32
  0
VERTEX
  8
0
  5
2365
 10
-5.08359
 20
22.1678
 30
-4.92335e-15
  70
    32
  0
VERTEX
  8
0
  5
2366
 10
-5.10174
 20
22.1640
 30
-4.92241e-15
  70
    32
  0
VERTEX
  8
0
  5
2367
 10
-5.11990
 20
22.1600
 30
-4.92147e-15
  70
    32
  0
VERTEX
  8
0
  5
2368
 10
-5.13805
 20
22.1560
 30
-4.92054e-15
  70
    32
  0
VERTEX
  8
0
  5
2369
 10
-5.15621
 20
22.1519
 30
-4.91961e-15
  70
    32
  0
VERTEX
  8
0
  5
236A
 10
-5.17437
 20
22.1478
 30
-4.91869e-15
  70
    32
  0
VERTEX
  8
0
  5
236B
 10
-5.19252
 20
22.1435
 30
-4.91778e-15
  70
    32
  0
VERTEX
  8
0
  5
236C
 10
-5.21068
 20
22.1392
 30
-4.91688e-15
  70
    32
  0
VERTEX
  8
0
  5
236D
 10
-5.22883
 20
22.1348
 30
-4.91599e-15
  70
    32
  0
VERTEX
  8
0
  5
236E
 10
-5.24699
 20
22.1303
 30
-4.91511e-15
  70
    32
  0
VERTEX
  8
0
  5
236F
 10
-5.26514
 20
22.1257
 30
-4.91424e-15
  70
    32
  0
VERTEX
  8
0
  5
2370
 10
-5.28330
 20
22.1211
 30
-4.91338e-15
  70
    32
  0
VERTEX
  8
0
  5
2371
 10
-5.30146
 20
22.1164
 30
-4.91255e-15
  70
    32
  0
VERTEX
  8
0
  5
2372
 10
-5.31961
 20
22.1116
 30
-4.91172e-15
  70
    32
  0
VERTEX
  8
0
  5
2373
 10
-5.33777
 20
22.1067
 30
-4.91092e-15
  70
    32
  0
VERTEX
  8
0
  5
2374
 10
-5.35592
 20
22.1017
 30
-4.91013e-15
  70
    32
  0
VERTEX
  8
0
  5
2375
 10
-5.37408
 20
22.0967
 30
-4.90937e-15
  70
    32
  0
VERTEX
  8
0
  5
2376
 10
-5.39223
 20
22.0916
 30
-4.90862e-15
  70
    32
  0
VERTEX
  8
0
  5
2377
 10
-5.41039
 20
22.0864
 30
-4.90790e-15
  70
    32
  0
VERTEX
  8
0
  5
2378
 10
-5.42854
 20
22.0812
 30
-4.90720e-15
  70
    32
  0
VERTEX
  8
0
  5
2379
 10
-5.44670
 20
22.0759
 30
-4.90653e-15
  70
    32
  0
VERTEX
  8
0
  5
237A
 10
-5.46486
 20
22.0705
 30
-4.90588e-15
  70
    32
  0
VERTEX
  8
0
  5
237B
 10
-5.48301
 20
22.0650
 30
-4.90526e-15
  70
    32
  0
VERTEX
  8
0
  5
237C
 10
-5.50117
 20
22.0595
 30
-4.90467e-15
  70
    32
  0
VERTEX
  8
0
  5
237D
 10
-5.51932
 20
22.0538
 30
-4.90411e-15
  70
    32
  0
VERTEX
  8
0
  5
237E
 10
-5.53748
 20
22.0481
 30
-4.90357e-15
  70
    32
  0
VERTEX
  8
0
  5
237F
 10
-5.55563
 20
22.0424
 30
-4.90307e-15
  70
    32
  0
VERTEX
  8
0
  5
2380
 10
-5.57379
 20
22.0366
 30
-4.90261e-15
  70
    32
  0
VERTEX
  8
0
  5
2381
 10
-5.59195
 20
22.0307
 30
-4.90217e-15
  70
    32
  0
VERTEX
  8
0
  5
2382
 10
-5.61010
 20
22.0247
 30
-4.90178e-15
  70
    32
  0
VERTEX
  8
0
  5
2383
 10
-5.62826
 20
22.0187
 30
-4.90142e-15
  70
    32
  0
VERTEX
  8
0
  5
2384
 10
-5.64641
 20
22.0126
 30
-4.90109e-15
  70
    32
  0
VERTEX
  8
0
  5
2385
 10
-5.66457
 20
22.0064
 30
-4.90081e-15
  70
    32
  0
VERTEX
  8
0
  5
2386
 10
-5.68272
 20
22.0001
 30
-4.90057e-15
  70
    32
  0
VERTEX
  8
0
  5
2387
 10
-5.70088
 20
21.9938
 30
-4.90037e-15
  70
    32
  0
VERTEX
  8
0
  5
2388
 10
-5.71904
 20
21.9874
 30
-4.90021e-15
  70
    32
  0
VERTEX
  8
0
  5
2389
 10
-5.73719
 20
21.9810
 30
-4.90009e-15
  70
    32
  0
VERTEX
  8
0
  5
238A
 10
-5.75535
 20
21.9745
 30
-4.90002e-15
  70
    32
  0
VERTEX
  8
0
  5
238B
 10
-5.77350
 20
21.9679
 30
-4.90000e-15
  70
    32
  0
SEQEND
  8
0
  5
238C
  0
LINE
  5
1A68
  8
0
  6
CONTINUOUS
 62
     3
 10
-2.8867513459481269
 20
26.3427405783631414
 30
-0.0000000000000058
 11
-2.8867513459481282
 21
21.9679196819993798
 31
-0.0000000000000049
210
0.0
220
1.0
230
-0.0000000000000002
  0
POLYLINE
  8
0
  5
238D
  62
3
  66
     1
 10
0.000000
 20
0.000000
 30
0.000000
  70
     8
  0
VERTEX
  8
0
  5
238E
 10
-4.33013
 20
26.5500
 30
-5.90000e-15
  70
    32
  0
VERTEX
  8
0
  5
238F
 10
-4.31876
 20
26.5500
 30
-5.90000e-15
  70
    32
  0
VERTEX
  8
0
  5
2390
 10
-4.30740
 20
26.5499
 30
-5.90000e-15
  70
    32
  0
VERTEX
  8
0
  5
2391
 10
-4.29603
 20
26.5499
 30
-5.90000e-15
  70
    32
  0
VERTEX
  8
0
  5
2392
 10
-4.28467
 20
26.5498
 30
-5.90000e-15
  70
    32
  0
VERTEX
  8
0
  5
2393
 10
-4.27330
 20
26.5496
 30
-5.89999e-15
  70
    32
  0
VERTEX
  8
0
  5
2394
 10
-4.26194
 20
26.5495
 30
-5.89999e-15
  70
    32
  0
VERTEX
  8
0
  5
2395
 10
-4.25057
 20
26.5493
 30
-5.89998e-15
  70
    32
  0
VERTEX
  8
0
  5
2396
 10
-4.23921
 20
26.5491
 30
-5.89998e-15
  70
    32
  0
VERTEX
  8
0
  5
2397
 10
-4.22784
 20
26.5488
 30
-5.89996e-15
  70
    32
  0
VERTEX
  8
0
  5
2398
 10
-4.21648
 20
26.5486
 30
-5.89995e-15
  70
    32
  0
VERTEX
  8
0
  5
2399
 10
-4.20511
 20
26.5483
 30
-5.89994e-15
  70
    32
  0
VERTEX
  8
0
  5
239A
 10
-4.19375
 20
26.5479
 30
-5.89992e-15
  70
    32
  0
VERTEX
  8
0
  5
239B
 10
-4.18238
 20
26.5476
 30
-5.89989e-15
  70
    32
  0
VERTEX
  8
0
  5
239C
 10
-4.17101
 20
26.5472
 30
-5.89987e-15
  70
    32
  0
VERTEX
  8
0
  5
239D
 10
-4.15965
 20
26.5468
 30
-5.89984e-15
  70
    32
  0
VERTEX
  8
0
  5
239E
 10
-4.14828
 20
26.5463
 30
-5.89980e-15
  70
    32
  0
VERTEX
  8
0
  5
239F
 10
-4.13692
 20
26.5459
 30
-5.89976e-15
  70
    32
  0
VERTEX
  8
0
  5
23A0
 10
-4.12555
 20
26.5454
 30
-5.89972e-15
  70
    32
  0
VERTEX
  8
0
  5
23A1
 10
-4.11419
 20
26.5448
 30
-5.89967e-15
  70
    32
  0
VERTEX
  8
0
  5
23A2
 10
-4.10282
 20
26.5443
 30
-5.89961e-15
  70
    32
  0
VERTEX
  8
0
  5
23A3
 10
-4.09146
 20
26.5437
 30
-5.89955e-15
  70
    32
  0
VERTEX
  8
0
  5
23A4
 10
-4.08009
 20
26.5431
 30
-5.89948e-15
  70
    32
  0
VERTEX
  8
0
  5
23A5
 10
-4.06873
 20
26.5425
 30
-5.89941e-15
  70
    32
  0
VERTEX
  8
0
  5
23A6
 10
-4.05736
 20
26.5418
 30
-5.89933e-15
  70
    32
  0
VERTEX
  8
0
  5
23A7
 10
-4.04600
 20
26.5411
 30
-5.89924e-15
  70
    32
  0
VERTEX
  8
0
  5
23A8
 10
-4.03463
 20
26.5404
 30
-5.89914e-15
  70
    32
  0
VERTEX
  8
0
  5
23A9
 10
-4.02327
 20
26.5396
 30
-5.89904e-15
  70
    32
  0
VERTEX
  8
0
  5
23AA
 10
-4.01190
 20
26.5389
 30
-5.89893e-15
  70
    32
  0
VERTEX
  8
0
  5
23AB
 10
-4.00054
 20
26.5381
 30
-5.89881e-15
  70
    32
  0
VERTEX
  8
0
  5
23AC
 10
-3.98917
 20
26.5373
 30
-5.89868e-15
  70
    32
  0
VERTEX
  8
0
  5
23AD
 10
-3.97781
 20
26.5364
 30
-5.89855e-15
  70
    32
  0
VERTEX
  8
0
  5
23AE
 10
-3.96644
 20
26.5355
 30
-5.89840e-15
  70
    32
  0
VERTEX
  8
0
  5
23AF
 10
-3.95508
 20
26.5346
 30
-5.89825e-15
  70
    32
  0
VERTEX
  8
0
  5
23B0
 10
-3.94371
 20
26.5337
 30
-5.89808e-15
  70
    32
  0
VERTEX
  8
0
  5
23B1
 10
-3.93235
 20
26.5327
 30
-5.89791e-15
  70
    32
  0
VERTEX
  8
0
  5
23B2
 10
-3.92098
 20
26.5317
 30
-5.89772e-15
  70
    32
  0
VERTEX
  8
0
  5
23B3
 10
-3.90962
 20
26.5307
 30
-5.89753e-15
  70
    32
  0
VERTEX
  8
0
  5
23B4
 10
-3.89825
 20
26.5297
 30
-5.89732e-15
  70
    32
  0
VERTEX
  8
0
  5
23B5
 10
-3.88689
 20
26.5286
 30
-5.89710e-15
  70
    32
  0
VERTEX
  8
0
  5
23B6
 10
-3.87552
 20
26.5276
 30
-5.89688e-15
  70
    32
  0
VERTEX
  8
0
  5
23B7
 10
-3.86416
 20
26.5264
 30
-5.89664e-15
  70
    32
  0
VERTEX
  8
0
  5
23B8
 10
-3.85279
 20
26.5253
 30
-5.89638e-15
  70
    32
  0
VERTEX
  8
0
  5
23B9
 10
-3.84143
 20
26.5241
 30
-5.89612e-15
  70
    32
  0
VERTEX
  8
0
  5
23BA
 10
-3.83006
 20
26.5229
 30
-5.89584e-15
  70
    32
  0
VERTEX
  8
0
  5
23BB
 10
-3.81869
 20
26.5217
 30
-5.89555e-15
  70
    32
  0
VERTEX
  8
0
  5
23BC
 10
-3.80733
 20
26.5205
 30
-5.89525e-15
  70
    32
  0
VERTEX
  8
0
  5
23BD
 10
-3.79596
 20
26.5192
 30
-5.89493e-15
  70
    32
  0
VERTEX
  8
0
  5
23BE
 10
-3.78460
 20
26.5179
 30
-5.89460e-15
  70
    32
  0
VERTEX
  8
0
  5
23BF
 10
-3.77323
 20
26.5166
 30
-5.89426e-15
  70
    32
  0
VERTEX
  8
0
  5
23C0
 10
-3.76187
 20
26.5153
 30
-5.89390e-15
  70
    32
  0
VERTEX
  8
0
  5
23C1
 10
-3.75050
 20
26.5139
 30
-5.89352e-15
  70
    32
  0
VERTEX
  8
0
  5
23C2
 10
-3.73914
 20
26.5125
 30
-5.89314e-15
  70
    32
  0
VERTEX
  8
0
  5
23C3
 10
-3.72777
 20
26.5111
 30
-5.89273e-15
  70
    32
  0
VERTEX
  8
0
  5
23C4
 10
-3.71641
 20
26.5096
 30
-5.89231e-15
  70
    32
  0
VERTEX
  8
0
  5
23C5
 10
-3.70504
 20
26.5082
 30
-5.89188e-15
  70
    32
  0
VERTEX
  8
0
  5
23C6
 10
-3.69368
 20
26.5067
 30
-5.89143e-15
  70
    32
  0
VERTEX
  8
0
  5
23C7
 10
-3.68231
 20
26.5052
 30
-5.89096e-15
  70
    32
  0
VERTEX
  8
0
  5
23C8
 10
-3.67095
 20
26.5036
 30
-5.89047e-15
  70
    32
  0
VERTEX
  8
0
  5
23C9
 10
-3.65958
 20
26.5021
 30
-5.88997e-15
  70
    32
  0
VERTEX
  8
0
  5
23CA
 10
-3.64822
 20
26.5005
 30
-5.88946e-15
  70
    32
  0
VERTEX
  8
0
  5
23CB
 10
-3.63685
 20
26.4989
 30
-5.88892e-15
  70
    32
  0
VERTEX
  8
0
  5
23CC
 10
-3.62549
 20
26.4972
 30
-5.88837e-15
  70
    32
  0
VERTEX
  8
0
  5
23CD
 10
-3.61412
 20
26.4956
 30
-5.88779e-15
  70
    32
  0
VERTEX
  8
0
  5
23CE
 10
-3.60276
 20
26.4939
 30
-5.88720e-15
  70
    32
  0
VERTEX
  8
0
  5
23CF
 10
-3.59139
 20
26.4922
 30
-5.88659e-15
  70
    32
  0
VERTEX
  8
0
  5
23D0
 10
-3.58003
 20
26.4904
 30
-5.88596e-15
  70
    32
  0
VERTEX
  8
0
  5
23D1
 10
-3.56866
 20
26.4887
 30
-5.88532e-15
  70
    32
  0
VERTEX
  8
0
  5
23D2
 10
-3.55730
 20
26.4869
 30
-5.88465e-15
  70
    32
  0
VERTEX
  8
0
  5
23D3
 10
-3.54593
 20
26.4851
 30
-5.88396e-15
  70
    32
  0
VERTEX
  8
0
  5
23D4
 10
-3.53457
 20
26.4832
 30
-5.88326e-15
  70
    32
  0
VERTEX
  8
0
  5
23D5
 10
-3.52320
 20
26.4814
 30
-5.88253e-15
  70
    32
  0
VERTEX
  8
0
  5
23D6
 10
-3.51184
 20
26.4795
 30
-5.88178e-15
  70
    32
  0
VERTEX
  8
0
  5
23D7
 10
-3.50047
 20
26.4776
 30
-5.88101e-15
  70
    32
  0
VERTEX
  8
0
  5
23D8
 10
-3.48910
 20
26.4757
 30
-5.88022e-15
  70
    32
  0
VERTEX
  8
0
  5
23D9
 10
-3.47774
 20
26.4738
 30
-5.87940e-15
  70
    32
  0
VERTEX
  8
0
  5
23DA
 10
-3.46637
 20
26.4718
 30
-5.87857e-15
  70
    32
  0
VERTEX
  8
0
  5
23DB
 10
-3.45501
 20
26.4698
 30
-5.87771e-15
  70
    32
  0
VERTEX
  8
0
  5
23DC
 10
-3.44364
 20
26.4678
 30
-5.87683e-15
  70
    32
  0
VERTEX
  8
0
  5
23DD
 10
-3.43228
 20
26.4657
 30
-5.87593e-15
  70
    32
  0
VERTEX
  8
0
  5
23DE
 10
-3.42091
 20
26.4637
 30
-5.87500e-15
  70
    32
  0
VERTEX
  8
0
  5
23DF
 10
-3.40955
 20
26.4616
 30
-5.87406e-15
  70
    32
  0
VERTEX
  8
0
  5
23E0
 10
-3.39818
 20
26.4595
 30
-5.87308e-15
  70
    32
  0
VERTEX
  8
0
  5
23E1
 10
-3.38682
 20
26.4574
 30
-5.87209e-15
  70
    32
  0
VERTEX
  8
0
  5
23E2
 10
-3.37545
 20
26.4552
 30
-5.87106e-15
  70
    32
  0
VERTEX
  8
0
  5
23E3
 10
-3.36409
 20
26.4530
 30
-5.87002e-15
  70
    32
  0
VERTEX
  8
0
  5
23E4
 10
-3.35272
 20
26.4508
 30
-5.86895e-15
  70
    32
  0
VERTEX
  8
0
  5
23E5
 10
-3.34136
 20
26.4486
 30
-5.86785e-15
  70
    32
  0
VERTEX
  8
0
  5
23E6
 10
-3.32999
 20
26.4464
 30
-5.86673e-15
  70
    32
  0
VERTEX
  8
0
  5
23E7
 10
-3.31863
 20
26.4441
 30
-5.86558e-15
  70
    32
  0
VERTEX
  8
0
  5
23E8
 10
-3.30726
 20
26.4419
 30
-5.86441e-15
  70
    32
  0
VERTEX
  8
0
  5
23E9
 10
-3.29590
 20
26.4395
 30
-5.86321e-15
  70
    32
  0
VERTEX
  8
0
  5
23EA
 10
-3.28453
 20
26.4372
 30
-5.86199e-15
  70
    32
  0
VERTEX
  8
0
  5
23EB
 10
-3.27317
 20
26.4349
 30
-5.86073e-15
  70
    32
  0
VERTEX
  8
0
  5
23EC
 10
-3.26180
 20
26.4325
 30
-5.85945e-15
  70
    32
  0
VERTEX
  8
0
  5
23ED
 10
-3.25044
 20
26.4301
 30
-5.85814e-15
  70
    32
  0
VERTEX
  8
0
  5
23EE
 10
-3.23907
 20
26.4277
 30
-5.85681e-15
  70
    32
  0
VERTEX
  8
0
  5
23EF
 10
-3.22771
 20
26.4253
 30
-5.85544e-15
  70
    32
  0
VERTEX
  8
0
  5
23F0
 10
-3.21634
 20
26.4228
 30
-5.85405e-15
  70
    32
  0
VERTEX
  8
0
  5
23F1
 10
-3.20498
 20
26.4203
 30
-5.85263e-15
  70
    32
  0
VERTEX
  8
0
  5
23F2
 10
-3.19361
 20
26.4178
 30
-5.85118e-15
  70
    32
  0
VERTEX
  8
0
  5
23F3
 10
-3.18225
 20
26.4153
 30
-5.84970e-15
  70
    32
  0
VERTEX
  8
0
  5
23F4
 10
-3.17088
 20
26.4128
 30
-5.84819e-15
  70
    32
  0
VERTEX
  8
0
  5
23F5
 10
-3.15952
 20
26.4102
 30
-5.84665e-15
  70
    32
  0
VERTEX
  8
0
  5
23F6
 10
-3.14815
 20
26.4076
 30
-5.84509e-15
  70
    32
  0
VERTEX
  8
0
  5
23F7
 10
-3.13678
 20
26.4050
 30
-5.84349e-15
  70
    32
  0
VERTEX
  8
0
  5
23F8
 10
-3.12542
 20
26.4024
 30
-5.84186e-15
  70
    32
  0
VERTEX
  8
0
  5
23F9
 10
-3.11405
 20
26.3998
 30
-5.84019e-15
  70
    32
  0
VERTEX
  8
0
  5
23FA
 10
-3.10269
 20
26.3971
 30
-5.83850e-15
  70
    32
  0
VERTEX
  8
0
  5
23FB
 10
-3.09132
 20
26.3944
 30
-5.83678e-15
  70
    32
  0
VERTEX
  8
0
  5
23FC
 10
-3.07996
 20
26.3917
 30
-5.83502e-15
  70
    32
  0
VERTEX
  8
0
  5
23FD
 10
-3.06859
 20
26.3890
 30
-5.83323e-15
  70
    32
  0
VERTEX
  8
0
  5
23FE
 10
-3.05723
 20
26.3863
 30
-5.83141e-15
  70
    32
  0
VERTEX
  8
0
  5
23FF
 10
-3.04586
 20
26.3835
 30
-5.82956e-15
  70
    32
  0
VERTEX
  8
0
  5
2400
 10
-3.03450
 20
26.3807
 30
-5.82767e-15
  70
    32
  0
VERTEX
  8
0
  5
2401
 10
-3.02313
 20
26.3779
 30
-5.82575e-15
  70
    32
  0
VERTEX
  8
0
  5
2402
 10
-3.01177
 20
26.3751
 30
-5.82380e-15
  70
    32
  0
VERTEX
  8
0
  5
2403
 10
-3.00040
 20
26.3722
 30
-5.82181e-15
  70
    32
  0
VERTEX
  8
0
  5
2404
 10
-2.98904
 20
26.3694
 30
-5.81979e-15
  70
    32
  0
VERTEX
  8
0
  5
2405
 10
-2.97767
 20
26.3665
 30
-5.81773e-15
  70
    32
  0
VERTEX
  8
0
  5
2406
 10
-2.96631
 20
26.3636
 30
-5.81564e-15
  70
    32
  0
VERTEX
  8
0
  5
2407
 10
-2.95494
 20
26.3607
 30
-5.81351e-15
  70
    32
  0
VERTEX
  8
0
  5
2408
 10
-2.94358
 20
26.3577
 30
-5.81135e-15
  70
    32
  0
VERTEX
  8
0
  5
2409
 10
-2.93221
 20
26.3548
 30
-5.80915e-15
  70
    32
  0
VERTEX
  8
0
  5
240A
 10
-2.92085
 20
26.3518
 30
-5.80692e-15
  70
    32
  0
VERTEX
  8
0
  5
240B
 10
-2.90948
 20
26.3488
 30
-5.80465e-15
  70
    32
  0
VERTEX
  8
0
  5
240C
 10
-2.89812
 20
26.3458
 30
-5.80234e-15
  70
    32
  0
VERTEX
  8
0
  5
240D
 10
-2.88675
 20
26.3427
 30
-5.80000e-15
  70
    32
  0
SEQEND
  8
0
  5
240E
  0
LINE
  5
1A6A
  8
0
  6
CONTINUOUS
 62
     3
 10
-4.3301270189222132
 20
26.5500000000000291
 30
-0.0000000000000059
 11
-5.0000000000000213
 21
26.5500000000000291
 31
-0.0000000000000059
210
0.0
220
1.0
230
-0.0000000000000002
  0
POLYLINE
  8
0
  5
240F
  62
3
  66
     1
 10
0.000000
 20
0.000000
 30
0.000000
  70
     8
  0
VERTEX
  8
0
  5
2410
 10
5.77350
 20
21.9679
 30
-4.90000e-15
  70
    32
  0
VERTEX
  8
0
  5
2411
 10
5.75535
 20
21.9745
 30
-4.90002e-15
  70
    32
  0
VERTEX
  8
0
  5
2412
 10
5.73719
 20
21.9810
 30
-4.90009e-15
  70
    32
  0
VERTEX
  8
0
  5
2413
 10
5.71904
 20
21.9874
 30
-4.90021e-15
  70
    32
  0
VERTEX
  8
0
  5
2414
 10
5.70088
 20
21.9938
 30
-4.90037e-15
  70
    32
  0
VERTEX
  8
0
  5
2415
 10
5.68272
 20
22.0001
 30
-4.90057e-15
  70
    32
  0
VERTEX
  8
0
  5
2416
 10
5.66457
 20
22.0064
 30
-4.90081e-15
  70
    32
  0
VERTEX
  8
0
  5
2417
 10
5.64641
 20
22.0126
 30
-4.90109e-15
  70
    32
  0
VERTEX
  8
0
  5
2418
 10
5.62826
 20
22.0187
 30
-4.90142e-15
  70
    32
  0
VERTEX
  8
0
  5
2419
 10
5.61010
 20
22.0247
 30
-4.90178e-15
  70
    32
  0
VERTEX
  8
0
  5
241A
 10
5.59195
 20
22.0307
 30
-4.90217e-15
  70
    32
  0
VERTEX
  8
0
  5
241B
 10
5.57379
 20
22.0366
 30
-4.90261e-15
  70
    32
  0
VERTEX
  8
0
  5
241C
 10
5.55563
 20
22.0424
 30
-4.90307e-15
  70
    32
  0
VERTEX
  8
0
  5
241D
 10
5.53748
 20
22.0481
 30
-4.90357e-15
  70
    32
  0
VERTEX
  8
0
  5
241E
 10
5.51932
 20
22.0538
 30
-4.90411e-15
  70
    32
  0
VERTEX
  8
0
  5
241F
 10
5.50117
 20
22.0595
 30
-4.90467e-15
  70
    32
  0
VERTEX
  8
0
  5
2420
 10
5.48301
 20
22.0650
 30
-4.90526e-15
  70
    32
  0
VERTEX
  8
0
  5
2421
 10
5.46486
 20
22.0705
 30
-4.90588e-15
  70
    32
  0
VERTEX
  8
0
  5
2422
 10
5.44670
 20
22.0759
 30
-4.90653e-15
  70
    32
  0
VERTEX
  8
0
  5
2423
 10
5.42854
 20
22.0812
 30
-4.90720e-15
  70
    32
  0
VERTEX
  8
0
  5
2424
 10
5.41039
 20
22.0864
 30
-4.90790e-15
  70
    32
  0
VERTEX
  8
0
  5
2425
 10
5.39223
 20
22.0916
 30
-4.90862e-15
  70
    32
  0
VERTEX
  8
0
  5
2426
 10
5.37408
 20
22.0967
 30
-4.90937e-15
  70
    32
  0
VERTEX
  8
0
  5
2427
 10
5.35592
 20
22.1017
 30
-4.91013e-15
  70
    32
  0
VERTEX
  8
0
  5
2428
 10
5.33777
 20
22.1067
 30
-4.91092e-15
  70
    32
  0
VERTEX
  8
0
  5
2429
 10
5.31961
 20
22.1116
 30
-4.91172e-15
  70
    32
  0
VERTEX
  8
0
  5
242A
 10
5.30146
 20
22.1164
 30
-4.91255e-15
  70
    32
  0
VERTEX
  8
0
  5
242B
 10
5.28330
 20
22.1211
 30
-4.91338e-15
  70
    32
  0
VERTEX
  8
0
  5
242C
 10
5.26514
 20
22.1257
 30
-4.91424e-15
  70
    32
  0
VERTEX
  8
0
  5
242D
 10
5.24699
 20
22.1303
 30
-4.91511e-15
  70
    32
  0
VERTEX
  8
0
  5
242E
 10
5.22883
 20
22.1348
 30
-4.91599e-15
  70
    32
  0
VERTEX
  8
0
  5
242F
 10
5.21068
 20
22.1392
 30
-4.91688e-15
  70
    32
  0
VERTEX
  8
0
  5
2430
 10
5.19252
 20
22.1435
 30
-4.91778e-15
  70
    32
  0
VERTEX
  8
0
  5
2431
 10
5.17437
 20
22.1478
 30
-4.91869e-15
  70
    32
  0
VERTEX
  8
0
  5
2432
 10
5.15621
 20
22.1519
 30
-4.91961e-15
  70
    32
  0
VERTEX
  8
0
  5
2433
 10
5.13805
 20
22.1560
 30
-4.92054e-15
  70
    32
  0
VERTEX
  8
0
  5
2434
 10
5.11990
 20
22.1600
 30
-4.92147e-15
  70
    32
  0
VERTEX
  8
0
  5
2435
 10
5.10174
 20
22.1640
 30
-4.92241e-15
  70
    32
  0
VERTEX
  8
0
  5
2436
 10
5.08359
 20
22.1678
 30
-4.92335e-15
  70
    32
  0
VERTEX
  8
0
  5
2437
 10
5.06543
 20
22.1716
 30
-4.92429e-15
  70
    32
  0
VERTEX
  8
0
  5
2438
 10
5.04728
 20
22.1753
 30
-4.92524e-15
  70
    32
  0
VERTEX
  8
0
  5
2439
 10
5.02912
 20
22.1789
 30
-4.92618e-15
  70
    32
  0
VERTEX
  8
0
  5
243A
 10
5.01096
 20
22.1824
 30
-4.92712e-15
  70
    32
  0
VERTEX
  8
0
  5
243B
 10
4.99281
 20
22.1858
 30
-4.92806e-15
  70
    32
  0
VERTEX
  8
0
  5
243C
 10
4.97465
 20
22.1892
 30
-4.92899e-15
  70
    32
  0
VERTEX
  8
0
  5
243D
 10
4.95650
 20
22.1924
 30
-4.92992e-15
  70
    32
  0
VERTEX
  8
0
  5
243E
 10
4.93834
 20
22.1956
 30
-4.93085e-15
  70
    32
  0
VERTEX
  8
0
  5
243F
 10
4.92019
 20
22.1987
 30
-4.93176e-15
  70
    32
  0
VERTEX
  8
0
  5
2440
 10
4.90203
 20
22.2017
 30
-4.93267e-15
  70
    32
  0
VERTEX
  8
0
  5
2441
 10
4.88387
 20
22.2046
 30
-4.93357e-15
  70
    32
  0
VERTEX
  8
0
  5
2442
 10
4.86572
 20
22.2074
 30
-4.93446e-15
  70
    32
  0
VERTEX
  8
0
  5
2443
 10
4.84756
 20
22.2102
 30
-4.93533e-15
  70
    32
  0
VERTEX
  8
0
  5
2444
 10
4.82941
 20
22.2128
 30
-4.93619e-15
  70
    32
  0
VERTEX
  8
0
  5
2445
 10
4.81125
 20
22.2154
 30
-4.93704e-15
  70
    32
  0
VERTEX
  8
0
  5
2446
 10
4.79310
 20
22.2179
 30
-4.93787e-15
  70
    32
  0
VERTEX
  8
0
  5
2447
 10
4.77494
 20
22.2202
 30
-4.93868e-15
  70
    32
  0
VERTEX
  8
0
  5
2448
 10
4.75679
 20
22.2225
 30
-4.93948e-15
  70
    32
  0
VERTEX
  8
0
  5
2449
 10
4.73863
 20
22.2247
 30
-4.94025e-15
  70
    32
  0
VERTEX
  8
0
  5
244A
 10
4.72047
 20
22.2268
 30
-4.94101e-15
  70
    32
  0
VERTEX
  8
0
  5
244B
 10
4.70232
 20
22.2289
 30
-4.94174e-15
  70
    32
  0
VERTEX
  8
0
  5
244C
 10
4.68416
 20
22.2308
 30
-4.94245e-15
  70
    32
  0
VERTEX
  8
0
  5
244D
 10
4.66601
 20
22.2326
 30
-4.94314e-15
  70
    32
  0
VERTEX
  8
0
  5
244E
 10
4.64785
 20
22.2344
 30
-4.94380e-15
  70
    32
  0
VERTEX
  8
0
  5
244F
 10
4.62970
 20
22.2360
 30
-4.94443e-15
  70
    32
  0
VERTEX
  8
0
  5
2450
 10
4.61154
 20
22.2376
 30
-4.94504e-15
  70
    32
  0
VERTEX
  8
0
  5
2451
 10
4.59338
 20
22.2391
 30
-4.94562e-15
  70
    32
  0
VERTEX
  8
0
  5
2452
 10
4.57523
 20
22.2404
 30
-4.94616e-15
  70
    32
  0
VERTEX
  8
0
  5
2453
 10
4.55707
 20
22.2417
 30
-4.94668e-15
  70
    32
  0
VERTEX
  8
0
  5
2454
 10
4.53892
 20
22.2429
 30
-4.94716e-15
  70
    32
  0
VERTEX
  8
0
  5
2455
 10
4.52076
 20
22.2440
 30
-4.94761e-15
  70
    32
  0
VERTEX
  8
0
  5
2456
 10
4.50261
 20
22.2450
 30
-4.94803e-15
  70
    32
  0
VERTEX
  8
0
  5
2457
 10
4.48445
 20
22.2458
 30
-4.94841e-15
  70
    32
  0
VERTEX
  8
0
  5
2458
 10
4.46629
 20
22.2466
 30
-4.94875e-15
  70
    32
  0
VERTEX
  8
0
  5
2459
 10
4.44814
 20
22.2473
 30
-4.94905e-15
  70
    32
  0
VERTEX
  8
0
  5
245A
 10
4.42998
 20
22.2479
 30
-4.94932e-15
  70
    32
  0
VERTEX
  8
0
  5
245B
 10
4.41183
 20
22.2484
 30
-4.94954e-15
  70
    32
  0
VERTEX
  8
0
  5
245C
 10
4.39367
 20
22.2488
 30
-4.94972e-15
  70
    32
  0
VERTEX
  8
0
  5
245D
 10
4.37552
 20
22.2491
 30
-4.94985e-15
  70
    32
  0
VERTEX
  8
0
  5
245E
 10
4.35736
 20
22.2493
 30
-4.94995e-15
  70
    32
  0
VERTEX
  8
0
  5
245F
 10
4.33920
 20
22.2494
 30
-4.94999e-15
  70
    32
  0
VERTEX
  8
0
  5
2460
 10
4.32105
 20
22.2494
 30
-4.94999e-15
  70
    32
  0
VERTEX
  8
0
  5
2461
 10
4.30289
 20
22.2493
 30
-4.94995e-15
  70
    32
  0
VERTEX
  8
0
  5
2462
 10
4.28474
 20
22.2491
 30
-4.94985e-15
  70
    32
  0
VERTEX
  8
0
  5
2463
 10
4.26658
 20
22.2488
 30
-4.94972e-15
  70
    32
  0
VERTEX
  8
0
  5
2464
 10
4.24843
 20
22.2484
 30
-4.94954e-15
  70
    32
  0
VERTEX
  8
0
  5
2465
 10
4.23027
 20
22.2479
 30
-4.94932e-15
  70
    32
  0
VERTEX
  8
0
  5
2466
 10
4.21212
 20
22.2473
 30
-4.94905e-15
  70
    32
  0
VERTEX
  8
0
  5
2467
 10
4.19396
 20
22.2466
 30
-4.94875e-15
  70
    32
  0
VERTEX
  8
0
  5
2468
 10
4.17580
 20
22.2458
 30
-4.94841e-15
  70
    32
  0
VERTEX
  8
0
  5
2469
 10
4.15765
 20
22.2450
 30
-4.94803e-15
  70
    32
  0
VERTEX
  8
0
  5
246A
 10
4.13949
 20
22.2440
 30
-4.94761e-15
  70
    32
  0
VERTEX
  8
0
  5
246B
 10
4.12134
 20
22.2429
 30
-4.94716e-15
  70
    32
  0
VERTEX
  8
0
  5
246C
 10
4.10318
 20
22.2417
 30
-4.94668e-15
  70
    32
  0
VERTEX
  8
0
  5
246D
 10
4.08503
 20
22.2404
 30
-4.94616e-15
  70
    32
  0
VERTEX
  8
0
  5
246E
 10
4.06687
 20
22.2391
 30
-4.94562e-15
  70
    32
  0
VERTEX
  8
0
  5
246F
 10
4.04871
 20
22.2376
 30
-4.94504e-15
  70
    32
  0
VERTEX
  8
0
  5
2470
 10
4.03056
 20
22.2360
 30
-4.94443e-15
  70
    32
  0
VERTEX
  8
0
  5
2471
 10
4.01240
 20
22.2344
 30
-4.94380e-15
  70
    32
  0
VERTEX
  8
0
  5
2472
 10
3.99425
 20
22.2326
 30
-4.94314e-15
  70
    32
  0
VERTEX
  8
0
  5
2473
 10
3.97609
 20
22.2308
 30
-4.94245e-15
  70
    32
  0
VERTEX
  8
0
  5
2474
 10
3.95794
 20
22.2289
 30
-4.94174e-15
  70
    32
  0
VERTEX
  8
0
  5
2475
 10
3.93978
 20
22.2268
 30
-4.94101e-15
  70
    32
  0
VERTEX
  8
0
  5
2476
 10
3.92162
 20
22.2247
 30
-4.94025e-15
  70
    32
  0
VERTEX
  8
0
  5
2477
 10
3.90347
 20
22.2225
 30
-4.93948e-15
  70
    32
  0
VERTEX
  8
0
  5
2478
 10
3.88531
 20
22.2202
 30
-4.93868e-15
  70
    32
  0
VERTEX
  8
0
  5
2479
 10
3.86716
 20
22.2179
 30
-4.93787e-15
  70
    32
  0
VERTEX
  8
0
  5
247A
 10
3.84900
 20
22.2154
 30
-4.93704e-15
  70
    32
  0
VERTEX
  8
0
  5
247B
 10
3.83085
 20
22.2128
 30
-4.93619e-15
  70
    32
  0
VERTEX
  8
0
  5
247C
 10
3.81269
 20
22.2102
 30
-4.93533e-15
  70
    32
  0
VERTEX
  8
0
  5
247D
 10
3.79453
 20
22.2074
 30
-4.93446e-15
  70
    32
  0
VERTEX
  8
0
  5
247E
 10
3.77638
 20
22.2046
 30
-4.93357e-15
  70
    32
  0
VERTEX
  8
0
  5
247F
 10
3.75822
 20
22.2017
 30
-4.93267e-15
  70
    32
  0
VERTEX
  8
0
  5
2480
 10
3.74007
 20
22.1987
 30
-4.93176e-15
  70
    32
  0
VERTEX
  8
0
  5
2481
 10
3.72191
 20
22.1956
 30
-4.93085e-15
  70
    32
  0
VERTEX
  8
0
  5
2482
 10
3.70376
 20
22.1924
 30
-4.92992e-15
  70
    32
  0
VERTEX
  8
0
  5
2483
 10
3.68560
 20
22.1892
 30
-4.92899e-15
  70
    32
  0
VERTEX
  8
0
  5
2484
 10
3.66745
 20
22.1858
 30
-4.92806e-15
  70
    32
  0
VERTEX
  8
0
  5
2485
 10
3.64929
 20
22.1824
 30
-4.92712e-15
  70
    32
  0
VERTEX
  8
0
  5
2486
 10
3.63113
 20
22.1789
 30
-4.92618e-15
  70
    32
  0
VERTEX
  8
0
  5
2487
 10
3.61298
 20
22.1753
 30
-4.92524e-15
  70
    32
  0
VERTEX
  8
0
  5
2488
 10
3.59482
 20
22.1716
 30
-4.92429e-15
  70
    32
  0
VERTEX
  8
0
  5
2489
 10
3.57667
 20
22.1678
 30
-4.92335e-15
  70
    32
  0
VERTEX
  8
0
  5
248A
 10
3.55851
 20
22.1640
 30
-4.92241e-15
  70
    32
  0
VERTEX
  8
0
  5
248B
 10
3.54036
 20
22.1600
 30
-4.92147e-15
  70
    32
  0
VERTEX
  8
0
  5
248C
 10
3.52220
 20
22.1560
 30
-4.92054e-15
  70
    32
  0
VERTEX
  8
0
  5
248D
 10
3.50404
 20
22.1519
 30
-4.91961e-15
  70
    32
  0
VERTEX
  8
0
  5
248E
 10
3.48589
 20
22.1478
 30
-4.91869e-15
  70
    32
  0
VERTEX
  8
0
  5
248F
 10
3.46773
 20
22.1435
 30
-4.91778e-15
  70
    32
  0
VERTEX
  8
0
  5
2490
 10
3.44958
 20
22.1392
 30
-4.91688e-15
  70
    32
  0
VERTEX
  8
0
  5
2491
 10
3.43142
 20
22.1348
 30
-4.91599e-15
  70
    32
  0
VERTEX
  8
0
  5
2492
 10
3.41327
 20
22.1303
 30
-4.91511e-15
  70
    32
  0
VERTEX
  8
0
  5
2493
 10
3.39511
 20
22.1257
 30
-4.91424e-15
  70
    32
  0
VERTEX
  8
0
  5
2494
 10
3.37695
 20
22.1211
 30
-4.91338e-15
  70
    32
  0
VERTEX
  8
0
  5
2495
 10
3.35880
 20
22.1164
 30
-4.91255e-15
  70
    32
  0
VERTEX
  8
0
  5
2496
 10
3.34064
 20
22.1116
 30
-4.91172e-15
  70
    32
  0
VERTEX
  8
0
  5
2497
 10
3.32249
 20
22.1067
 30
-4.91092e-15
  70
    32
  0
VERTEX
  8
0
  5
2498
 10
3.30433
 20
22.1017
 30
-4.91013e-15
  70
    32
  0
VERTEX
  8
0
  5
2499
 10
3.28618
 20
22.0967
 30
-4.90937e-15
  70
    32
  0
VERTEX
  8
0
  5
249A
 10
3.26802
 20
22.0916
 30
-4.90862e-15
  70
    32
  0
VERTEX
  8
0
  5
249B
 10
3.24986
 20
22.0864
 30
-4.90790e-15
  70
    32
  0
VERTEX
  8
0
  5
249C
 10
3.23171
 20
22.0812
 30
-4.90720e-15
  70
    32
  0
VERTEX
  8
0
  5
249D
 10
3.21355
 20
22.0759
 30
-4.90653e-15
  70
    32
  0
VERTEX
  8
0
  5
249E
 10
3.19540
 20
22.0705
 30
-4.90588e-15
  70
    32
  0
VERTEX
  8
0
  5
249F
 10
3.17724
 20
22.0650
 30
-4.90526e-15
  70
    32
  0
VERTEX
  8
0
  5
24A0
 10
3.15909
 20
22.0595
 30
-4.90467e-15
  70
    32
  0
VERTEX
  8
0
  5
24A1
 10
3.14093
 20
22.0538
 30
-4.90411e-15
  70
    32
  0
VERTEX
  8
0
  5
24A2
 10
3.12278
 20
22.0481
 30
-4.90357e-15
  70
    32
  0
VERTEX
  8
0
  5
24A3
 10
3.10462
 20
22.0424
 30
-4.90307e-15
  70
    32
  0
VERTEX
  8
0
  5
24A4
 10
3.08646
 20
22.0366
 30
-4.90261e-15
  70
    32
  0
VERTEX
  8
0
  5
24A5
 10
3.06831
 20
22.0307
 30
-4.90217e-15
  70
    32
  0
VERTEX
  8
0
  5
24A6
 10
3.05015
 20
22.0247
 30
-4.90178e-15
  70
    32
  0
VERTEX
  8
0
  5
24A7
 10
3.03200
 20
22.0187
 30
-4.90142e-15
  70
    32
  0
VERTEX
  8
0
  5
24A8
 10
3.01384
 20
22.0126
 30
-4.90109e-15
  70
    32
  0
VERTEX
  8
0
  5
24A9
 10
2.99569
 20
22.0064
 30
-4.90081e-15
  70
    32
  0
VERTEX
  8
0
  5
24AA
 10
2.97753
 20
22.0001
 30
-4.90057e-15
  70
    32
  0
VERTEX
  8
0
  5
24AB
 10
2.95937
 20
21.9938
 30
-4.90037e-15
  70
    32
  0
VERTEX
  8
0
  5
24AC
 10
2.94122
 20
21.9874
 30
-4.90021e-15
  70
    32
  0
VERTEX
  8
0
  5
24AD
 10
2.92306
 20
21.9810
 30
-4.90009e-15
  70
    32
  0
VERTEX
  8
0
  5
24AE
 10
2.90491
 20
21.9745
 30
-4.90002e-15
  70
    32
  0
VERTEX
  8
0
  5
24AF
 10
2.88675
 20
21.9679
 30
-4.90000e-15
  70
    32
  0
SEQEND
  8
0
  5
24B0
  0
POLYLINE
  8
0
  5
24B1
  62
3
  66
     1
 10
0.000000
 20
0.000000
 30
0.000000
  70
     8
  0
VERTEX
  8
0
  5
24B2
 10
2.88675
 20
21.9679
 30
-4.90000e-15
  70
    32
  0
VERTEX
  8
0
  5
24B3
 10
2.86422
 20
21.9720
 30
-4.90000e-15
  70
    32
  0
VERTEX
  8
0
  5
24B4
 10
2.84169
 20
21.9761
 30
-4.90000e-15
  70
    32
  0
VERTEX
  8
0
  5
24B5
 10
2.81915
 20
21.9801
 30
-4.90000e-15
  70
    32
  0
VERTEX
  8
0
  5
24B6
 10
2.79660
 20
21.9841
 30
-4.90000e-15
  70
    32
  0
VERTEX
  8
0
  5
24B7
 10
2.77404
 20
21.9881
 30
-4.90000e-15
  70
    32
  0
VERTEX
  8
0
  5
24B8
 10
2.75148
 20
21.9921
 30
-4.90000e-15
  70
    32
  0
VERTEX
  8
0
  5
24B9
 10
2.72890
 20
21.9960
 30
-4.90000e-15
  70
    32
  0
VERTEX
  8
0
  5
24BA
 10
2.70633
 20
22.0000
 30
-4.90000e-15
  70
    32
  0
VERTEX
  8
0
  5
24BB
 10
2.68374
 20
22.0039
 30
-4.90000e-15
  70
    32
  0
VERTEX
  8
0
  5
24BC
 10
2.66115
 20
22.0077
 30
-4.90000e-15
  70
    32
  0
VERTEX
  8
0
  5
24BD
 10
2.63855
 20
22.0116
 30
-4.90000e-15
  70
    32
  0
VERTEX
  8
0
  5
24BE
 10
2.61595
 20
22.0154
 30
-4.90000e-15
  70
    32
  0
VERTEX
  8
0
  5
24BF
 10
2.59334
 20
22.0192
 30
-4.90000e-15
  70
    32
  0
VERTEX
  8
0
  5
24C0
 10
2.57072
 20
22.0230
 30
-4.90000e-15
  70
    32
  0
VERTEX
  8
0
  5
24C1
 10
2.54810
 20
22.0267
 30
-4.90000e-15
  70
    32
  0
VERTEX
  8
0
  5
24C2
 10
2.52548
 20
22.0305
 30
-4.90000e-15
  70
    32
  0
VERTEX
  8
0
  5
24C3
 10
2.50284
 20
22.0342
 30
-4.90000e-15
  70
    32
  0
VERTEX
  8
0
  5
24C4
 10
2.48021
 20
22.0378
 30
-4.90000e-15
  70
    32
  0
VERTEX
  8
0
  5
24C5
 10
2.45756
 20
22.0415
 30
-4.90000e-15
  70
    32
  0
VERTEX
  8
0
  5
24C6
 10
2.43492
 20
22.0451
 30
-4.90000e-15
  70
    32
  0
VERTEX
  8
0
  5
24C7
 10
2.41226
 20
22.0487
 30
-4.90000e-15
  70
    32
  0
VERTEX
  8
0
  5
24C8
 10
2.38961
 20
22.0523
 30
-4.90000e-15
  70
    32
  0
VERTEX
  8
0
  5
24C9
 10
2.36695
 20
22.0558
 30
-4.90000e-15
  70
    32
  0
VERTEX
  8
0
  5
24CA
 10
2.34428
 20
22.0593
 30
-4.90000e-15
  70
    32
  0
VERTEX
  8
0
  5
24CB
 10
2.32161
 20
22.0628
 30
-4.90000e-15
  70
    32
  0
VERTEX
  8
0
  5
24CC
 10
2.29894
 20
22.0663
 30
-4.90000e-15
  70
    32
  0
VERTEX
  8
0
  5
24CD
 10
2.27626
 20
22.0697
 30
-4.90000e-15
  70
    32
  0
VERTEX
  8
0
  5
24CE
 10
2.25358
 20
22.0731
 30
-4.90000e-15
  70
    32
  0
VERTEX
  8
0
  5
24CF
 10
2.23090
 20
22.0765
 30
-4.90000e-15
  70
    32
  0
VERTEX
  8
0
  5
24D0
 10
2.20821
 20
22.0798
 30
-4.90000e-15
  70
    32
  0
VERTEX
  8
0
  5
24D1
 10
2.18552
 20
22.0832
 30
-4.90000e-15
  70
    32
  0
VERTEX
  8
0
  5
24D2
 10
2.16282
 20
22.0864
 30
-4.90000e-15
  70
    32
  0
VERTEX
  8
0
  5
24D3
 10
2.14013
 20
22.0897
 30
-4.90000e-15
  70
    32
  0
VERTEX
  8
0
  5
24D4
 10
2.11743
 20
22.0929
 30
-4.90000e-15
  70
    32
  0
VERTEX
  8
0
  5
24D5
 10
2.09473
 20
22.0962
 30
-4.90000e-15
  70
    32
  0
VERTEX
  8
0
  5
24D6
 10
2.07202
 20
22.0993
 30
-4.90000e-15
  70
    32
  0
VERTEX
  8
0
  5
24D7
 10
2.04931
 20
22.1025
 30
-4.90000e-15
  70
    32
  0
VERTEX
  8
0
  5
24D8
 10
2.02661
 20
22.1056
 30
-4.90000e-15
  70
    32
  0
VERTEX
  8
0
  5
24D9
 10
2.00389
 20
22.1087
 30
-4.90000e-15
  70
    32
  0
VERTEX
  8
0
  5
24DA
 10
1.98118
 20
22.1118
 30
-4.90000e-15
  70
    32
  0
VERTEX
  8
0
  5
24DB
 10
1.95847
 20
22.1148
 30
-4.90000e-15
  70
    32
  0
VERTEX
  8
0
  5
24DC
 10
1.93575
 20
22.1178
 30
-4.90000e-15
  70
    32
  0
VERTEX
  8
0
  5
24DD
 10
1.91304
 20
22.1208
 30
-4.90000e-15
  70
    32
  0
VERTEX
  8
0
  5
24DE
 10
1.89032
 20
22.1237
 30
-4.90000e-15
  70
    32
  0
VERTEX
  8
0
  5
24DF
 10
1.86760
 20
22.1266
 30
-4.90000e-15
  70
    32
  0
VERTEX
  8
0
  5
24E0
 10
1.84488
 20
22.1295
 30
-4.90000e-15
  70
    32
  0
VERTEX
  8
0
  5
24E1
 10
1.82216
 20
22.1323
 30
-4.90000e-15
  70
    32
  0
VERTEX
  8
0
  5
24E2
 10
1.79944
 20
22.1352
 30
-4.90000e-15
  70
    32
  0
VERTEX
  8
0
  5
24E3
 10
1.77672
 20
22.1379
 30
-4.90000e-15
  70
    32
  0
VERTEX
  8
0
  5
24E4
 10
1.75400
 20
22.1407
 30
-4.90000e-15
  70
    32
  0
VERTEX
  8
0
  5
24E5
 10
1.73128
 20
22.1434
 30
-4.90000e-15
  70
    32
  0
VERTEX
  8
0
  5
24E6
 10
1.70856
 20
22.1461
 30
-4.90000e-15
  70
    32
  0
VERTEX
  8
0
  5
24E7
 10
1.68583
 20
22.1488
 30
-4.90000e-15
  70
    32
  0
VERTEX
  8
0
  5
24E8
 10
1.66311
 20
22.1514
 30
-4.90000e-15
  70
    32
  0
VERTEX
  8
0
  5
24E9
 10
1.64039
 20
22.1540
 30
-4.90000e-15
  70
    32
  0
VERTEX
  8
0
  5
24EA
 10
1.61768
 20
22.1566
 30
-4.90000e-15
  70
    32
  0
VERTEX
  8
0
  5
24EB
 10
1.59496
 20
22.1591
 30
-4.90000e-15
  70
    32
  0
VERTEX
  8
0
  5
24EC
 10
1.57224
 20
22.1616
 30
-4.90000e-15
  70
    32
  0
VERTEX
  8
0
  5
24ED
 10
1.54953
 20
22.1641
 30
-4.90000e-15
  70
    32
  0
VERTEX
  8
0
  5
24EE
 10
1.52681
 20
22.1665
 30
-4.90000e-15
  70
    32
  0
VERTEX
  8
0
  5
24EF
 10
1.50410
 20
22.1689
 30
-4.90000e-15
  70
    32
  0
VERTEX
  8
0
  5
24F0
 10
1.48139
 20
22.1713
 30
-4.90000e-15
  70
    32
  0
VERTEX
  8
0
  5
24F1
 10
1.45868
 20
22.1736
 30
-4.90000e-15
  70
    32
  0
VERTEX
  8
0
  5
24F2
 10
1.43597
 20
22.1759
 30
-4.90000e-15
  70
    32
  0
VERTEX
  8
0
  5
24F3
 10
1.41327
 20
22.1782
 30
-4.90000e-15
  70
    32
  0
VERTEX
  8
0
  5
24F4
 10
1.39056
 20
22.1804
 30
-4.90000e-15
  70
    32
  0
VERTEX
  8
0
  5
24F5
 10
1.36786
 20
22.1826
 30
-4.90000e-15
  70
    32
  0
VERTEX
  8
0
  5
24F6
 10
1.34515
 20
22.1847
 30
-4.90000e-15
  70
    32
  0
VERTEX
  8
0
  5
24F7
 10
1.32245
 20
22.1869
 30
-4.90000e-15
  70
    32
  0
VERTEX
  8
0
  5
24F8
 10
1.29975
 20
22.1890
 30
-4.90000e-15
  70
    32
  0
VERTEX
  8
0
  5
24F9
 10
1.27705
 20
22.1910
 30
-4.90000e-15
  70
    32
  0
VERTEX
  8
0
  5
24FA
 10
1.25435
 20
22.1930
 30
-4.90000e-15
  70
    32
  0
VERTEX
  8
0
  5
24FB
 10
1.23165
 20
22.1950
 30
-4.90000e-15
  70
    32
  0
VERTEX
  8
0
  5
24FC
 10
1.20895
 20
22.1970
 30
-4.90000e-15
  70
    32
  0
VERTEX
  8
0
  5
24FD
 10
1.18625
 20
22.1989
 30
-4.90000e-15
  70
    32
  0
VERTEX
  8
0
  5
24FE
 10
1.16355
 20
22.2008
 30
-4.90000e-15
  70
    32
  0
VERTEX
  8
0
  5
24FF
 10
1.14085
 20
22.2026
 30
-4.90000e-15
  70
    32
  0
VERTEX
  8
0
  5
2500
 10
1.11816
 20
22.2045
 30
-4.90000e-15
  70
    32
  0
VERTEX
  8
0
  5
2501
 10
1.09546
 20
22.2062
 30
-4.90000e-15
  70
    32
  0
VERTEX
  8
0
  5
2502
 10
1.07277
 20
22.2080
 30
-4.90000e-15
  70
    32
  0
VERTEX
  8
0
  5
2503
 10
1.05007
 20
22.2097
 30
-4.90000e-15
  70
    32
  0
VERTEX
  8
0
  5
2504
 10
1.02738
 20
22.2114
 30
-4.90000e-15
  70
    32
  0
VERTEX
  8
0
  5
2505
 10
1.00469
 20
22.2130
 30
-4.90000e-15
  70
    32
  0
VERTEX
  8
0
  5
2506
 10
0.981998
 20
22.2146
 30
-4.90000e-15
  70
    32
  0
VERTEX
  8
0
  5
2507
 10
0.959307
 20
22.2162
 30
-4.90000e-15
  70
    32
  0
VERTEX
  8
0
  5
2508
 10
0.936617
 20
22.2177
 30
-4.90000e-15
  70
    32
  0
VERTEX
  8
0
  5
2509
 10
0.913928
 20
22.2192
 30
-4.90000e-15
  70
    32
  0
VERTEX
  8
0
  5
250A
 10
0.891240
 20
22.2207
 30
-4.90000e-15
  70
    32
  0
VERTEX
  8
0
  5
250B
 10
0.868552
 20
22.2221
 30
-4.90000e-15
  70
    32
  0
VERTEX
  8
0
  5
250C
 10
0.845866
 20
22.2235
 30
-4.90000e-15
  70
    32
  0
VERTEX
  8
0
  5
250D
 10
0.823180
 20
22.2249
 30
-4.90000e-15
  70
    32
  0
VERTEX
  8
0
  5
250E
 10
0.800495
 20
22.2262
 30
-4.90000e-15
  70
    32
  0
VERTEX
  8
0
  5
250F
 10
0.777810
 20
22.2275
 30
-4.90000e-15
  70
    32
  0
VERTEX
  8
0
  5
2510
 10
0.755127
 20
22.2287
 30
-4.90000e-15
  70
    32
  0
VERTEX
  8
0
  5
2511
 10
0.732444
 20
22.2299
 30
-4.90000e-15
  70
    32
  0
VERTEX
  8
0
  5
2512
 10
0.709762
 20
22.2311
 30
-4.90000e-15
  70
    32
  0
VERTEX
  8
0
  5
2513
 10
0.687081
 20
22.2323
 30
-4.90000e-15
  70
    32
  0
VERTEX
  8
0
  5
2514
 10
0.664400
 20
22.2334
 30
-4.90000e-15
  70
    32
  0
VERTEX
  8
0
  5
2515
 10
0.641720
 20
22.2344
 30
-4.90000e-15
  70
    32
  0
VERTEX
  8
0
  5
2516
 10
0.619042
 20
22.2355
 30
-4.90000e-15
  70
    32
  0
VERTEX
  8
0
  5
2517
 10
0.596364
 20
22.2365
 30
-4.90000e-15
  70
    32
  0
VERTEX
  8
0
  5
2518
 10
0.573686
 20
22.2374
 30
-4.90000e-15
  70
    32
  0
VERTEX
  8
0
  5
2519
 10
0.551010
 20
22.2384
 30
-4.90000e-15
  70
    32
  0
VERTEX
  8
0
  5
251A
 10
0.528334
 20
22.2392
 30
-4.90000e-15
  70
    32
  0
VERTEX
  8
0
  5
251B
 10
0.505659
 20
22.2401
 30
-4.90000e-15
  70
    32
  0
VERTEX
  8
0
  5
251C
 10
0.482985
 20
22.2409
 30
-4.90000e-15
  70
    32
  0
VERTEX
  8
0
  5
251D
 10
0.460312
 20
22.2417
 30
-4.90000e-15
  70
    32
  0
VERTEX
  8
0
  5
251E
 10
0.437640
 20
22.2424
 30
-4.90000e-15
  70
    32
  0
VERTEX
  8
0
  5
251F
 10
0.414968
 20
22.2431
 30
-4.90000e-15
  70
    32
  0
VERTEX
  8
0
  5
2520
 10
0.392297
 20
22.2438
 30
-4.90000e-15
  70
    32
  0
VERTEX
  8
0
  5
2521
 10
0.369627
 20
22.2444
 30
-4.90000e-15
  70
    32
  0
VERTEX
  8
0
  5
2522
 10
0.346958
 20
22.2450
 30
-4.90000e-15
  70
    32
  0
VERTEX
  8
0
  5
2523
 10
0.324290
 20
22.2456
 30
-4.90000e-15
  70
    32
  0
VERTEX
  8
0
  5
2524
 10
0.301622
 20
22.2461
 30
-4.90000e-15
  70
    32
  0
VERTEX
  8
0
  5
2525
 10
0.278955
 20
22.2466
 30
-4.90000e-15
  70
    32
  0
VERTEX
  8
0
  5
2526
 10
0.256289
 20
22.2470
 30
-4.90000e-15
  70
    32
  0
VERTEX
  8
0
  5
2527
 10
0.233624
 20
22.2474
 30
-4.90000e-15
  70
    32
  0
VERTEX
  8
0
  5
2528
 10
0.210960
 20
22.2478
 30
-4.90000e-15
  70
    32
  0
VERTEX
  8
0
  5
2529
 10
0.188297
 20
22.2481
 30
-4.90000e-15
  70
    32
  0
VERTEX
  8
0
  5
252A
 10
0.165634
 20
22.2484
 30
-4.90000e-15
  70
    32
  0
VERTEX
  8
0
  5
252B
 10
0.142972
 20
22.2487
 30
-4.90000e-15
  70
    32
  0
VERTEX
  8
0
  5
252C
 10
0.120311
 20
22.2489
 30
-4.90000e-15
  70
    32
  0
VERTEX
  8
0
  5
252D
 10
0.0976511
 20
22.2491
 30
-4.90000e-15
  70
    32
  0
VERTEX
  8
0
  5
252E
 10
0.0749918
 20
22.2492
 30
-4.90000e-15
  70
    32
  0
VERTEX
  8
0
  5
252F
 10
0.0523333
 20
22.2493
 30
-4.90000e-15
  70
    32
  0
VERTEX
  8
0
  5
2530
 10
0.0296757
 20
22.2494
 30
-4.90000e-15
  70
    32
  0
VERTEX
  8
0
  5
2531
 10
0.00701886
 20
22.2494
 30
-4.90000e-15
  70
    32
  0
VERTEX
  8
0
  5
2532
 10
-0.0156371
 20
22.2494
 30
-4.90000e-15
  70
    32
  0
VERTEX
  8
0
  5
2533
 10
-0.0382925
 20
22.2494
 30
-4.90000e-15
  70
    32
  0
VERTEX
  8
0
  5
2534
 10
-0.0609474
 20
22.2493
 30
-4.90000e-15
  70
    32
  0
VERTEX
  8
0
  5
2535
 10
-0.0836016
 20
22.2492
 30
-4.90000e-15
  70
    32
  0
VERTEX
  8
0
  5
2536
 10
-0.106255
 20
22.2490
 30
-4.90000e-15
  70
    32
  0
VERTEX
  8
0
  5
2537
 10
-0.128908
 20
22.2488
 30
-4.90000e-15
  70
    32
  0
VERTEX
  8
0
  5
2538
 10
-0.151561
 20
22.2486
 30
-4.90000e-15
  70
    32
  0
VERTEX
  8
0
  5
2539
 10
-0.174213
 20
22.2483
 30
-4.90000e-15
  70
    32
  0
VERTEX
  8
0
  5
253A
 10
-0.196864
 20
22.2480
 30
-4.90000e-15
  70
    32
  0
VERTEX
  8
0
  5
253B
 10
-0.219514
 20
22.2476
 30
-4.90000e-15
  70
    32
  0
VERTEX
  8
0
  5
253C
 10
-0.242164
 20
22.2472
 30
-4.90000e-15
  70
    32
  0
VERTEX
  8
0
  5
253D
 10
-0.264814
 20
22.2468
 30
-4.90000e-15
  70
    32
  0
VERTEX
  8
0
  5
253E
 10
-0.287463
 20
22.2463
 30
-4.90000e-15
  70
    32
  0
VERTEX
  8
0
  5
253F
 10
-0.310111
 20
22.2458
 30
-4.90000e-15
  70
    32
  0
VERTEX
  8
0
  5
2540
 10
-0.332758
 20
22.2453
 30
-4.90000e-15
  70
    32
  0
VERTEX
  8
0
  5
2541
 10
-0.355405
 20
22.2447
 30
-4.90000e-15
  70
    32
  0
VERTEX
  8
0
  5
2542
 10
-0.378051
 20
22.2441
 30
-4.90000e-15
  70
    32
  0
VERTEX
  8
0
  5
2543
 10
-0.400697
 20
22.2434
 30
-4.90000e-15
  70
    32
  0
VERTEX
  8
0
  5
2544
 10
-0.423342
 20
22.2427
 30
-4.90000e-15
  70
    32
  0
VERTEX
  8
0
  5
2545
 10
-0.445986
 20
22.2420
 30
-4.90000e-15
  70
    32
  0
VERTEX
  8
0
  5
2546
 10
-0.468630
 20
22.2412
 30
-4.90000e-15
  70
    32
  0
VERTEX
  8
0
  5
2547
 10
-0.491272
 20
22.2404
 30
-4.90000e-15
  70
    32
  0
VERTEX
  8
0
  5
2548
 10
-0.513915
 20
22.2396
 30
-4.90000e-15
  70
    32
  0
VERTEX
  8
0
  5
2549
 10
-0.536556
 20
22.2387
 30
-4.90000e-15
  70
    32
  0
VERTEX
  8
0
  5
254A
 10
-0.559197
 20
22.2378
 30
-4.90000e-15
  70
    32
  0
VERTEX
  8
0
  5
254B
 10
-0.581837
 20
22.2368
 30
-4.90000e-15
  70
    32
  0
VERTEX
  8
0
  5
254C
 10
-0.604477
 20
22.2358
 30
-4.90000e-15
  70
    32
  0
VERTEX
  8
0
  5
254D
 10
-0.627116
 20
22.2348
 30
-4.90000e-15
  70
    32
  0
VERTEX
  8
0
  5
254E
 10
-0.649754
 20
22.2337
 30
-4.90000e-15
  70
    32
  0
VERTEX
  8
0
  5
254F
 10
-0.672391
 20
22.2326
 30
-4.90000e-15
  70
    32
  0
VERTEX
  8
0
  5
2550
 10
-0.695028
 20
22.2315
 30
-4.90000e-15
  70
    32
  0
VERTEX
  8
0
  5
2551
 10
-0.717664
 20
22.2303
 30
-4.90000e-15
  70
    32
  0
VERTEX
  8
0
  5
2552
 10
-0.740299
 20
22.2291
 30
-4.90000e-15
  70
    32
  0
VERTEX
  8
0
  5
2553
 10
-0.762934
 20
22.2279
 30
-4.90000e-15
  70
    32
  0
VERTEX
  8
0
  5
2554
 10
-0.785568
 20
22.2266
 30
-4.90000e-15
  70
    32
  0
VERTEX
  8
0
  5
2555
 10
-0.808201
 20
22.2253
 30
-4.90000e-15
  70
    32
  0
VERTEX
  8
0
  5
2556
 10
-0.830833
 20
22.2239
 30
-4.90000e-15
  70
    32
  0
VERTEX
  8
0
  5
2557
 10
-0.853465
 20
22.2225
 30
-4.90000e-15
  70
    32
  0
VERTEX
  8
0
  5
2558
 10
-0.876096
 20
22.2211
 30
-4.90000e-15
  70
    32
  0
VERTEX
  8
0
  5
2559
 10
-0.898726
 20
22.2197
 30
-4.90000e-15
  70
    32
  0
VERTEX
  8
0
  5
255A
 10
-0.921356
 20
22.2182
 30
-4.90000e-15
  70
    32
  0
VERTEX
  8
0
  5
255B
 10
-0.943984
 20
22.2166
 30
-4.90000e-15
  70
    32
  0
VERTEX
  8
0
  5
255C
 10
-0.966612
 20
22.2151
 30
-4.90000e-15
  70
    32
  0
VERTEX
  8
0
  5
255D
 10
-0.989239
 20
22.2135
 30
-4.90000e-15
  70
    32
  0
VERTEX
  8
0
  5
255E
 10
-1.01187
 20
22.2119
 30
-4.90000e-15
  70
    32
  0
VERTEX
  8
0
  5
255F
 10
-1.03449
 20
22.2102
 30
-4.90000e-15
  70
    32
  0
VERTEX
  8
0
  5
2560
 10
-1.05712
 20
22.2085
 30
-4.90000e-15
  70
    32
  0
VERTEX
  8
0
  5
2561
 10
-1.07974
 20
22.2068
 30
-4.90000e-15
  70
    32
  0
VERTEX
  8
0
  5
2562
 10
-1.10236
 20
22.2050
 30
-4.90000e-15
  70
    32
  0
VERTEX
  8
0
  5
2563
 10
-1.12499
 20
22.2032
 30
-4.90000e-15
  70
    32
  0
VERTEX
  8
0
  5
2564
 10
-1.14761
 20
22.2014
 30
-4.90000e-15
  70
    32
  0
VERTEX
  8
0
  5
2565
 10
-1.17023
 20
22.1995
 30
-4.90000e-15
  70
    32
  0
VERTEX
  8
0
  5
2566
 10
-1.19285
 20
22.1976
 30
-4.90000e-15
  70
    32
  0
VERTEX
  8
0
  5
2567
 10
-1.21547
 20
22.1957
 30
-4.90000e-15
  70
    32
  0
VERTEX
  8
0
  5
2568
 10
-1.23809
 20
22.1937
 30
-4.90000e-15
  70
    32
  0
VERTEX
  8
0
  5
2569
 10
-1.26070
 20
22.1917
 30
-4.90000e-15
  70
    32
  0
VERTEX
  8
0
  5
256A
 10
-1.28332
 20
22.1897
 30
-4.90000e-15
  70
    32
  0
VERTEX
  8
0
  5
256B
 10
-1.30594
 20
22.1876
 30
-4.90000e-15
  70
    32
  0
VERTEX
  8
0
  5
256C
 10
-1.32855
 20
22.1855
 30
-4.90000e-15
  70
    32
  0
VERTEX
  8
0
  5
256D
 10
-1.35117
 20
22.1834
 30
-4.90000e-15
  70
    32
  0
VERTEX
  8
0
  5
256E
 10
-1.37378
 20
22.1812
 30
-4.90000e-15
  70
    32
  0
VERTEX
  8
0
  5
256F
 10
-1.39639
 20
22.1790
 30
-4.90000e-15
  70
    32
  0
VERTEX
  8
0
  5
2570
 10
-1.41901
 20
22.1768
 30
-4.90000e-15
  70
    32
  0
VERTEX
  8
0
  5
2571
 10
-1.44162
 20
22.1745
 30
-4.90000e-15
  70
    32
  0
VERTEX
  8
0
  5
2572
 10
-1.46423
 20
22.1722
 30
-4.90000e-15
  70
    32
  0
VERTEX
  8
0
  5
2573
 10
-1.48684
 20
22.1699
 30
-4.90000e-15
  70
    32
  0
VERTEX
  8
0
  5
2574
 10
-1.50944
 20
22.1676
 30
-4.90000e-15
  70
    32
  0
VERTEX
  8
0
  5
2575
 10
-1.53205
 20
22.1652
 30
-4.90000e-15
  70
    32
  0
VERTEX
  8
0
  5
2576
 10
-1.55466
 20
22.1628
 30
-4.90000e-15
  70
    32
  0
VERTEX
  8
0
  5
2577
 10
-1.57726
 20
22.1603
 30
-4.90000e-15
  70
    32
  0
VERTEX
  8
0
  5
2578
 10
-1.59987
 20
22.1578
 30
-4.90000e-15
  70
    32
  0
VERTEX
  8
0
  5
2579
 10
-1.62247
 20
22.1553
 30
-4.90000e-15
  70
    32
  0
VERTEX
  8
0
  5
257A
 10
-1.64508
 20
22.1528
 30
-4.90000e-15
  70
    32
  0
VERTEX
  8
0
  5
257B
 10
-1.66768
 20
22.1502
 30
-4.90000e-15
  70
    32
  0
VERTEX
  8
0
  5
257C
 10
-1.69028
 20
22.1476
 30
-4.90000e-15
  70
    32
  0
VERTEX
  8
0
  5
257D
 10
-1.71288
 20
22.1449
 30
-4.90000e-15
  70
    32
  0
VERTEX
  8
0
  5
257E
 10
-1.73548
 20
22.1423
 30
-4.90000e-15
  70
    32
  0
VERTEX
  8
0
  5
257F
 10
-1.75808
 20
22.1396
 30
-4.90000e-15
  70
    32
  0
VERTEX
  8
0
  5
2580
 10
-1.78068
 20
22.1368
 30
-4.90000e-15
  70
    32
  0
VERTEX
  8
0
  5
2581
 10
-1.80327
 20
22.1341
 30
-4.90000e-15
  70
    32
  0
VERTEX
  8
0
  5
2582
 10
-1.82587
 20
22.1313
 30
-4.90000e-15
  70
    32
  0
VERTEX
  8
0
  5
2583
 10
-1.84846
 20
22.1285
 30
-4.90000e-15
  70
    32
  0
VERTEX
  8
0
  5
2584
 10
-1.87106
 20
22.1256
 30
-4.90000e-15
  70
    32
  0
VERTEX
  8
0
  5
2585
 10
-1.89365
 20
22.1227
 30
-4.90000e-15
  70
    32
  0
VERTEX
  8
0
  5
2586
 10
-1.91624
 20
22.1198
 30
-4.90000e-15
  70
    32
  0
VERTEX
  8
0
  5
2587
 10
-1.93883
 20
22.1169
 30
-4.90000e-15
  70
    32
  0
VERTEX
  8
0
  5
2588
 10
-1.96142
 20
22.1139
 30
-4.90000e-15
  70
    32
  0
VERTEX
  8
0
  5
2589
 10
-1.98401
 20
22.1109
 30
-4.90000e-15
  70
    32
  0
VERTEX
  8
0
  5
258A
 10
-2.00660
 20
22.1079
 30
-4.90000e-15
  70
    32
  0
VERTEX
  8
0
  5
258B
 10
-2.02919
 20
22.1048
 30
-4.90000e-15
  70
    32
  0
VERTEX
  8
0
  5
258C
 10
-2.05178
 20
22.1017
 30
-4.90000e-15
  70
    32
  0
VERTEX
  8
0
  5
258D
 10
-2.07436
 20
22.0986
 30
-4.90000e-15
  70
    32
  0
VERTEX
  8
0
  5
258E
 10
-2.09695
 20
22.0955
 30
-4.90000e-15
  70
    32
  0
VERTEX
  8
0
  5
258F
 10
-2.11953
 20
22.0923
 30
-4.90000e-15
  70
    32
  0
VERTEX
  8
0
  5
2590
 10
-2.14211
 20
22.0891
 30
-4.90000e-15
  70
    32
  0
VERTEX
  8
0
  5
2591
 10
-2.16469
 20
22.0858
 30
-4.90000e-15
  70
    32
  0
VERTEX
  8
0
  5
2592
 10
-2.18727
 20
22.0826
 30
-4.90000e-15
  70
    32
  0
VERTEX
  8
0
  5
2593
 10
-2.20985
 20
22.0793
 30
-4.90000e-15
  70
    32
  0
VERTEX
  8
0
  5
2594
 10
-2.23243
 20
22.0760
 30
-4.90000e-15
  70
    32
  0
VERTEX
  8
0
  5
2595
 10
-2.25501
 20
22.0726
 30
-4.90000e-15
  70
    32
  0
VERTEX
  8
0
  5
2596
 10
-2.27759
 20
22.0692
 30
-4.90000e-15
  70
    32
  0
VERTEX
  8
0
  5
2597
 10
-2.30016
 20
22.0658
 30
-4.90000e-15
  70
    32
  0
VERTEX
  8
0
  5
2598
 10
-2.32274
 20
22.0624
 30
-4.90000e-15
  70
    32
  0
VERTEX
  8
0
  5
2599
 10
-2.34531
 20
22.0590
 30
-4.90000e-15
  70
    32
  0
VERTEX
  8
0
  5
259A
 10
-2.36788
 20
22.0555
 30
-4.90000e-15
  70
    32
  0
VERTEX
  8
0
  5
259B
 10
-2.39045
 20
22.0520
 30
-4.90000e-15
  70
    32
  0
VERTEX
  8
0
  5
259C
 10
-2.41302
 20
22.0484
 30
-4.90000e-15
  70
    32
  0
VERTEX
  8
0
  5
259D
 10
-2.43559
 20
22.0448
 30
-4.90000e-15
  70
    32
  0
VERTEX
  8
0
  5
259E
 10
-2.45816
 20
22.0413
 30
-4.90000e-15
  70
    32
  0
VERTEX
  8
0
  5
259F
 10
-2.48073
 20
22.0376
 30
-4.90000e-15
  70
    32
  0
VERTEX
  8
0
  5
25A0
 10
-2.50329
 20
22.0340
 30
-4.90000e-15
  70
    32
  0
VERTEX
  8
0
  5
25A1
 10
-2.52586
 20
22.0303
 30
-4.90000e-15
  70
    32
  0
VERTEX
  8
0
  5
25A2
 10
-2.54842
 20
22.0266
 30
-4.90000e-15
  70
    32
  0
VERTEX
  8
0
  5
25A3
 10
-2.57099
 20
22.0229
 30
-4.90000e-15
  70
    32
  0
VERTEX
  8
0
  5
25A4
 10
-2.59355
 20
22.0191
 30
-4.90000e-15
  70
    32
  0
VERTEX
  8
0
  5
25A5
 10
-2.61611
 20
22.0153
 30
-4.90000e-15
  70
    32
  0
VERTEX
  8
0
  5
25A6
 10
-2.63867
 20
22.0115
 30
-4.90000e-15
  70
    32
  0
VERTEX
  8
0
  5
25A7
 10
-2.66123
 20
22.0077
 30
-4.90000e-15
  70
    32
  0
VERTEX
  8
0
  5
25A8
 10
-2.68378
 20
22.0038
 30
-4.90000e-15
  70
    32
  0
VERTEX
  8
0
  5
25A9
 10
-2.70634
 20
21.9999
 30
-4.90000e-15
  70
    32
  0
VERTEX
  8
0
  5
25AA
 10
-2.72890
 20
21.9960
 30
-4.90000e-15
  70
    32
  0
VERTEX
  8
0
  5
25AB
 10
-2.75145
 20
21.9921
 30
-4.90000e-15
  70
    32
  0
VERTEX
  8
0
  5
25AC
 10
-2.77400
 20
21.9881
 30
-4.90000e-15
  70
    32
  0
VERTEX
  8
0
  5
25AD
 10
-2.79655
 20
21.9841
 30
-4.90000e-15
  70
    32
  0
VERTEX
  8
0
  5
25AE
 10
-2.81911
 20
21.9801
 30
-4.90000e-15
  70
    32
  0
VERTEX
  8
0
  5
25AF
 10
-2.84166
 20
21.9761
 30
-4.90000e-15
  70
    32
  0
VERTEX
  8
0
  5
25B0
 10
-2.86420
 20
21.9720
 30
-4.90000e-15
  70
    32
  0
VERTEX
  8
0
  5
25B1
 10
-2.88675
 20
21.9679
 30
-4.90000e-15
  70
    32
  0
SEQEND
  8
0
  5
25B2
  0
LINE
  5
1A6D
  8
0
  6
CONTINUOUS
 62
     3
 10
6.5499999999999989
 20
20.5500000000000291
 30
-0.0000000000000046
 11
-6.5499999999999989
 21
20.5500000000000291
 31
-0.0000000000000046
210
0.0
220
1.0
230
-0.0000000000000002
  0
POLYLINE
  8
0
  5
25B3
  62
3
  66
     1
 10
0.000000
 20
0.000000
 30
0.000000
  70
     8
  0
VERTEX
  8
0
  5
25B4
 10
2.88675
 20
26.3427
 30
-5.80000e-15
  70
    32
  0
VERTEX
  8
0
  5
25B5
 10
2.89812
 20
26.3458
 30
-5.80234e-15
  70
    32
  0
VERTEX
  8
0
  5
25B6
 10
2.90948
 20
26.3488
 30
-5.80465e-15
  70
    32
  0
VERTEX
  8
0
  5
25B7
 10
2.92085
 20
26.3518
 30
-5.80692e-15
  70
    32
  0
VERTEX
  8
0
  5
25B8
 10
2.93221
 20
26.3548
 30
-5.80915e-15
  70
    32
  0
VERTEX
  8
0
  5
25B9
 10
2.94358
 20
26.3577
 30
-5.81135e-15
  70
    32
  0
VERTEX
  8
0
  5
25BA
 10
2.95494
 20
26.3607
 30
-5.81351e-15
  70
    32
  0
VERTEX
  8
0
  5
25BB
 10
2.96631
 20
26.3636
 30
-5.81564e-15
  70
    32
  0
VERTEX
  8
0
  5
25BC
 10
2.97767
 20
26.3665
 30
-5.81773e-15
  70
    32
  0
VERTEX
  8
0
  5
25BD
 10
2.98904
 20
26.3694
 30
-5.81979e-15
  70
    32
  0
VERTEX
  8
0
  5
25BE
 10
3.00040
 20
26.3722
 30
-5.82181e-15
  70
    32
  0
VERTEX
  8
0
  5
25BF
 10
3.01177
 20
26.3751
 30
-5.82380e-15
  70
    32
  0
VERTEX
  8
0
  5
25C0
 10
3.02313
 20
26.3779
 30
-5.82575e-15
  70
    32
  0
VERTEX
  8
0
  5
25C1
 10
3.03450
 20
26.3807
 30
-5.82767e-15
  70
    32
  0
VERTEX
  8
0
  5
25C2
 10
3.04586
 20
26.3835
 30
-5.82956e-15
  70
    32
  0
VERTEX
  8
0
  5
25C3
 10
3.05723
 20
26.3863
 30
-5.83141e-15
  70
    32
  0
VERTEX
  8
0
  5
25C4
 10
3.06859
 20
26.3890
 30
-5.83323e-15
  70
    32
  0
VERTEX
  8
0
  5
25C5
 10
3.07996
 20
26.3917
 30
-5.83502e-15
  70
    32
  0
VERTEX
  8
0
  5
25C6
 10
3.09132
 20
26.3944
 30
-5.83678e-15
  70
    32
  0
VERTEX
  8
0
  5
25C7
 10
3.10269
 20
26.3971
 30
-5.83850e-15
  70
    32
  0
VERTEX
  8
0
  5
25C8
 10
3.11405
 20
26.3998
 30
-5.84019e-15
  70
    32
  0
VERTEX
  8
0
  5
25C9
 10
3.12542
 20
26.4024
 30
-5.84186e-15
  70
    32
  0
VERTEX
  8
0
  5
25CA
 10
3.13678
 20
26.4050
 30
-5.84349e-15
  70
    32
  0
VERTEX
  8
0
  5
25CB
 10
3.14815
 20
26.4076
 30
-5.84509e-15
  70
    32
  0
VERTEX
  8
0
  5
25CC
 10
3.15952
 20
26.4102
 30
-5.84665e-15
  70
    32
  0
VERTEX
  8
0
  5
25CD
 10
3.17088
 20
26.4128
 30
-5.84819e-15
  70
    32
  0
VERTEX
  8
0
  5
25CE
 10
3.18225
 20
26.4153
 30
-5.84970e-15
  70
    32
  0
VERTEX
  8
0
  5
25CF
 10
3.19361
 20
26.4178
 30
-5.85118e-15
  70
    32
  0
VERTEX
  8
0
  5
25D0
 10
3.20498
 20
26.4203
 30
-5.85263e-15
  70
    32
  0
VERTEX
  8
0
  5
25D1
 10
3.21634
 20
26.4228
 30
-5.85405e-15
  70
    32
  0
VERTEX
  8
0
  5
25D2
 10
3.22771
 20
26.4253
 30
-5.85544e-15
  70
    32
  0
VERTEX
  8
0
  5
25D3
 10
3.23907
 20
26.4277
 30
-5.85681e-15
  70
    32
  0
VERTEX
  8
0
  5
25D4
 10
3.25044
 20
26.4301
 30
-5.85814e-15
  70
    32
  0
VERTEX
  8
0
  5
25D5
 10
3.26180
 20
26.4325
 30
-5.85945e-15
  70
    32
  0
VERTEX
  8
0
  5
25D6
 10
3.27317
 20
26.4349
 30
-5.86073e-15
  70
    32
  0
VERTEX
  8
0
  5
25D7
 10
3.28453
 20
26.4372
 30
-5.86199e-15
  70
    32
  0
VERTEX
  8
0
  5
25D8
 10
3.29590
 20
26.4395
 30
-5.86321e-15
  70
    32
  0
VERTEX
  8
0
  5
25D9
 10
3.30726
 20
26.4419
 30
-5.86441e-15
  70
    32
  0
VERTEX
  8
0
  5
25DA
 10
3.31863
 20
26.4441
 30
-5.86558e-15
  70
    32
  0
VERTEX
  8
0
  5
25DB
 10
3.32999
 20
26.4464
 30
-5.86673e-15
  70
    32
  0
VERTEX
  8
0
  5
25DC
 10
3.34136
 20
26.4486
 30
-5.86785e-15
  70
    32
  0
VERTEX
  8
0
  5
25DD
 10
3.35272
 20
26.4508
 30
-5.86895e-15
  70
    32
  0
VERTEX
  8
0
  5
25DE
 10
3.36409
 20
26.4530
 30
-5.87002e-15
  70
    32
  0
VERTEX
  8
0
  5
25DF
 10
3.37545
 20
26.4552
 30
-5.87106e-15
  70
    32
  0
VERTEX
  8
0
  5
25E0
 10
3.38682
 20
26.4574
 30
-5.87209e-15
  70
    32
  0
VERTEX
  8
0
  5
25E1
 10
3.39818
 20
26.4595
 30
-5.87308e-15
  70
    32
  0
VERTEX
  8
0
  5
25E2
 10
3.40955
 20
26.4616
 30
-5.87406e-15
  70
    32
  0
VERTEX
  8
0
  5
25E3
 10
3.42091
 20
26.4637
 30
-5.87500e-15
  70
    32
  0
VERTEX
  8
0
  5
25E4
 10
3.43228
 20
26.4657
 30
-5.87593e-15
  70
    32
  0
VERTEX
  8
0
  5
25E5
 10
3.44364
 20
26.4678
 30
-5.87683e-15
  70
    32
  0
VERTEX
  8
0
  5
25E6
 10
3.45501
 20
26.4698
 30
-5.87771e-15
  70
    32
  0
VERTEX
  8
0
  5
25E7
 10
3.46637
 20
26.4718
 30
-5.87857e-15
  70
    32
  0
VERTEX
  8
0
  5
25E8
 10
3.47774
 20
26.4738
 30
-5.87940e-15
  70
    32
  0
VERTEX
  8
0
  5
25E9
 10
3.48910
 20
26.4757
 30
-5.88022e-15
  70
    32
  0
VERTEX
  8
0
  5
25EA
 10
3.50047
 20
26.4776
 30
-5.88101e-15
  70
    32
  0
VERTEX
  8
0
  5
25EB
 10
3.51184
 20
26.4795
 30
-5.88178e-15
  70
    32
  0
VERTEX
  8
0
  5
25EC
 10
3.52320
 20
26.4814
 30
-5.88253e-15
  70
    32
  0
VERTEX
  8
0
  5
25ED
 10
3.53457
 20
26.4832
 30
-5.88326e-15
  70
    32
  0
VERTEX
  8
0
  5
25EE
 10
3.54593
 20
26.4851
 30
-5.88396e-15
  70
    32
  0
VERTEX
  8
0
  5
25EF
 10
3.55730
 20
26.4869
 30
-5.88465e-15
  70
    32
  0
VERTEX
  8
0
  5
25F0
 10
3.56866
 20
26.4887
 30
-5.88532e-15
  70
    32
  0
VERTEX
  8
0
  5
25F1
 10
3.58003
 20
26.4904
 30
-5.88596e-15
  70
    32
  0
VERTEX
  8
0
  5
25F2
 10
3.59139
 20
26.4922
 30
-5.88659e-15
  70
    32
  0
VERTEX
  8
0
  5
25F3
 10
3.60276
 20
26.4939
 30
-5.88720e-15
  70
    32
  0
VERTEX
  8
0
  5
25F4
 10
3.61412
 20
26.4956
 30
-5.88779e-15
  70
    32
  0
VERTEX
  8
0
  5
25F5
 10
3.62549
 20
26.4972
 30
-5.88837e-15
  70
    32
  0
VERTEX
  8
0
  5
25F6
 10
3.63685
 20
26.4989
 30
-5.88892e-15
  70
    32
  0
VERTEX
  8
0
  5
25F7
 10
3.64822
 20
26.5005
 30
-5.88946e-15
  70
    32
  0
VERTEX
  8
0
  5
25F8
 10
3.65958
 20
26.5021
 30
-5.88997e-15
  70
    32
  0
VERTEX
  8
0
  5
25F9
 10
3.67095
 20
26.5036
 30
-5.89047e-15
  70
    32
  0
VERTEX
  8
0
  5
25FA
 10
3.68231
 20
26.5052
 30
-5.89096e-15
  70
    32
  0
VERTEX
  8
0
  5
25FB
 10
3.69368
 20
26.5067
 30
-5.89143e-15
  70
    32
  0
VERTEX
  8
0
  5
25FC
 10
3.70504
 20
26.5082
 30
-5.89188e-15
  70
    32
  0
VERTEX
  8
0
  5
25FD
 10
3.71641
 20
26.5096
 30
-5.89231e-15
  70
    32
  0
VERTEX
  8
0
  5
25FE
 10
3.72777
 20
26.5111
 30
-5.89273e-15
  70
    32
  0
VERTEX
  8
0
  5
25FF
 10
3.73914
 20
26.5125
 30
-5.89314e-15
  70
    32
  0
VERTEX
  8
0
  5
2600
 10
3.75050
 20
26.5139
 30
-5.89352e-15
  70
    32
  0
VERTEX
  8
0
  5
2601
 10
3.76187
 20
26.5153
 30
-5.89390e-15
  70
    32
  0
VERTEX
  8
0
  5
2602
 10
3.77323
 20
26.5166
 30
-5.89426e-15
  70
    32
  0
VERTEX
  8
0
  5
2603
 10
3.78460
 20
26.5179
 30
-5.89460e-15
  70
    32
  0
VERTEX
  8
0
  5
2604
 10
3.79596
 20
26.5192
 30
-5.89493e-15
  70
    32
  0
VERTEX
  8
0
  5
2605
 10
3.80733
 20
26.5205
 30
-5.89525e-15
  70
    32
  0
VERTEX
  8
0
  5
2606
 10
3.81869
 20
26.5217
 30
-5.89555e-15
  70
    32
  0
VERTEX
  8
0
  5
2607
 10
3.83006
 20
26.5229
 30
-5.89584e-15
  70
    32
  0
VERTEX
  8
0
  5
2608
 10
3.84143
 20
26.5241
 30
-5.89612e-15
  70
    32
  0
VERTEX
  8
0
  5
2609
 10
3.85279
 20
26.5253
 30
-5.89638e-15
  70
    32
  0
VERTEX
  8
0
  5
260A
 10
3.86416
 20
26.5264
 30
-5.89664e-15
  70
    32
  0
VERTEX
  8
0
  5
260B
 10
3.87552
 20
26.5276
 30
-5.89688e-15
  70
    32
  0
VERTEX
  8
0
  5
260C
 10
3.88689
 20
26.5286
 30
-5.89710e-15
  70
    32
  0
VERTEX
  8
0
  5
260D
 10
3.89825
 20
26.5297
 30
-5.89732e-15
  70
    32
  0
VERTEX
  8
0
  5
260E
 10
3.90962
 20
26.5307
 30
-5.89753e-15
  70
    32
  0
VERTEX
  8
0
  5
260F
 10
3.92098
 20
26.5317
 30
-5.89772e-15
  70
    32
  0
VERTEX
  8
0
  5
2610
 10
3.93235
 20
26.5327
 30
-5.89791e-15
  70
    32
  0
VERTEX
  8
0
  5
2611
 10
3.94371
 20
26.5337
 30
-5.89808e-15
  70
    32
  0
VERTEX
  8
0
  5
2612
 10
3.95508
 20
26.5346
 30
-5.89825e-15
  70
    32
  0
VERTEX
  8
0
  5
2613
 10
3.96644
 20
26.5355
 30
-5.89840e-15
  70
    32
  0
VERTEX
  8
0
  5
2614
 10
3.97781
 20
26.5364
 30
-5.89855e-15
  70
    32
  0
VERTEX
  8
0
  5
2615
 10
3.98917
 20
26.5373
 30
-5.89868e-15
  70
    32
  0
VERTEX
  8
0
  5
2616
 10
4.00054
 20
26.5381
 30
-5.89881e-15
  70
    32
  0
VERTEX
  8
0
  5
2617
 10
4.01190
 20
26.5389
 30
-5.89893e-15
  70
    32
  0
VERTEX
  8
0
  5
2618
 10
4.02327
 20
26.5396
 30
-5.89904e-15
  70
    32
  0
VERTEX
  8
0
  5
2619
 10
4.03463
 20
26.5404
 30
-5.89914e-15
  70
    32
  0
VERTEX
  8
0
  5
261A
 10
4.04600
 20
26.5411
 30
-5.89924e-15
  70
    32
  0
VERTEX
  8
0
  5
261B
 10
4.05736
 20
26.5418
 30
-5.89933e-15
  70
    32
  0
VERTEX
  8
0
  5
261C
 10
4.06873
 20
26.5425
 30
-5.89941e-15
  70
    32
  0
VERTEX
  8
0
  5
261D
 10
4.08009
 20
26.5431
 30
-5.89948e-15
  70
    32
  0
VERTEX
  8
0
  5
261E
 10
4.09146
 20
26.5437
 30
-5.89955e-15
  70
    32
  0
VERTEX
  8
0
  5
261F
 10
4.10282
 20
26.5443
 30
-5.89961e-15
  70
    32
  0
VERTEX
  8
0
  5
2620
 10
4.11419
 20
26.5448
 30
-5.89967e-15
  70
    32
  0
VERTEX
  8
0
  5
2621
 10
4.12555
 20
26.5454
 30
-5.89972e-15
  70
    32
  0
VERTEX
  8
0
  5
2622
 10
4.13692
 20
26.5459
 30
-5.89976e-15
  70
    32
  0
VERTEX
  8
0
  5
2623
 10
4.14828
 20
26.5463
 30
-5.89980e-15
  70
    32
  0
VERTEX
  8
0
  5
2624
 10
4.15965
 20
26.5468
 30
-5.89984e-15
  70
    32
  0
VERTEX
  8
0
  5
2625
 10
4.17101
 20
26.5472
 30
-5.89987e-15
  70
    32
  0
VERTEX
  8
0
  5
2626
 10
4.18238
 20
26.5476
 30
-5.89989e-15
  70
    32
  0
VERTEX
  8
0
  5
2627
 10
4.19375
 20
26.5479
 30
-5.89992e-15
  70
    32
  0
VERTEX
  8
0
  5
2628
 10
4.20511
 20
26.5483
 30
-5.89994e-15
  70
    32
  0
VERTEX
  8
0
  5
2629
 10
4.21648
 20
26.5486
 30
-5.89995e-15
  70
    32
  0
VERTEX
  8
0
  5
262A
 10
4.22784
 20
26.5488
 30
-5.89996e-15
  70
    32
  0
VERTEX
  8
0
  5
262B
 10
4.23921
 20
26.5491
 30
-5.89998e-15
  70
    32
  0
VERTEX
  8
0
  5
262C
 10
4.25057
 20
26.5493
 30
-5.89998e-15
  70
    32
  0
VERTEX
  8
0
  5
262D
 10
4.26194
 20
26.5495
 30
-5.89999e-15
  70
    32
  0
VERTEX
  8
0
  5
262E
 10
4.27330
 20
26.5496
 30
-5.89999e-15
  70
    32
  0
VERTEX
  8
0
  5
262F
 10
4.28467
 20
26.5498
 30
-5.90000e-15
  70
    32
  0
VERTEX
  8
0
  5
2630
 10
4.29603
 20
26.5499
 30
-5.90000e-15
  70
    32
  0
VERTEX
  8
0
  5
2631
 10
4.30740
 20
26.5499
 30
-5.90000e-15
  70
    32
  0
VERTEX
  8
0
  5
2632
 10
4.31876
 20
26.5500
 30
-5.90000e-15
  70
    32
  0
VERTEX
  8
0
  5
2633
 10
4.33013
 20
26.5500
 30
-5.90000e-15
  70
    32
  0
SEQEND
  8
0
  5
2634
  0
LINE
  5
1A6F
  8
0
  6
CONTINUOUS
 62
     3
 10
2.88675134594813
 20
26.3427405783631308
 30
-0.0000000000000058
 11
2.8867513459481291
 21
21.9679196819993692
 31
-0.0000000000000049
210
0.0
220
1.0
230
-0.0000000000000002
  0
LINE
  5
1A70
  8
0
  6
CONTINUOUS
 62
     3
 10
5.7735026918962591
 20
26.3427405783631308
 30
-0.0000000000000058
 11
5.7735026918962573
 21
21.9679196819993692
 31
-0.0000000000000049
210
0.0
220
1.0
230
-0.0000000000000002
  0
POLYLINE
  8
0
  5
2635
  62
3
  66
     1
 10
0.000000
 20
0.000000
 30
0.000000
  70
     8
  0
VERTEX
  8
0
  5
2636
 10
4.33013
 20
26.5500
 30
-5.90000e-15
  70
    32
  0
VERTEX
  8
0
  5
2637
 10
4.34149
 20
26.5500
 30
-5.90000e-15
  70
    32
  0
VERTEX
  8
0
  5
2638
 10
4.35286
 20
26.5499
 30
-5.90000e-15
  70
    32
  0
VERTEX
  8
0
  5
2639
 10
4.36422
 20
26.5499
 30
-5.90000e-15
  70
    32
  0
VERTEX
  8
0
  5
263A
 10
4.37559
 20
26.5498
 30
-5.90000e-15
  70
    32
  0
VERTEX
  8
0
  5
263B
 10
4.38695
 20
26.5496
 30
-5.89999e-15
  70
    32
  0
VERTEX
  8
0
  5
263C
 10
4.39832
 20
26.5495
 30
-5.89999e-15
  70
    32
  0
VERTEX
  8
0
  5
263D
 10
4.40968
 20
26.5493
 30
-5.89998e-15
  70
    32
  0
VERTEX
  8
0
  5
263E
 10
4.42105
 20
26.5491
 30
-5.89998e-15
  70
    32
  0
VERTEX
  8
0
  5
263F
 10
4.43241
 20
26.5488
 30
-5.89996e-15
  70
    32
  0
VERTEX
  8
0
  5
2640
 10
4.44378
 20
26.5486
 30
-5.89995e-15
  70
    32
  0
VERTEX
  8
0
  5
2641
 10
4.45514
 20
26.5483
 30
-5.89994e-15
  70
    32
  0
VERTEX
  8
0
  5
2642
 10
4.46651
 20
26.5479
 30
-5.89992e-15
  70
    32
  0
VERTEX
  8
0
  5
2643
 10
4.47787
 20
26.5476
 30
-5.89989e-15
  70
    32
  0
VERTEX
  8
0
  5
2644
 10
4.48924
 20
26.5472
 30
-5.89987e-15
  70
    32
  0
VERTEX
  8
0
  5
2645
 10
4.50060
 20
26.5468
 30
-5.89984e-15
  70
    32
  0
VERTEX
  8
0
  5
2646
 10
4.51197
 20
26.5463
 30
-5.89980e-15
  70
    32
  0
VERTEX
  8
0
  5
2647
 10
4.52333
 20
26.5459
 30
-5.89976e-15
  70
    32
  0
VERTEX
  8
0
  5
2648
 10
4.53470
 20
26.5454
 30
-5.89972e-15
  70
    32
  0
VERTEX
  8
0
  5
2649
 10
4.54607
 20
26.5448
 30
-5.89967e-15
  70
    32
  0
VERTEX
  8
0
  5
264A
 10
4.55743
 20
26.5443
 30
-5.89961e-15
  70
    32
  0
VERTEX
  8
0
  5
264B
 10
4.56880
 20
26.5437
 30
-5.89955e-15
  70
    32
  0
VERTEX
  8
0
  5
264C
 10
4.58016
 20
26.5431
 30
-5.89948e-15
  70
    32
  0
VERTEX
  8
0
  5
264D
 10
4.59153
 20
26.5425
 30
-5.89941e-15
  70
    32
  0
VERTEX
  8
0
  5
264E
 10
4.60289
 20
26.5418
 30
-5.89933e-15
  70
    32
  0
VERTEX
  8
0
  5
264F
 10
4.61426
 20
26.5411
 30
-5.89924e-15
  70
    32
  0
VERTEX
  8
0
  5
2650
 10
4.62562
 20
26.5404
 30
-5.89914e-15
  70
    32
  0
VERTEX
  8
0
  5
2651
 10
4.63699
 20
26.5396
 30
-5.89904e-15
  70
    32
  0
VERTEX
  8
0
  5
2652
 10
4.64835
 20
26.5389
 30
-5.89893e-15
  70
    32
  0
VERTEX
  8
0
  5
2653
 10
4.65972
 20
26.5381
 30
-5.89881e-15
  70
    32
  0
VERTEX
  8
0
  5
2654
 10
4.67108
 20
26.5373
 30
-5.89868e-15
  70
    32
  0
VERTEX
  8
0
  5
2655
 10
4.68245
 20
26.5364
 30
-5.89855e-15
  70
    32
  0
VERTEX
  8
0
  5
2656
 10
4.69381
 20
26.5355
 30
-5.89840e-15
  70
    32
  0
VERTEX
  8
0
  5
2657
 10
4.70518
 20
26.5346
 30
-5.89825e-15
  70
    32
  0
VERTEX
  8
0
  5
2658
 10
4.71654
 20
26.5337
 30
-5.89808e-15
  70
    32
  0
VERTEX
  8
0
  5
2659
 10
4.72791
 20
26.5327
 30
-5.89791e-15
  70
    32
  0
VERTEX
  8
0
  5
265A
 10
4.73927
 20
26.5317
 30
-5.89772e-15
  70
    32
  0
VERTEX
  8
0
  5
265B
 10
4.75064
 20
26.5307
 30
-5.89753e-15
  70
    32
  0
VERTEX
  8
0
  5
265C
 10
4.76200
 20
26.5297
 30
-5.89732e-15
  70
    32
  0
VERTEX
  8
0
  5
265D
 10
4.77337
 20
26.5286
 30
-5.89710e-15
  70
    32
  0
VERTEX
  8
0
  5
265E
 10
4.78473
 20
26.5276
 30
-5.89688e-15
  70
    32
  0
VERTEX
  8
0
  5
265F
 10
4.79610
 20
26.5264
 30
-5.89664e-15
  70
    32
  0
VERTEX
  8
0
  5
2660
 10
4.80746
 20
26.5253
 30
-5.89638e-15
  70
    32
  0
VERTEX
  8
0
  5
2661
 10
4.81883
 20
26.5241
 30
-5.89612e-15
  70
    32
  0
VERTEX
  8
0
  5
2662
 10
4.83019
 20
26.5229
 30
-5.89584e-15
  70
    32
  0
VERTEX
  8
0
  5
2663
 10
4.84156
 20
26.5217
 30
-5.89555e-15
  70
    32
  0
VERTEX
  8
0
  5
2664
 10
4.85292
 20
26.5205
 30
-5.89525e-15
  70
    32
  0
VERTEX
  8
0
  5
2665
 10
4.86429
 20
26.5192
 30
-5.89493e-15
  70
    32
  0
VERTEX
  8
0
  5
2666
 10
4.87565
 20
26.5179
 30
-5.89460e-15
  70
    32
  0
VERTEX
  8
0
  5
2667
 10
4.88702
 20
26.5166
 30
-5.89426e-15
  70
    32
  0
VERTEX
  8
0
  5
2668
 10
4.89839
 20
26.5153
 30
-5.89390e-15
  70
    32
  0
VERTEX
  8
0
  5
2669
 10
4.90975
 20
26.5139
 30
-5.89352e-15
  70
    32
  0
VERTEX
  8
0
  5
266A
 10
4.92112
 20
26.5125
 30
-5.89314e-15
  70
    32
  0
VERTEX
  8
0
  5
266B
 10
4.93248
 20
26.5111
 30
-5.89273e-15
  70
    32
  0
VERTEX
  8
0
  5
266C
 10
4.94385
 20
26.5096
 30
-5.89231e-15
  70
    32
  0
VERTEX
  8
0
  5
266D
 10
4.95521
 20
26.5082
 30
-5.89188e-15
  70
    32
  0
VERTEX
  8
0
  5
266E
 10
4.96658
 20
26.5067
 30
-5.89143e-15
  70
    32
  0
VERTEX
  8
0
  5
266F
 10
4.97794
 20
26.5052
 30
-5.89096e-15
  70
    32
  0
VERTEX
  8
0
  5
2670
 10
4.98931
 20
26.5036
 30
-5.89047e-15
  70
    32
  0
VERTEX
  8
0
  5
2671
 10
5.00067
 20
26.5021
 30
-5.88997e-15
  70
    32
  0
VERTEX
  8
0
  5
2672
 10
5.01204
 20
26.5005
 30
-5.88946e-15
  70
    32
  0
VERTEX
  8
0
  5
2673
 10
5.02340
 20
26.4989
 30
-5.88892e-15
  70
    32
  0
VERTEX
  8
0
  5
2674
 10
5.03477
 20
26.4972
 30
-5.88837e-15
  70
    32
  0
VERTEX
  8
0
  5
2675
 10
5.04613
 20
26.4956
 30
-5.88779e-15
  70
    32
  0
VERTEX
  8
0
  5
2676
 10
5.05750
 20
26.4939
 30
-5.88720e-15
  70
    32
  0
VERTEX
  8
0
  5
2677
 10
5.06886
 20
26.4922
 30
-5.88659e-15
  70
    32
  0
VERTEX
  8
0
  5
2678
 10
5.08023
 20
26.4904
 30
-5.88596e-15
  70
    32
  0
VERTEX
  8
0
  5
2679
 10
5.09159
 20
26.4887
 30
-5.88532e-15
  70
    32
  0
VERTEX
  8
0
  5
267A
 10
5.10296
 20
26.4869
 30
-5.88465e-15
  70
    32
  0
VERTEX
  8
0
  5
267B
 10
5.11432
 20
26.4851
 30
-5.88396e-15
  70
    32
  0
VERTEX
  8
0
  5
267C
 10
5.12569
 20
26.4832
 30
-5.88326e-15
  70
    32
  0
VERTEX
  8
0
  5
267D
 10
5.13705
 20
26.4814
 30
-5.88253e-15
  70
    32
  0
VERTEX
  8
0
  5
267E
 10
5.14842
 20
26.4795
 30
-5.88178e-15
  70
    32
  0
VERTEX
  8
0
  5
267F
 10
5.15978
 20
26.4776
 30
-5.88101e-15
  70
    32
  0
VERTEX
  8
0
  5
2680
 10
5.17115
 20
26.4757
 30
-5.88022e-15
  70
    32
  0
VERTEX
  8
0
  5
2681
 10
5.18251
 20
26.4738
 30
-5.87940e-15
  70
    32
  0
VERTEX
  8
0
  5
2682
 10
5.19388
 20
26.4718
 30
-5.87857e-15
  70
    32
  0
VERTEX
  8
0
  5
2683
 10
5.20524
 20
26.4698
 30
-5.87771e-15
  70
    32
  0
VERTEX
  8
0
  5
2684
 10
5.21661
 20
26.4678
 30
-5.87683e-15
  70
    32
  0
VERTEX
  8
0
  5
2685
 10
5.22797
 20
26.4657
 30
-5.87593e-15
  70
    32
  0
VERTEX
  8
0
  5
2686
 10
5.23934
 20
26.4637
 30
-5.87500e-15
  70
    32
  0
VERTEX
  8
0
  5
2687
 10
5.25071
 20
26.4616
 30
-5.87406e-15
  70
    32
  0
VERTEX
  8
0
  5
2688
 10
5.26207
 20
26.4595
 30
-5.87308e-15
  70
    32
  0
VERTEX
  8
0
  5
2689
 10
5.27344
 20
26.4574
 30
-5.87209e-15
  70
    32
  0
VERTEX
  8
0
  5
268A
 10
5.28480
 20
26.4552
 30
-5.87106e-15
  70
    32
  0
VERTEX
  8
0
  5
268B
 10
5.29617
 20
26.4530
 30
-5.87002e-15
  70
    32
  0
VERTEX
  8
0
  5
268C
 10
5.30753
 20
26.4508
 30
-5.86895e-15
  70
    32
  0
VERTEX
  8
0
  5
268D
 10
5.31890
 20
26.4486
 30
-5.86785e-15
  70
    32
  0
VERTEX
  8
0
  5
268E
 10
5.33026
 20
26.4464
 30
-5.86673e-15
  70
    32
  0
VERTEX
  8
0
  5
268F
 10
5.34163
 20
26.4441
 30
-5.86558e-15
  70
    32
  0
VERTEX
  8
0
  5
2690
 10
5.35299
 20
26.4419
 30
-5.86441e-15
  70
    32
  0
VERTEX
  8
0
  5
2691
 10
5.36436
 20
26.4395
 30
-5.86321e-15
  70
    32
  0
VERTEX
  8
0
  5
2692
 10
5.37572
 20
26.4372
 30
-5.86199e-15
  70
    32
  0
VERTEX
  8
0
  5
2693
 10
5.38709
 20
26.4349
 30
-5.86073e-15
  70
    32
  0
VERTEX
  8
0
  5
2694
 10
5.39845
 20
26.4325
 30
-5.85945e-15
  70
    32
  0
VERTEX
  8
0
  5
2695
 10
5.40982
 20
26.4301
 30
-5.85814e-15
  70
    32
  0
VERTEX
  8
0
  5
2696
 10
5.42118
 20
26.4277
 30
-5.85681e-15
  70
    32
  0
VERTEX
  8
0
  5
2697
 10
5.43255
 20
26.4253
 30
-5.85544e-15
  70
    32
  0
VERTEX
  8
0
  5
2698
 10
5.44391
 20
26.4228
 30
-5.85405e-15
  70
    32
  0
VERTEX
  8
0
  5
2699
 10
5.45528
 20
26.4203
 30
-5.85263e-15
  70
    32
  0
VERTEX
  8
0
  5
269A
 10
5.46664
 20
26.4178
 30
-5.85118e-15
  70
    32
  0
VERTEX
  8
0
  5
269B
 10
5.47801
 20
26.4153
 30
-5.84970e-15
  70
    32
  0
VERTEX
  8
0
  5
269C
 10
5.48937
 20
26.4128
 30
-5.84819e-15
  70
    32
  0
VERTEX
  8
0
  5
269D
 10
5.50074
 20
26.4102
 30
-5.84665e-15
  70
    32
  0
VERTEX
  8
0
  5
269E
 10
5.51210
 20
26.4076
 30
-5.84509e-15
  70
    32
  0
VERTEX
  8
0
  5
269F
 10
5.52347
 20
26.4050
 30
-5.84349e-15
  70
    32
  0
VERTEX
  8
0
  5
26A0
 10
5.53483
 20
26.4024
 30
-5.84186e-15
  70
    32
  0
VERTEX
  8
0
  5
26A1
 10
5.54620
 20
26.3998
 30
-5.84019e-15
  70
    32
  0
VERTEX
  8
0
  5
26A2
 10
5.55756
 20
26.3971
 30
-5.83850e-15
  70
    32
  0
VERTEX
  8
0
  5
26A3
 10
5.56893
 20
26.3944
 30
-5.83678e-15
  70
    32
  0
VERTEX
  8
0
  5
26A4
 10
5.58029
 20
26.3917
 30
-5.83502e-15
  70
    32
  0
VERTEX
  8
0
  5
26A5
 10
5.59166
 20
26.3890
 30
-5.83323e-15
  70
    32
  0
VERTEX
  8
0
  5
26A6
 10
5.60303
 20
26.3863
 30
-5.83141e-15
  70
    32
  0
VERTEX
  8
0
  5
26A7
 10
5.61439
 20
26.3835
 30
-5.82956e-15
  70
    32
  0
VERTEX
  8
0
  5
26A8
 10
5.62576
 20
26.3807
 30
-5.82767e-15
  70
    32
  0
VERTEX
  8
0
  5
26A9
 10
5.63712
 20
26.3779
 30
-5.82575e-15
  70
    32
  0
VERTEX
  8
0
  5
26AA
 10
5.64849
 20
26.3751
 30
-5.82380e-15
  70
    32
  0
VERTEX
  8
0
  5
26AB
 10
5.65985
 20
26.3722
 30
-5.82181e-15
  70
    32
  0
VERTEX
  8
0
  5
26AC
 10
5.67122
 20
26.3694
 30
-5.81979e-15
  70
    32
  0
VERTEX
  8
0
  5
26AD
 10
5.68258
 20
26.3665
 30
-5.81773e-15
  70
    32
  0
VERTEX
  8
0
  5
26AE
 10
5.69395
 20
26.3636
 30
-5.81564e-15
  70
    32
  0
VERTEX
  8
0
  5
26AF
 10
5.70531
 20
26.3607
 30
-5.81351e-15
  70
    32
  0
VERTEX
  8
0
  5
26B0
 10
5.71668
 20
26.3577
 30
-5.81135e-15
  70
    32
  0
VERTEX
  8
0
  5
26B1
 10
5.72804
 20
26.3548
 30
-5.80915e-15
  70
    32
  0
VERTEX
  8
0
  5
26B2
 10
5.73941
 20
26.3518
 30
-5.80692e-15
  70
    32
  0
VERTEX
  8
0
  5
26B3
 10
5.75077
 20
26.3488
 30
-5.80465e-15
  70
    32
  0
VERTEX
  8
0
  5
26B4
 10
5.76214
 20
26.3458
 30
-5.80234e-15
  70
    32
  0
VERTEX
  8
0
  5
26B5
 10
5.77350
 20
26.3427
 30
-5.80000e-15
  70
    32
  0
SEQEND
  8
0
  5
26B6
  0
POLYLINE
  8
0
  5
26B7
  62
3
  66
     1
 10
0.000000
 20
0.000000
 30
0.000000
  70
     8
  0
VERTEX
  8
0
  5
26B8
 10
-2.88675
 20
26.3427
 30
-5.80000e-15
  70
    32
  0
VERTEX
  8
0
  5
26B9
 10
-2.86406
 20
26.3458
 30
-5.80234e-15
  70
    32
  0
VERTEX
  8
0
  5
26BA
 10
-2.84137
 20
26.3488
 30
-5.80465e-15
  70
    32
  0
VERTEX
  8
0
  5
26BB
 10
-2.81868
 20
26.3518
 30
-5.80692e-15
  70
    32
  0
VERTEX
  8
0
  5
26BC
 10
-2.79599
 20
26.3548
 30
-5.80915e-15
  70
    32
  0
VERTEX
  8
0
  5
26BD
 10
-2.77329
 20
26.3577
 30
-5.81135e-15
  70
    32
  0
VERTEX
  8
0
  5
26BE
 10
-2.75060
 20
26.3606
 30
-5.81351e-15
  70
    32
  0
VERTEX
  8
0
  5
26BF
 10
-2.72791
 20
26.3636
 30
-5.81564e-15
  70
    32
  0
VERTEX
  8
0
  5
26C0
 10
-2.70521
 20
26.3665
 30
-5.81773e-15
  70
    32
  0
VERTEX
  8
0
  5
26C1
 10
-2.68252
 20
26.3693
 30
-5.81979e-15
  70
    32
  0
VERTEX
  8
0
  5
26C2
 10
-2.65982
 20
26.3722
 30
-5.82181e-15
  70
    32
  0
VERTEX
  8
0
  5
26C3
 10
-2.63713
 20
26.3750
 30
-5.82380e-15
  70
    32
  0
VERTEX
  8
0
  5
26C4
 10
-2.61443
 20
26.3779
 30
-5.82575e-15
  70
    32
  0
VERTEX
  8
0
  5
26C5
 10
-2.59173
 20
26.3807
 30
-5.82767e-15
  70
    32
  0
VERTEX
  8
0
  5
26C6
 10
-2.56904
 20
26.3834
 30
-5.82956e-15
  70
    32
  0
VERTEX
  8
0
  5
26C7
 10
-2.54634
 20
26.3862
 30
-5.83141e-15
  70
    32
  0
VERTEX
  8
0
  5
26C8
 10
-2.52364
 20
26.3889
 30
-5.83323e-15
  70
    32
  0
VERTEX
  8
0
  5
26C9
 10
-2.50094
 20
26.3917
 30
-5.83502e-15
  70
    32
  0
VERTEX
  8
0
  5
26CA
 10
-2.47824
 20
26.3944
 30
-5.83678e-15
  70
    32
  0
VERTEX
  8
0
  5
26CB
 10
-2.45554
 20
26.3970
 30
-5.83850e-15
  70
    32
  0
VERTEX
  8
0
  5
26CC
 10
-2.43284
 20
26.3997
 30
-5.84019e-15
  70
    32
  0
VERTEX
  8
0
  5
26CD
 10
-2.41014
 20
26.4023
 30
-5.84186e-15
  70
    32
  0
VERTEX
  8
0
  5
26CE
 10
-2.38744
 20
26.4050
 30
-5.84349e-15
  70
    32
  0
VERTEX
  8
0
  5
26CF
 10
-2.36473
 20
26.4076
 30
-5.84509e-15
  70
    32
  0
VERTEX
  8
0
  5
26D0
 10
-2.34203
 20
26.4101
 30
-5.84665e-15
  70
    32
  0
VERTEX
  8
0
  5
26D1
 10
-2.31933
 20
26.4127
 30
-5.84819e-15
  70
    32
  0
VERTEX
  8
0
  5
26D2
 10
-2.29662
 20
26.4152
 30
-5.84970e-15
  70
    32
  0
VERTEX
  8
0
  5
26D3
 10
-2.27392
 20
26.4177
 30
-5.85118e-15
  70
    32
  0
VERTEX
  8
0
  5
26D4
 10
-2.25121
 20
26.4202
 30
-5.85263e-15
  70
    32
  0
VERTEX
  8
0
  5
26D5
 10
-2.22850
 20
26.4227
 30
-5.85405e-15
  70
    32
  0
VERTEX
  8
0
  5
26D6
 10
-2.20580
 20
26.4252
 30
-5.85544e-15
  70
    32
  0
VERTEX
  8
0
  5
26D7
 10
-2.18309
 20
26.4276
 30
-5.85681e-15
  70
    32
  0
VERTEX
  8
0
  5
26D8
 10
-2.16038
 20
26.4300
 30
-5.85814e-15
  70
    32
  0
VERTEX
  8
0
  5
26D9
 10
-2.13767
 20
26.4324
 30
-5.85945e-15
  70
    32
  0
VERTEX
  8
0
  5
26DA
 10
-2.11496
 20
26.4348
 30
-5.86073e-15
  70
    32
  0
VERTEX
  8
0
  5
26DB
 10
-2.09225
 20
26.4371
 30
-5.86199e-15
  70
    32
  0
VERTEX
  8
0
  5
26DC
 10
-2.06954
 20
26.4394
 30
-5.86321e-15
  70
    32
  0
VERTEX
  8
0
  5
26DD
 10
-2.04683
 20
26.4418
 30
-5.86441e-15
  70
    32
  0
VERTEX
  8
0
  5
26DE
 10
-2.02412
 20
26.4440
 30
-5.86558e-15
  70
    32
  0
VERTEX
  8
0
  5
26DF
 10
-2.00141
 20
26.4463
 30
-5.86673e-15
  70
    32
  0
VERTEX
  8
0
  5
26E0
 10
-1.97869
 20
26.4485
 30
-5.86785e-15
  70
    32
  0
VERTEX
  8
0
  5
26E1
 10
-1.95598
 20
26.4507
 30
-5.86895e-15
  70
    32
  0
VERTEX
  8
0
  5
26E2
 10
-1.93327
 20
26.4529
 30
-5.87002e-15
  70
    32
  0
VERTEX
  8
0
  5
26E3
 10
-1.91055
 20
26.4551
 30
-5.87106e-15
  70
    32
  0
VERTEX
  8
0
  5
26E4
 10
-1.88784
 20
26.4573
 30
-5.87209e-15
  70
    32
  0
VERTEX
  8
0
  5
26E5
 10
-1.86512
 20
26.4594
 30
-5.87308e-15
  70
    32
  0
VERTEX
  8
0
  5
26E6
 10
-1.84240
 20
26.4615
 30
-5.87406e-15
  70
    32
  0
VERTEX
  8
0
  5
26E7
 10
-1.81969
 20
26.4636
 30
-5.87500e-15
  70
    32
  0
VERTEX
  8
0
  5
26E8
 10
-1.79697
 20
26.4656
 30
-5.87593e-15
  70
    32
  0
VERTEX
  8
0
  5
26E9
 10
-1.77425
 20
26.4677
 30
-5.87683e-15
  70
    32
  0
VERTEX
  8
0
  5
26EA
 10
-1.75153
 20
26.4697
 30
-5.87771e-15
  70
    32
  0
VERTEX
  8
0
  5
26EB
 10
-1.72881
 20
26.4717
 30
-5.87857e-15
  70
    32
  0
VERTEX
  8
0
  5
26EC
 10
-1.70609
 20
26.4737
 30
-5.87940e-15
  70
    32
  0
VERTEX
  8
0
  5
26ED
 10
-1.68337
 20
26.4756
 30
-5.88022e-15
  70
    32
  0
VERTEX
  8
0
  5
26EE
 10
-1.66065
 20
26.4775
 30
-5.88101e-15
  70
    32
  0
VERTEX
  8
0
  5
26EF
 10
-1.63792
 20
26.4794
 30
-5.88178e-15
  70
    32
  0
VERTEX
  8
0
  5
26F0
 10
-1.61520
 20
26.4813
 30
-5.88253e-15
  70
    32
  0
VERTEX
  8
0
  5
26F1
 10
-1.59248
 20
26.4832
 30
-5.88326e-15
  70
    32
  0
VERTEX
  8
0
  5
26F2
 10
-1.56975
 20
26.4850
 30
-5.88396e-15
  70
    32
  0
VERTEX
  8
0
  5
26F3
 10
-1.54703
 20
26.4868
 30
-5.88465e-15
  70
    32
  0
VERTEX
  8
0
  5
26F4
 10
-1.52430
 20
26.4886
 30
-5.88532e-15
  70
    32
  0
VERTEX
  8
0
  5
26F5
 10
-1.50157
 20
26.4903
 30
-5.88596e-15
  70
    32
  0
VERTEX
  8
0
  5
26F6
 10
-1.47885
 20
26.4921
 30
-5.88659e-15
  70
    32
  0
VERTEX
  8
0
  5
26F7
 10
-1.45612
 20
26.4938
 30
-5.88720e-15
  70
    32
  0
VERTEX
  8
0
  5
26F8
 10
-1.43339
 20
26.4955
 30
-5.88779e-15
  70
    32
  0
VERTEX
  8
0
  5
26F9
 10
-1.41066
 20
26.4971
 30
-5.88837e-15
  70
    32
  0
VERTEX
  8
0
  5
26FA
 10
-1.38793
 20
26.4988
 30
-5.88892e-15
  70
    32
  0
VERTEX
  8
0
  5
26FB
 10
-1.36520
 20
26.5004
 30
-5.88946e-15
  70
    32
  0
VERTEX
  8
0
  5
26FC
 10
-1.34247
 20
26.5020
 30
-5.88997e-15
  70
    32
  0
VERTEX
  8
0
  5
26FD
 10
-1.31973
 20
26.5035
 30
-5.89047e-15
  70
    32
  0
VERTEX
  8
0
  5
26FE
 10
-1.29700
 20
26.5051
 30
-5.89096e-15
  70
    32
  0
VERTEX
  8
0
  5
26FF
 10
-1.27427
 20
26.5066
 30
-5.89143e-15
  70
    32
  0
VERTEX
  8
0
  5
2700
 10
-1.25153
 20
26.5081
 30
-5.89188e-15
  70
    32
  0
VERTEX
  8
0
  5
2701
 10
-1.22880
 20
26.5096
 30
-5.89231e-15
  70
    32
  0
VERTEX
  8
0
  5
2702
 10
-1.20606
 20
26.5110
 30
-5.89273e-15
  70
    32
  0
VERTEX
  8
0
  5
2703
 10
-1.18333
 20
26.5124
 30
-5.89314e-15
  70
    32
  0
VERTEX
  8
0
  5
2704
 10
-1.16059
 20
26.5138
 30
-5.89352e-15
  70
    32
  0
VERTEX
  8
0
  5
2705
 10
-1.13785
 20
26.5152
 30
-5.89390e-15
  70
    32
  0
VERTEX
  8
0
  5
2706
 10
-1.11511
 20
26.5165
 30
-5.89426e-15
  70
    32
  0
VERTEX
  8
0
  5
2707
 10
-1.09237
 20
26.5179
 30
-5.89460e-15
  70
    32
  0
VERTEX
  8
0
  5
2708
 10
-1.06963
 20
26.5192
 30
-5.89493e-15
  70
    32
  0
VERTEX
  8
0
  5
2709
 10
-1.04689
 20
26.5204
 30
-5.89525e-15
  70
    32
  0
VERTEX
  8
0
  5
270A
 10
-1.02415
 20
26.5217
 30
-5.89555e-15
  70
    32
  0
VERTEX
  8
0
  5
270B
 10
-1.00141
 20
26.5229
 30
-5.89584e-15
  70
    32
  0
VERTEX
  8
0
  5
270C
 10
-0.978667
 20
26.5241
 30
-5.89612e-15
  70
    32
  0
VERTEX
  8
0
  5
270D
 10
-0.955923
 20
26.5252
 30
-5.89638e-15
  70
    32
  0
VERTEX
  8
0
  5
270E
 10
-0.933179
 20
26.5264
 30
-5.89664e-15
  70
    32
  0
VERTEX
  8
0
  5
270F
 10
-0.910434
 20
26.5275
 30
-5.89688e-15
  70
    32
  0
VERTEX
  8
0
  5
2710
 10
-0.887688
 20
26.5286
 30
-5.89710e-15
  70
    32
  0
VERTEX
  8
0
  5
2711
 10
-0.864942
 20
26.5297
 30
-5.89732e-15
  70
    32
  0
VERTEX
  8
0
  5
2712
 10
-0.842194
 20
26.5307
 30
-5.89753e-15
  70
    32
  0
VERTEX
  8
0
  5
2713
 10
-0.819446
 20
26.5317
 30
-5.89772e-15
  70
    32
  0
VERTEX
  8
0
  5
2714
 10
-0.796697
 20
26.5327
 30
-5.89791e-15
  70
    32
  0
VERTEX
  8
0
  5
2715
 10
-0.773948
 20
26.5337
 30
-5.89808e-15
  70
    32
  0
VERTEX
  8
0
  5
2716
 10
-0.751198
 20
26.5346
 30
-5.89825e-15
  70
    32
  0
VERTEX
  8
0
  5
2717
 10
-0.728447
 20
26.5355
 30
-5.89840e-15
  70
    32
  0
VERTEX
  8
0
  5
2718
 10
-0.705695
 20
26.5364
 30
-5.89855e-15
  70
    32
  0
VERTEX
  8
0
  5
2719
 10
-0.682942
 20
26.5372
 30
-5.89868e-15
  70
    32
  0
VERTEX
  8
0
  5
271A
 10
-0.660189
 20
26.5380
 30
-5.89881e-15
  70
    32
  0
VERTEX
  8
0
  5
271B
 10
-0.637435
 20
26.5388
 30
-5.89893e-15
  70
    32
  0
VERTEX
  8
0
  5
271C
 10
-0.614680
 20
26.5396
 30
-5.89904e-15
  70
    32
  0
VERTEX
  8
0
  5
271D
 10
-0.591924
 20
26.5404
 30
-5.89914e-15
  70
    32
  0
VERTEX
  8
0
  5
271E
 10
-0.569168
 20
26.5411
 30
-5.89924e-15
  70
    32
  0
VERTEX
  8
0
  5
271F
 10
-0.546411
 20
26.5418
 30
-5.89933e-15
  70
    32
  0
VERTEX
  8
0
  5
2720
 10
-0.523653
 20
26.5424
 30
-5.89941e-15
  70
    32
  0
VERTEX
  8
0
  5
2721
 10
-0.500894
 20
26.5431
 30
-5.89948e-15
  70
    32
  0
VERTEX
  8
0
  5
2722
 10
-0.478135
 20
26.5437
 30
-5.89955e-15
  70
    32
  0
VERTEX
  8
0
  5
2723
 10
-0.455374
 20
26.5443
 30
-5.89961e-15
  70
    32
  0
VERTEX
  8
0
  5
2724
 10
-0.432613
 20
26.5448
 30
-5.89967e-15
  70
    32
  0
VERTEX
  8
0
  5
2725
 10
-0.409851
 20
26.5453
 30
-5.89972e-15
  70
    32
  0
VERTEX
  8
0
  5
2726
 10
-0.387089
 20
26.5458
 30
-5.89976e-15
  70
    32
  0
VERTEX
  8
0
  5
2727
 10
-0.364325
 20
26.5463
 30
-5.89980e-15
  70
    32
  0
VERTEX
  8
0
  5
2728
 10
-0.341561
 20
26.5468
 30
-5.89984e-15
  70
    32
  0
VERTEX
  8
0
  5
2729
 10
-0.318796
 20
26.5472
 30
-5.89987e-15
  70
    32
  0
VERTEX
  8
0
  5
272A
 10
-0.296030
 20
26.5476
 30
-5.89989e-15
  70
    32
  0
VERTEX
  8
0
  5
272B
 10
-0.273263
 20
26.5479
 30
-5.89992e-15
  70
    32
  0
VERTEX
  8
0
  5
272C
 10
-0.250496
 20
26.5483
 30
-5.89994e-15
  70
    32
  0
VERTEX
  8
0
  5
272D
 10
-0.227728
 20
26.5486
 30
-5.89995e-15
  70
    32
  0
VERTEX
  8
0
  5
272E
 10
-0.204959
 20
26.5488
 30
-5.89996e-15
  70
    32
  0
VERTEX
  8
0
  5
272F
 10
-0.182189
 20
26.5491
 30
-5.89998e-15
  70
    32
  0
VERTEX
  8
0
  5
2730
 10
-0.159418
 20
26.5493
 30
-5.89998e-15
  70
    32
  0
VERTEX
  8
0
  5
2731
 10
-0.136646
 20
26.5495
 30
-5.89999e-15
  70
    32
  0
VERTEX
  8
0
  5
2732
 10
-0.113874
 20
26.5496
 30
-5.89999e-15
  70
    32
  0
VERTEX
  8
0
  5
2733
 10
-0.0911009
 20
26.5498
 30
-5.90000e-15
  70
    32
  0
VERTEX
  8
0
  5
2734
 10
-0.0683270
 20
26.5499
 30
-5.90000e-15
  70
    32
  0
VERTEX
  8
0
  5
2735
 10
-0.0455521
 20
26.5499
 30
-5.90000e-15
  70
    32
  0
VERTEX
  8
0
  5
2736
 10
-0.0227765
 20
26.5500
 30
-5.90000e-15
  70
    32
  0
VERTEX
  8
0
  5
2737
 10
-9.93793e-09
 20
26.5500
 30
-5.90000e-15
  70
    32
  0
SEQEND
  8
0
  5
2738
  0
POLYLINE
  8
0
  5
2739
  62
3
  66
     1
 10
0.000000
 20
0.000000
 30
0.000000
  70
     8
  0
VERTEX
  8
0
  5
273A
 10
7.00000e-16
 20
26.5500
 30
-5.90000e-15
  70
    32
  0
VERTEX
  8
0
  5
273B
 10
0.0150934
 20
26.5500
 30
-5.90000e-15
  70
    32
  0
VERTEX
  8
0
  5
273C
 10
0.0301871
 20
26.5500
 30
-5.90000e-15
  70
    32
  0
VERTEX
  8
0
  5
273D
 10
0.0452811
 20
26.5499
 30
-5.90000e-15
  70
    32
  0
VERTEX
  8
0
  5
273E
 10
0.0603755
 20
26.5499
 30
-5.90000e-15
  70
    32
  0
VERTEX
  8
0
  5
273F
 10
0.0754703
 20
26.5498
 30
-5.90000e-15
  70
    32
  0
VERTEX
  8
0
  5
2740
 10
0.0905654
 20
26.5498
 30
-5.90000e-15
  70
    32
  0
VERTEX
  8
0
  5
2741
 10
0.105661
 20
26.5497
 30
-5.90000e-15
  70
    32
  0
VERTEX
  8
0
  5
2742
 10
0.120757
 20
26.5496
 30
-5.90000e-15
  70
    32
  0
VERTEX
  8
0
  5
2743
 10
0.135853
 20
26.5495
 30
-5.90000e-15
  70
    32
  0
VERTEX
  8
0
  5
2744
 10
0.150949
 20
26.5494
 30
-5.90000e-15
  70
    32
  0
VERTEX
  8
0
  5
2745
 10
0.166046
 20
26.5493
 30
-5.90000e-15
  70
    32
  0
VERTEX
  8
0
  5
2746
 10
0.181144
 20
26.5491
 30
-5.90000e-15
  70
    32
  0
VERTEX
  8
0
  5
2747
 10
0.196241
 20
26.5490
 30
-5.90000e-15
  70
    32
  0
VERTEX
  8
0
  5
2748
 10
0.211339
 20
26.5488
 30
-5.90000e-15
  70
    32
  0
VERTEX
  8
0
  5
2749
 10
0.226437
 20
26.5486
 30
-5.90000e-15
  70
    32
  0
VERTEX
  8
0
  5
274A
 10
0.241536
 20
26.5484
 30
-5.90000e-15
  70
    32
  0
VERTEX
  8
0
  5
274B
 10
0.256635
 20
26.5482
 30
-5.90000e-15
  70
    32
  0
VERTEX
  8
0
  5
274C
 10
0.271734
 20
26.5480
 30
-5.90000e-15
  70
    32
  0
VERTEX
  8
0
  5
274D
 10
0.286834
 20
26.5478
 30
-5.90000e-15
  70
    32
  0
VERTEX
  8
0
  5
274E
 10
0.301934
 20
26.5475
 30
-5.90000e-15
  70
    32
  0
VERTEX
  8
0
  5
274F
 10
0.317034
 20
26.5473
 30
-5.90000e-15
  70
    32
  0
VERTEX
  8
0
  5
2750
 10
0.332135
 20
26.5470
 30
-5.90000e-15
  70
    32
  0
VERTEX
  8
0
  5
2751
 10
0.347236
 20
26.5467
 30
-5.90000e-15
  70
    32
  0
VERTEX
  8
0
  5
2752
 10
0.362338
 20
26.5465
 30
-5.90000e-15
  70
    32
  0
VERTEX
  8
0
  5
2753
 10
0.377439
 20
26.5462
 30
-5.90000e-15
  70
    32
  0
VERTEX
  8
0
  5
2754
 10
0.392541
 20
26.5458
 30
-5.90000e-15
  70
    32
  0
VERTEX
  8
0
  5
2755
 10
0.407644
 20
26.5455
 30
-5.90000e-15
  70
    32
  0
VERTEX
  8
0
  5
2756
 10
0.422747
 20
26.5452
 30
-5.90000e-15
  70
    32
  0
VERTEX
  8
0
  5
2757
 10
0.437850
 20
26.5448
 30
-5.90000e-15
  70
    32
  0
VERTEX
  8
0
  5
2758
 10
0.452953
 20
26.5445
 30
-5.90000e-15
  70
    32
  0
VERTEX
  8
0
  5
2759
 10
0.468057
 20
26.5441
 30
-5.90000e-15
  70
    32
  0
VERTEX
  8
0
  5
275A
 10
0.483161
 20
26.5437
 30
-5.90000e-15
  70
    32
  0
VERTEX
  8
0
  5
275B
 10
0.498266
 20
26.5433
 30
-5.90000e-15
  70
    32
  0
VERTEX
  8
0
  5
275C
 10
0.513371
 20
26.5429
 30
-5.90000e-15
  70
    32
  0
VERTEX
  8
0
  5
275D
 10
0.528476
 20
26.5425
 30
-5.90000e-15
  70
    32
  0
VERTEX
  8
0
  5
275E
 10
0.543581
 20
26.5421
 30
-5.90000e-15
  70
    32
  0
VERTEX
  8
0
  5
275F
 10
0.558687
 20
26.5416
 30
-5.90000e-15
  70
    32
  0
VERTEX
  8
0
  5
2760
 10
0.573793
 20
26.5411
 30
-5.90000e-15
  70
    32
  0
VERTEX
  8
0
  5
2761
 10
0.588900
 20
26.5407
 30
-5.90000e-15
  70
    32
  0
VERTEX
  8
0
  5
2762
 10
0.604007
 20
26.5402
 30
-5.90000e-15
  70
    32
  0
VERTEX
  8
0
  5
2763
 10
0.619114
 20
26.5397
 30
-5.90000e-15
  70
    32
  0
VERTEX
  8
0
  5
2764
 10
0.634221
 20
26.5392
 30
-5.90000e-15
  70
    32
  0
VERTEX
  8
0
  5
2765
 10
0.649329
 20
26.5387
 30
-5.90000e-15
  70
    32
  0
VERTEX
  8
0
  5
2766
 10
0.664438
 20
26.5382
 30
-5.90000e-15
  70
    32
  0
VERTEX
  8
0
  5
2767
 10
0.679546
 20
26.5376
 30
-5.90000e-15
  70
    32
  0
VERTEX
  8
0
  5
2768
 10
0.694655
 20
26.5371
 30
-5.90000e-15
  70
    32
  0
VERTEX
  8
0
  5
2769
 10
0.709764
 20
26.5365
 30
-5.90000e-15
  70
    32
  0
VERTEX
  8
0
  5
276A
 10
0.724874
 20
26.5359
 30
-5.90000e-15
  70
    32
  0
VERTEX
  8
0
  5
276B
 10
0.739984
 20
26.5353
 30
-5.90000e-15
  70
    32
  0
VERTEX
  8
0
  5
276C
 10
0.755094
 20
26.5347
 30
-5.90000e-15
  70
    32
  0
VERTEX
  8
0
  5
276D
 10
0.770205
 20
26.5341
 30
-5.90000e-15
  70
    32
  0
VERTEX
  8
0
  5
276E
 10
0.785316
 20
26.5335
 30
-5.90000e-15
  70
    32
  0
VERTEX
  8
0
  5
276F
 10
0.800427
 20
26.5329
 30
-5.90000e-15
  70
    32
  0
VERTEX
  8
0
  5
2770
 10
0.815538
 20
26.5322
 30
-5.90000e-15
  70
    32
  0
VERTEX
  8
0
  5
2771
 10
0.830650
 20
26.5316
 30
-5.90000e-15
  70
    32
  0
VERTEX
  8
0
  5
2772
 10
0.845763
 20
26.5309
 30
-5.90000e-15
  70
    32
  0
VERTEX
  8
0
  5
2773
 10
0.860875
 20
26.5302
 30
-5.90000e-15
  70
    32
  0
VERTEX
  8
0
  5
2774
 10
0.875988
 20
26.5295
 30
-5.90000e-15
  70
    32
  0
VERTEX
  8
0
  5
2775
 10
0.891101
 20
26.5288
 30
-5.90000e-15
  70
    32
  0
VERTEX
  8
0
  5
2776
 10
0.906215
 20
26.5281
 30
-5.90000e-15
  70
    32
  0
VERTEX
  8
0
  5
2777
 10
0.921329
 20
26.5274
 30
-5.90000e-15
  70
    32
  0
VERTEX
  8
0
  5
2778
 10
0.936443
 20
26.5267
 30
-5.90000e-15
  70
    32
  0
VERTEX
  8
0
  5
2779
 10
0.951558
 20
26.5259
 30
-5.90000e-15
  70
    32
  0
VERTEX
  8
0
  5
277A
 10
0.966673
 20
26.5251
 30
-5.90000e-15
  70
    32
  0
VERTEX
  8
0
  5
277B
 10
0.981788
 20
26.5244
 30
-5.90000e-15
  70
    32
  0
VERTEX
  8
0
  5
277C
 10
0.996903
 20
26.5236
 30
-5.90000e-15
  70
    32
  0
VERTEX
  8
0
  5
277D
 10
1.01202
 20
26.5228
 30
-5.90000e-15
  70
    32
  0
VERTEX
  8
0
  5
277E
 10
1.02714
 20
26.5220
 30
-5.90000e-15
  70
    32
  0
VERTEX
  8
0
  5
277F
 10
1.04225
 20
26.5212
 30
-5.90000e-15
  70
    32
  0
VERTEX
  8
0
  5
2780
 10
1.05737
 20
26.5203
 30
-5.90000e-15
  70
    32
  0
VERTEX
  8
0
  5
2781
 10
1.07249
 20
26.5195
 30
-5.90000e-15
  70
    32
  0
VERTEX
  8
0
  5
2782
 10
1.08760
 20
26.5186
 30
-5.90000e-15
  70
    32
  0
VERTEX
  8
0
  5
2783
 10
1.10272
 20
26.5178
 30
-5.90000e-15
  70
    32
  0
VERTEX
  8
0
  5
2784
 10
1.11784
 20
26.5169
 30
-5.90000e-15
  70
    32
  0
VERTEX
  8
0
  5
2785
 10
1.13296
 20
26.5160
 30
-5.90000e-15
  70
    32
  0
VERTEX
  8
0
  5
2786
 10
1.14808
 20
26.5151
 30
-5.90000e-15
  70
    32
  0
VERTEX
  8
0
  5
2787
 10
1.16320
 20
26.5142
 30
-5.90000e-15
  70
    32
  0
VERTEX
  8
0
  5
2788
 10
1.17832
 20
26.5133
 30
-5.90000e-15
  70
    32
  0
VERTEX
  8
0
  5
2789
 10
1.19344
 20
26.5123
 30
-5.90000e-15
  70
    32
  0
VERTEX
  8
0
  5
278A
 10
1.20856
 20
26.5114
 30
-5.90000e-15
  70
    32
  0
VERTEX
  8
0
  5
278B
 10
1.22368
 20
26.5104
 30
-5.90000e-15
  70
    32
  0
VERTEX
  8
0
  5
278C
 10
1.23880
 20
26.5095
 30
-5.90000e-15
  70
    32
  0
VERTEX
  8
0
  5
278D
 10
1.25392
 20
26.5085
 30
-5.90000e-15
  70
    32
  0
VERTEX
  8
0
  5
278E
 10
1.26904
 20
26.5075
 30
-5.90000e-15
  70
    32
  0
VERTEX
  8
0
  5
278F
 10
1.28416
 20
26.5065
 30
-5.90000e-15
  70
    32
  0
VERTEX
  8
0
  5
2790
 10
1.29928
 20
26.5055
 30
-5.90000e-15
  70
    32
  0
VERTEX
  8
0
  5
2791
 10
1.31441
 20
26.5045
 30
-5.90000e-15
  70
    32
  0
VERTEX
  8
0
  5
2792
 10
1.32953
 20
26.5034
 30
-5.90000e-15
  70
    32
  0
VERTEX
  8
0
  5
2793
 10
1.34465
 20
26.5024
 30
-5.90000e-15
  70
    32
  0
VERTEX
  8
0
  5
2794
 10
1.35977
 20
26.5013
 30
-5.90000e-15
  70
    32
  0
VERTEX
  8
0
  5
2795
 10
1.37490
 20
26.5003
 30
-5.90000e-15
  70
    32
  0
VERTEX
  8
0
  5
2796
 10
1.39002
 20
26.4992
 30
-5.90000e-15
  70
    32
  0
VERTEX
  8
0
  5
2797
 10
1.40515
 20
26.4981
 30
-5.90000e-15
  70
    32
  0
VERTEX
  8
0
  5
2798
 10
1.42027
 20
26.4970
 30
-5.90000e-15
  70
    32
  0
VERTEX
  8
0
  5
2799
 10
1.43540
 20
26.4959
 30
-5.90000e-15
  70
    32
  0
VERTEX
  8
0
  5
279A
 10
1.45052
 20
26.4948
 30
-5.90000e-15
  70
    32
  0
VERTEX
  8
0
  5
279B
 10
1.46565
 20
26.4936
 30
-5.90000e-15
  70
    32
  0
VERTEX
  8
0
  5
279C
 10
1.48077
 20
26.4925
 30
-5.90000e-15
  70
    32
  0
VERTEX
  8
0
  5
279D
 10
1.49590
 20
26.4913
 30
-5.90000e-15
  70
    32
  0
VERTEX
  8
0
  5
279E
 10
1.51103
 20
26.4902
 30
-5.89999e-15
  70
    32
  0
VERTEX
  8
0
  5
279F
 10
1.52616
 20
26.4890
 30
-5.89998e-15
  70
    32
  0
VERTEX
  8
0
  5
27A0
 10
1.54129
 20
26.4878
 30
-5.89997e-15
  70
    32
  0
VERTEX
  8
0
  5
27A1
 10
1.55642
 20
26.4866
 30
-5.89995e-15
  70
    32
  0
VERTEX
  8
0
  5
27A2
 10
1.57155
 20
26.4854
 30
-5.89993e-15
  70
    32
  0
VERTEX
  8
0
  5
27A3
 10
1.58668
 20
26.4842
 30
-5.89990e-15
  70
    32
  0
VERTEX
  8
0
  5
27A4
 10
1.60181
 20
26.4829
 30
-5.89987e-15
  70
    32
  0
VERTEX
  8
0
  5
27A5
 10
1.61694
 20
26.4817
 30
-5.89983e-15
  70
    32
  0
VERTEX
  8
0
  5
27A6
 10
1.63207
 20
26.4804
 30
-5.89978e-15
  70
    32
  0
VERTEX
  8
0
  5
27A7
 10
1.64721
 20
26.4792
 30
-5.89972e-15
  70
    32
  0
VERTEX
  8
0
  5
27A8
 10
1.66234
 20
26.4779
 30
-5.89965e-15
  70
    32
  0
VERTEX
  8
0
  5
27A9
 10
1.67747
 20
26.4766
 30
-5.89957e-15
  70
    32
  0
VERTEX
  8
0
  5
27AA
 10
1.69261
 20
26.4753
 30
-5.89948e-15
  70
    32
  0
VERTEX
  8
0
  5
27AB
 10
1.70774
 20
26.4740
 30
-5.89938e-15
  70
    32
  0
VERTEX
  8
0
  5
27AC
 10
1.72287
 20
26.4727
 30
-5.89927e-15
  70
    32
  0
VERTEX
  8
0
  5
27AD
 10
1.73801
 20
26.4714
 30
-5.89915e-15
  70
    32
  0
VERTEX
  8
0
  5
27AE
 10
1.75314
 20
26.4700
 30
-5.89901e-15
  70
    32
  0
VERTEX
  8
0
  5
27AF
 10
1.76828
 20
26.4687
 30
-5.89886e-15
  70
    32
  0
VERTEX
  8
0
  5
27B0
 10
1.78341
 20
26.4673
 30
-5.89869e-15
  70
    32
  0
VERTEX
  8
0
  5
27B1
 10
1.79855
 20
26.4659
 30
-5.89851e-15
  70
    32
  0
VERTEX
  8
0
  5
27B2
 10
1.81368
 20
26.4646
 30
-5.89831e-15
  70
    32
  0
VERTEX
  8
0
  5
27B3
 10
1.82882
 20
26.4632
 30
-5.89810e-15
  70
    32
  0
VERTEX
  8
0
  5
27B4
 10
1.84395
 20
26.4618
 30
-5.89786e-15
  70
    32
  0
VERTEX
  8
0
  5
27B5
 10
1.85909
 20
26.4604
 30
-5.89761e-15
  70
    32
  0
VERTEX
  8
0
  5
27B6
 10
1.87422
 20
26.4590
 30
-5.89734e-15
  70
    32
  0
VERTEX
  8
0
  5
27B7
 10
1.88936
 20
26.4575
 30
-5.89705e-15
  70
    32
  0
VERTEX
  8
0
  5
27B8
 10
1.90449
 20
26.4561
 30
-5.89674e-15
  70
    32
  0
VERTEX
  8
0
  5
27B9
 10
1.91963
 20
26.4546
 30
-5.89641e-15
  70
    32
  0
VERTEX
  8
0
  5
27BA
 10
1.93476
 20
26.4532
 30
-5.89606e-15
  70
    32
  0
VERTEX
  8
0
  5
27BB
 10
1.94990
 20
26.4517
 30
-5.89568e-15
  70
    32
  0
VERTEX
  8
0
  5
27BC
 10
1.96503
 20
26.4502
 30
-5.89529e-15
  70
    32
  0
VERTEX
  8
0
  5
27BD
 10
1.98017
 20
26.4487
 30
-5.89486e-15
  70
    32
  0
VERTEX
  8
0
  5
27BE
 10
1.99530
 20
26.4472
 30
-5.89442e-15
  70
    32
  0
VERTEX
  8
0
  5
27BF
 10
2.01043
 20
26.4457
 30
-5.89395e-15
  70
    32
  0
VERTEX
  8
0
  5
27C0
 10
2.02557
 20
26.4442
 30
-5.89345e-15
  70
    32
  0
VERTEX
  8
0
  5
27C1
 10
2.04070
 20
26.4427
 30
-5.89292e-15
  70
    32
  0
VERTEX
  8
0
  5
27C2
 10
2.05583
 20
26.4411
 30
-5.89237e-15
  70
    32
  0
VERTEX
  8
0
  5
27C3
 10
2.07096
 20
26.4396
 30
-5.89179e-15
  70
    32
  0
VERTEX
  8
0
  5
27C4
 10
2.08610
 20
26.4380
 30
-5.89119e-15
  70
    32
  0
VERTEX
  8
0
  5
27C5
 10
2.10123
 20
26.4365
 30
-5.89055e-15
  70
    32
  0
VERTEX
  8
0
  5
27C6
 10
2.11636
 20
26.4349
 30
-5.88988e-15
  70
    32
  0
VERTEX
  8
0
  5
27C7
 10
2.13149
 20
26.4333
 30
-5.88919e-15
  70
    32
  0
VERTEX
  8
0
  5
27C8
 10
2.14662
 20
26.4317
 30
-5.88846e-15
  70
    32
  0
VERTEX
  8
0
  5
27C9
 10
2.16175
 20
26.4301
 30
-5.88770e-15
  70
    32
  0
VERTEX
  8
0
  5
27CA
 10
2.17688
 20
26.4285
 30
-5.88690e-15
  70
    32
  0
VERTEX
  8
0
  5
27CB
 10
2.19201
 20
26.4269
 30
-5.88607e-15
  70
    32
  0
VERTEX
  8
0
  5
27CC
 10
2.20713
 20
26.4253
 30
-5.88521e-15
  70
    32
  0
VERTEX
  8
0
  5
27CD
 10
2.22226
 20
26.4236
 30
-5.88432e-15
  70
    32
  0
VERTEX
  8
0
  5
27CE
 10
2.23739
 20
26.4220
 30
-5.88339e-15
  70
    32
  0
VERTEX
  8
0
  5
27CF
 10
2.25251
 20
26.4203
 30
-5.88242e-15
  70
    32
  0
VERTEX
  8
0
  5
27D0
 10
2.26764
 20
26.4186
 30
-5.88141e-15
  70
    32
  0
VERTEX
  8
0
  5
27D1
 10
2.28276
 20
26.4170
 30
-5.88037e-15
  70
    32
  0
VERTEX
  8
0
  5
27D2
 10
2.29788
 20
26.4153
 30
-5.87929e-15
  70
    32
  0
VERTEX
  8
0
  5
27D3
 10
2.31301
 20
26.4136
 30
-5.87817e-15
  70
    32
  0
VERTEX
  8
0
  5
27D4
 10
2.32813
 20
26.4119
 30
-5.87701e-15
  70
    32
  0
VERTEX
  8
0
  5
27D5
 10
2.34325
 20
26.4102
 30
-5.87582e-15
  70
    32
  0
VERTEX
  8
0
  5
27D6
 10
2.35837
 20
26.4084
 30
-5.87458e-15
  70
    32
  0
VERTEX
  8
0
  5
27D7
 10
2.37349
 20
26.4067
 30
-5.87329e-15
  70
    32
  0
VERTEX
  8
0
  5
27D8
 10
2.38860
 20
26.4050
 30
-5.87197e-15
  70
    32
  0
VERTEX
  8
0
  5
27D9
 10
2.40372
 20
26.4032
 30
-5.87060e-15
  70
    32
  0
VERTEX
  8
0
  5
27DA
 10
2.41884
 20
26.4014
 30
-5.86919e-15
  70
    32
  0
VERTEX
  8
0
  5
27DB
 10
2.43395
 20
26.3997
 30
-5.86774e-15
  70
    32
  0
VERTEX
  8
0
  5
27DC
 10
2.44906
 20
26.3979
 30
-5.86624e-15
  70
    32
  0
VERTEX
  8
0
  5
27DD
 10
2.46418
 20
26.3961
 30
-5.86469e-15
  70
    32
  0
VERTEX
  8
0
  5
27DE
 10
2.47929
 20
26.3943
 30
-5.86310e-15
  70
    32
  0
VERTEX
  8
0
  5
27DF
 10
2.49440
 20
26.3925
 30
-5.86146e-15
  70
    32
  0
VERTEX
  8
0
  5
27E0
 10
2.50951
 20
26.3907
 30
-5.85977e-15
  70
    32
  0
VERTEX
  8
0
  5
27E1
 10
2.52461
 20
26.3889
 30
-5.85803e-15
  70
    32
  0
VERTEX
  8
0
  5
27E2
 10
2.53972
 20
26.3871
 30
-5.85625e-15
  70
    32
  0
VERTEX
  8
0
  5
27E3
 10
2.55482
 20
26.3852
 30
-5.85441e-15
  70
    32
  0
VERTEX
  8
0
  5
27E4
 10
2.56993
 20
26.3834
 30
-5.85253e-15
  70
    32
  0
VERTEX
  8
0
  5
27E5
 10
2.58503
 20
26.3815
 30
-5.85059e-15
  70
    32
  0
VERTEX
  8
0
  5
27E6
 10
2.60013
 20
26.3797
 30
-5.84860e-15
  70
    32
  0
VERTEX
  8
0
  5
27E7
 10
2.61523
 20
26.3778
 30
-5.84656e-15
  70
    32
  0
VERTEX
  8
0
  5
27E8
 10
2.63033
 20
26.3759
 30
-5.84446e-15
  70
    32
  0
VERTEX
  8
0
  5
27E9
 10
2.64543
 20
26.3740
 30
-5.84231e-15
  70
    32
  0
VERTEX
  8
0
  5
27EA
 10
2.66052
 20
26.3721
 30
-5.84011e-15
  70
    32
  0
VERTEX
  8
0
  5
27EB
 10
2.67561
 20
26.3702
 30
-5.83785e-15
  70
    32
  0
VERTEX
  8
0
  5
27EC
 10
2.69071
 20
26.3683
 30
-5.83553e-15
  70
    32
  0
VERTEX
  8
0
  5
27ED
 10
2.70580
 20
26.3664
 30
-5.83316e-15
  70
    32
  0
VERTEX
  8
0
  5
27EE
 10
2.72089
 20
26.3645
 30
-5.83073e-15
  70
    32
  0
VERTEX
  8
0
  5
27EF
 10
2.73597
 20
26.3625
 30
-5.82824e-15
  70
    32
  0
VERTEX
  8
0
  5
27F0
 10
2.75106
 20
26.3606
 30
-5.82569e-15
  70
    32
  0
VERTEX
  8
0
  5
27F1
 10
2.76614
 20
26.3586
 30
-5.82308e-15
  70
    32
  0
VERTEX
  8
0
  5
27F2
 10
2.78123
 20
26.3567
 30
-5.82042e-15
  70
    32
  0
VERTEX
  8
0
  5
27F3
 10
2.79631
 20
26.3547
 30
-5.81769e-15
  70
    32
  0
VERTEX
  8
0
  5
27F4
 10
2.81138
 20
26.3527
 30
-5.81490e-15
  70
    32
  0
VERTEX
  8
0
  5
27F5
 10
2.82646
 20
26.3508
 30
-5.81205e-15
  70
    32
  0
VERTEX
  8
0
  5
27F6
 10
2.84154
 20
26.3488
 30
-5.80913e-15
  70
    32
  0
VERTEX
  8
0
  5
27F7
 10
2.85661
 20
26.3468
 30
-5.80615e-15
  70
    32
  0
VERTEX
  8
0
  5
27F8
 10
2.87168
 20
26.3448
 30
-5.80311e-15
  70
    32
  0
VERTEX
  8
0
  5
27F9
 10
2.88675
 20
26.3427
 30
-5.80000e-15
  70
    32
  0
SEQEND
  8
0
  5
27FA
  0
LINE
  5
1A74
  8
0
  6
CONTINUOUS
 62
     3
 10
0.0000000000000018
 20
26.5500000000000291
 30
-0.0000000000000059
 11
-4.3301270189222114
 21
26.5500000000000291
 31
-0.0000000000000059
210
0.0
220
1.0
230
-0.0000000000000002
  0
LINE
  5
1A75
  8
0
  6
CONTINUOUS
 62
     3
 10
4.3301270189222141
 20
26.5500000000000291
 30
-0.0000000000000059
 11
0.0000000000000018
 21
26.5500000000000291
 31
-0.0000000000000059
210
0.0
220
1.0
230
-0.0000000000000002
  0
LINE
  5
1A76
  8
0
  6
CONTINUOUS
 62
     3
 10
5.000000000000024
 20
26.5500000000000291
 30
-0.0000000000000059
 11
4.3301270189222141
 21
26.5500000000000291
 31
-0.0000000000000059
210
0.0
220
1.0
230
-0.0000000000000002
  0
LINE
  5
1A77
  8
0
  6
CONTINUOUS
 62
     3
 10
-5.0000000000000213
 20
26.5500000000000398
 30
-0.0000000000000059
 11
-5.7735026918951826
 21
26.3427405783634292
 31
-0.0000000000000058
210
0.0
220
1.0
230
-0.0000000000000002
  0
LINE
  5
1A78
  8
0
  6
CONTINUOUS
 62
     3
 10
5.7735026918962609
 20
21.9679196819993692
 30
-0.0000000000000049
 11
6.7381110788291174
 21
21.6168309414322799
 31
-0.0000000000000048
210
0.0
220
1.0
230
-0.0000000000000002
  0
LINE
  5
1A79
  8
0
  6
CONTINUOUS
 62
     3
 10
-5.7735026918962671
 20
21.9679196819993798
 30
-0.0000000000000049
 11
-6.7381110788291174
 21
21.6168309414322799
 31
-0.0000000000000048
210
0.0
220
1.0
230
-0.0000000000000002
  0
ARC
  5
1A7A
  8
0
  6
CONTINUOUS
 62
     3
 10
-6.5500000000000034
 20
21.1000000000000192
 30
0.0
 40
0.5499999999999992
210
0.0
220
-0.0000000000000002
230
-1.0
 50
109.9999999999996021
 51
270.0000000000003979
  0
ARC
  5
1A7B
  8
0
  6
CONTINUOUS
 62
     3
 10
6.5500000000000034
 20
21.1000000000000298
 30
0.0
 40
0.5500000000000007
210
0.0
220
-0.0000000000000002
230
-1.0
 50
270.0
 51
70.0000000000007532
  0
LINE
  5
1A7C
  8
0
  6
CONTINUOUS
 62
     3
 10
5.000000000000024
 20
26.5500000000000291
 30
-0.0000000000000059
 11
5.7735026918951808
 21
26.3427405783634185
 31
-0.0000000000000058
210
0.0
220
1.0
230
-0.0000000000000002
  0
LINE
  5
1A7D
  8
0
  6
CONTINUOUS
 62
     3
 10
-29.7326730120209888
 20
17.0500000000000504
 30
-0.0000000000000038
 11
29.7326730120209888
 21
17.0500000000000504
 31
-0.0000000000000038
210
0.0
220
1.0
230
-0.0000000000000002
  0
LINE
  5
1A7E
  8
0
  6
CONTINUOUS
 62
     3
 10
-33.4226092978046907
 20
10.4382285676538
 30
-0.0000000000000023
 11
33.4226092978046907
 21
10.4382285676538
 31
-0.0000000000000023
210
0.0
220
1.0
230
-0.0000000000000002
  0
LINE
  5
1A7F
  8
0
  6
CONTINUOUS
 62
     3
 10
-31.9737205583711592
 20
10.0500000000000203
 30
-0.0000000000000022
 11
31.9737205583711592
 21
10.0500000000000203
 31
-0.0000000000000022
210
0.0
220
1.0
230
-0.0000000000000002
  0
LINE
  5
1A80
  8
0
  6
CONTINUOUS
 62
     3
 10
-11.08578643762689
 20
20.0500000000000291
 30
-0.0000000000000045
 11
11.08578643762689
 21
20.0500000000000291
 31
-0.0000000000000045
210
0.0
220
1.0
230
-0.0000000000000002
  0
LINE
  5
1A81
  8
0
  6
CONTINUOUS
 62
     3
 10
12.8535533905933601
 20
19.3177669529663802
 30
-0.0000000000000043
 11
14.8284271247462094
 21
17.3428932188134688
 31
-0.0000000000000039
210
0.0
220
1.0
230
-0.0000000000000002
  0
LINE
  5
1A82
  8
0
  6
CONTINUOUS
 62
     3
 10
-12.8535533905933601
 20
19.3177669529663802
 30
-0.0000000000000043
 11
-14.8284271247462094
 21
17.3428932188134688
 31
-0.0000000000000039
210
0.0
220
1.0
230
-0.0000000000000002
  0
ARC
  5
1A83
  8
0
  6
CONTINUOUS
 62
     3
 10
15.5355339059327608
 20
18.0499999999999403
 30
0.0
 40
0.9999999999999502
210
0.0
220
-0.0000000000000002
230
-1.0
 50
224.9999999999967031
 51
270.0
  0
ARC
  5
1A84
  8
0
  6
CONTINUOUS
 62
     3
 10
-15.5355339059327608
 20
18.0499999999999403
 30
0.0
 40
0.9999999999999502
210
0.0
220
-0.0000000000000002
230
-1.0
 50
270.0
 51
315.0000000000032969
  0
ARC
  5
1A85
  8
0
  6
CONTINUOUS
 62
     3
 10
29.7326730120208893
 20
14.5500000000000291
 30
0.0
 40
2.500000000000016
210
0.0
220
-0.0000000000000002
230
-1.0
 50
15.0000000000000195
 51
89.9999999999975557
  0
ARC
  5
1A86
  8
0
  6
CONTINUOUS
 62
     3
 10
-29.7326730120208893
 20
14.5500000000000291
 30
0.0
 40
2.5000000000000191
210
0.0
220
-0.0000000000000002
230
-1.0
 50
90.0000000000024443
 51
164.9999999999998863
  0
LINE
  5
1A87
  8
0
  6
CONTINUOUS
 62
     3
 10
32.1474875777435471
 20
15.1970476127563305
 30
-0.0000000000000034
 11
33.4226092978046267
 21
10.4382285676537894
 31
-0.0000000000000023
210
0.0
220
1.0
230
-0.0000000000000002
  0
LINE
  5
1A88
  8
0
  6
CONTINUOUS
 62
     3
 10
-32.1474875777435471
 20
15.1970476127563305
 30
-0.0000000000000034
 11
-33.4226092978046267
 21
10.4382285676537894
 31
-0.0000000000000023
210
0.0
220
1.0
230
-0.0000000000000002
  0
LINE
  5
1A89
  8
0
  6
CONTINUOUS
 62
     3
 10
-31.9737205583711592
 20
10.0500000000000203
 30
-0.0000000000000022
 11
-33.4226092978046907
 21
10.4382285676538107
 31
-0.0000000000000023
210
0.0
220
1.0
230
-0.0000000000000002
  0
LINE
  5
1A8A
  8
0
  6
CONTINUOUS
 62
     3
 10
31.9737205583711592
 20
10.0500000000000203
 30
-0.0000000000000022
 11
33.4226092978046907
 21
10.4382285676538107
 31
-0.0000000000000023
210
0.0
220
1.0
230
-0.0000000000000002
  0
ARC
  5
1A8B
  8
0
  6
CONTINUOUS
 62
     3
 10
11.0857864376267692
 20
17.54999999999972
 30
0.0
 40
2.5000000000003051
210
0.0
220
-0.0000000000000002
230
-1.0
 50
45.0000000000011866
 51
89.9999999999972573
  0
ARC
  5
1A8C
  8
0
  6
CONTINUOUS
 62
     3
 10
-11.0857864376267905
 20
17.5499999999997591
 30
0.0
 40
2.500000000000266
210
0.0
220
-0.0000000000000002
230
-1.0
 50
90.0000000000023874
 51
134.9999999999992042
  0
LINE
  5
1A8D
  8
0
  6
CONTINUOUS
 62
     3
 10
-26.3500000000000192
 20
1.5000000000000071
 30
-0.0000000000000003
 11
26.3500000000000192
 21
1.5000000000000071
 31
-0.0000000000000003
210
0.0
220
1.0
230
-0.0000000000000002
  0
LINE
  5
1A8E
  8
0
  6
CONTINUOUS
 62
     3
 10
-26.3499999999999091
 20
-0.0000000000000071
 30
0.0
 11
26.3499999999999091
 21
-0.0000000000000071
 31
0.0
210
0.0
220
1.0
230
-0.0000000000000002
  0
LINE
  5
1A8F
  8
0
  6
CONTINUOUS
 62
     3
 10
-1.3717025196776831
 20
26.5000000000000604
 30
-0.0000000000000059
 11
-1.3707080830490661
 21
26.5000000000000604
 31
-0.0000000000000059
210
0.0
220
1.0
230
-0.0000000000000002
  0
LINE
  5
1A90
  8
0
  6
CONTINUOUS
 62
     3
 10
18.0016464937319789
 20
5.5499999999999972
 30
-0.0000000000000012
 11
21.1002632150360512
 21
1.857212390313451
 31
-0.0000000000000004
210
0.0
220
1.0
230
-0.0000000000000002
  0
LINE
  5
1A91
  8
0
  6
CONTINUOUS
 62
     3
 10
-18.0016464937319789
 20
5.5499999999999972
 30
-0.0000000000000012
 11
-21.1002632150360512
 21
1.857212390313451
 31
-0.0000000000000004
210
0.0
220
1.0
230
-0.0000000000000002
  0
ARC
  5
1A92
  8
0
  6
CONTINUOUS
 62
     3
 10
21.8663076581550584
 20
2.500000000000012
 30
0.0
 40
0.9999999999999944
210
0.0
220
-0.0000000000000002
230
-1.0
 50
219.999999999999801
 51
269.9999999999997726
  0
ARC
  5
1A93
  8
0
  6
CONTINUOUS
 62
     3
 10
-21.8663076581550513
 20
2.5000000000000111
 30
0.0
 40
0.9999999999999925
210
0.0
220
-0.0000000000000002
230
-1.0
 50
270.0
 51
320.0000000000001137
  0
LINE
  5
1A94
  8
0
  6
CONTINUOUS
 62
     3
 10
26.3499999999999091
 20
1.5000000000000071
 30
-0.0000000000000003
 11
26.3499999999999091
 21
-0.0000000000000071
 31
0.0
210
0.0
220
1.0
230
-0.0000000000000002
  0
LINE
  5
1A95
  8
0
  6
CONTINUOUS
 62
     3
 10
-26.3499999999999091
 20
1.5000000000000071
 30
-0.0000000000000003
 11
-26.3499999999999091
 21
-0.0000000000000071
 31
0.0
210
0.0
220
1.0
230
-0.0000000000000002
  0
LINE
  5
1A96
  8
0
  6
CONTINUOUS
 62
     3
 10
2.059186024211709
 20
26.4408139757883482
 30
-0.0000000000000059
 11
2.0591940048831181
 21
26.4408059951169392
 31
-0.0000000000000059
210
0.0
220
1.0
230
-0.0000000000000002
  0
LINE
  5
1A97
  8
0
  6
CONTINUOUS
 62
     3
 10
-2.0594667531450952
 20
26.4405332468549616
 30
-0.0000000000000059
 11
-2.0595345169728891
 21
26.4404654830271717
 31
-0.0000000000000059
210
0.0
220
1.0
230
-0.0000000000000002
  0
LINE
  5
1A98
  8
0
  6
CONTINUOUS
 62
     3
 10
2.6130774211731129
 20
22.0158967717692491
 30
-0.0000000000000049
 11
2.6130853938599059
 21
22.0158861415201912
 31
-0.0000000000000049
210
0.0
220
1.0
230
-0.0000000000000002
  0
LINE
  5
1A99
  8
0
  6
CONTINUOUS
 62
     3
 10
-2.613125841383408
 20
22.0158322114888598
 30
-0.0000000000000049
 11
-2.6131418989979789
 21
22.0158108013360909
 31
-0.0000000000000049
210
0.0
220
1.0
230
-0.0000000000000002
  0
LINE
  5
1A9A
  8
0
  6
CONTINUOUS
 62
     3
 10
-28.0
 20
5.549999999999998
 30
-0.0000000000000012
 11
28.0
 21
5.549999999999998
 31
-0.0000000000000012
210
0.0
220
1.0
230
-0.0000000000000002
  0
LINE
  5
1A9B
  8
0
  6
CONTINUOUS
 62
     3
 10
28.0
 20
10.0500000000000203
 30
-0.0000000000000022
 11
28.0
 21
5.549999999999998
 31
-0.0000000000000012
210
0.0
220
1.0
230
-0.0000000000000002
  0
LINE
  5
1A9C
  8
0
  6
CONTINUOUS
 62
     3
 10
-28.0
 20
10.0500000000000203
 30
-0.0000000000000022
 11
-28.0
 21
5.549999999999998
 31
-0.0000000000000012
210
0.0
220
1.0
230
-0.0000000000000002
  0
LINE
  5
1A9D
  8
0
  6
CONTINUOUS
 62
     3
 10
6.0
 20
20.5500000000000504
 30
-0.0000000000000046
 11
6.0
 21
20.0500000000000398
 31
-0.0000000000000045
210
0.0
220
1.0
230
-0.0000000000000002
  0
LINE
  5
1A9E
  8
0
  6
CONTINUOUS
 62
     3
 10
-6.0
 20
20.5500000000000504
 30
-0.0000000000000046
 11
-6.0
 21
20.0500000000000398
 31
-0.0000000000000045
210
0.0
220
1.0
230
-0.0000000000000002
  0
LINE
  5
1A9F
  8
0
  6
VERDECKT
 62
     1
 10
2.4585000000000008
 20
21.091500000000039
 30
-0.0000000000000047
 11
-2.4585000000000008
 21
21.091500000000039
 31
-0.0000000000000047
210
0.0
220
1.0
230
-0.0000000000000002
  0
POLYLINE
  8
0
  5
27FB
  62
1
  66
     1
 10
0.000000
 20
0.000000
 30
0.000000
  70
     8
  0
VERTEX
  8
0
  5
27FC
 10
2.88675
 20
26.3427
 30
-5.80000e-15
  70
    32
  0
VERTEX
  8
0
  5
27FD
 10
2.87168
 20
26.3448
 30
-5.80311e-15
  70
    32
  0
VERTEX
  8
0
  5
27FE
 10
2.85661
 20
26.3468
 30
-5.80615e-15
  70
    32
  0
VERTEX
  8
0
  5
27FF
 10
2.84154
 20
26.3488
 30
-5.80913e-15
  70
    32
  0
VERTEX
  8
0
  5
2800
 10
2.82646
 20
26.3508
 30
-5.81205e-15
  70
    32
  0
VERTEX
  8
0
  5
2801
 10
2.81138
 20
26.3527
 30
-5.81490e-15
  70
    32
  0
VERTEX
  8
0
  5
2802
 10
2.79631
 20
26.3547
 30
-5.81769e-15
  70
    32
  0
VERTEX
  8
0
  5
2803
 10
2.78123
 20
26.3567
 30
-5.82042e-15
  70
    32
  0
VERTEX
  8
0
  5
2804
 10
2.76614
 20
26.3586
 30
-5.82308e-15
  70
    32
  0
VERTEX
  8
0
  5
2805
 10
2.75106
 20
26.3606
 30
-5.82569e-15
  70
    32
  0
VERTEX
  8
0
  5
2806
 10
2.73597
 20
26.3625
 30
-5.82824e-15
  70
    32
  0
VERTEX
  8
0
  5
2807
 10
2.72089
 20
26.3645
 30
-5.83073e-15
  70
    32
  0
VERTEX
  8
0
  5
2808
 10
2.70580
 20
26.3664
 30
-5.83316e-15
  70
    32
  0
VERTEX
  8
0
  5
2809
 10
2.69071
 20
26.3683
 30
-5.83553e-15
  70
    32
  0
VERTEX
  8
0
  5
280A
 10
2.67561
 20
26.3702
 30
-5.83785e-15
  70
    32
  0
VERTEX
  8
0
  5
280B
 10
2.66052
 20
26.3721
 30
-5.84011e-15
  70
    32
  0
VERTEX
  8
0
  5
280C
 10
2.64543
 20
26.3740
 30
-5.84231e-15
  70
    32
  0
VERTEX
  8
0
  5
280D
 10
2.63033
 20
26.3759
 30
-5.84446e-15
  70
    32
  0
VERTEX
  8
0
  5
280E
 10
2.61523
 20
26.3778
 30
-5.84656e-15
  70
    32
  0
VERTEX
  8
0
  5
280F
 10
2.60013
 20
26.3797
 30
-5.84860e-15
  70
    32
  0
VERTEX
  8
0
  5
2810
 10
2.58503
 20
26.3815
 30
-5.85059e-15
  70
    32
  0
VERTEX
  8
0
  5
2811
 10
2.56993
 20
26.3834
 30
-5.85253e-15
  70
    32
  0
VERTEX
  8
0
  5
2812
 10
2.55482
 20
26.3852
 30
-5.85441e-15
  70
    32
  0
VERTEX
  8
0
  5
2813
 10
2.53972
 20
26.3871
 30
-5.85625e-15
  70
    32
  0
VERTEX
  8
0
  5
2814
 10
2.52461
 20
26.3889
 30
-5.85803e-15
  70
    32
  0
VERTEX
  8
0
  5
2815
 10
2.50951
 20
26.3907
 30
-5.85977e-15
  70
    32
  0
VERTEX
  8
0
  5
2816
 10
2.49440
 20
26.3925
 30
-5.86146e-15
  70
    32
  0
VERTEX
  8
0
  5
2817
 10
2.47929
 20
26.3943
 30
-5.86310e-15
  70
    32
  0
VERTEX
  8
0
  5
2818
 10
2.46418
 20
26.3961
 30
-5.86469e-15
  70
    32
  0
VERTEX
  8
0
  5
2819
 10
2.44906
 20
26.3979
 30
-5.86624e-15
  70
    32
  0
VERTEX
  8
0
  5
281A
 10
2.43395
 20
26.3997
 30
-5.86774e-15
  70
    32
  0
VERTEX
  8
0
  5
281B
 10
2.41884
 20
26.4014
 30
-5.86919e-15
  70
    32
  0
VERTEX
  8
0
  5
281C
 10
2.40372
 20
26.4032
 30
-5.87060e-15
  70
    32
  0
VERTEX
  8
0
  5
281D
 10
2.38860
 20
26.4050
 30
-5.87197e-15
  70
    32
  0
VERTEX
  8
0
  5
281E
 10
2.37349
 20
26.4067
 30
-5.87329e-15
  70
    32
  0
VERTEX
  8
0
  5
281F
 10
2.35837
 20
26.4084
 30
-5.87458e-15
  70
    32
  0
VERTEX
  8
0
  5
2820
 10
2.34325
 20
26.4102
 30
-5.87582e-15
  70
    32
  0
VERTEX
  8
0
  5
2821
 10
2.32813
 20
26.4119
 30
-5.87701e-15
  70
    32
  0
VERTEX
  8
0
  5
2822
 10
2.31301
 20
26.4136
 30
-5.87817e-15
  70
    32
  0
VERTEX
  8
0
  5
2823
 10
2.29788
 20
26.4153
 30
-5.87929e-15
  70
    32
  0
VERTEX
  8
0
  5
2824
 10
2.28276
 20
26.4170
 30
-5.88037e-15
  70
    32
  0
VERTEX
  8
0
  5
2825
 10
2.26764
 20
26.4186
 30
-5.88141e-15
  70
    32
  0
VERTEX
  8
0
  5
2826
 10
2.25251
 20
26.4203
 30
-5.88242e-15
  70
    32
  0
VERTEX
  8
0
  5
2827
 10
2.23739
 20
26.4220
 30
-5.88339e-15
  70
    32
  0
VERTEX
  8
0
  5
2828
 10
2.22226
 20
26.4236
 30
-5.88432e-15
  70
    32
  0
VERTEX
  8
0
  5
2829
 10
2.20713
 20
26.4253
 30
-5.88521e-15
  70
    32
  0
VERTEX
  8
0
  5
282A
 10
2.19201
 20
26.4269
 30
-5.88607e-15
  70
    32
  0
VERTEX
  8
0
  5
282B
 10
2.17688
 20
26.4285
 30
-5.88690e-15
  70
    32
  0
VERTEX
  8
0
  5
282C
 10
2.16175
 20
26.4301
 30
-5.88770e-15
  70
    32
  0
VERTEX
  8
0
  5
282D
 10
2.14662
 20
26.4317
 30
-5.88846e-15
  70
    32
  0
VERTEX
  8
0
  5
282E
 10
2.13149
 20
26.4333
 30
-5.88919e-15
  70
    32
  0
VERTEX
  8
0
  5
282F
 10
2.11636
 20
26.4349
 30
-5.88988e-15
  70
    32
  0
VERTEX
  8
0
  5
2830
 10
2.10123
 20
26.4365
 30
-5.89055e-15
  70
    32
  0
VERTEX
  8
0
  5
2831
 10
2.08610
 20
26.4380
 30
-5.89119e-15
  70
    32
  0
VERTEX
  8
0
  5
2832
 10
2.07096
 20
26.4396
 30
-5.89179e-15
  70
    32
  0
VERTEX
  8
0
  5
2833
 10
2.05583
 20
26.4411
 30
-5.89237e-15
  70
    32
  0
VERTEX
  8
0
  5
2834
 10
2.04070
 20
26.4427
 30
-5.89292e-15
  70
    32
  0
VERTEX
  8
0
  5
2835
 10
2.02557
 20
26.4442
 30
-5.89345e-15
  70
    32
  0
VERTEX
  8
0
  5
2836
 10
2.01043
 20
26.4457
 30
-5.89395e-15
  70
    32
  0
VERTEX
  8
0
  5
2837
 10
1.99530
 20
26.4472
 30
-5.89442e-15
  70
    32
  0
VERTEX
  8
0
  5
2838
 10
1.98017
 20
26.4487
 30
-5.89486e-15
  70
    32
  0
VERTEX
  8
0
  5
2839
 10
1.96503
 20
26.4502
 30
-5.89529e-15
  70
    32
  0
VERTEX
  8
0
  5
283A
 10
1.94990
 20
26.4517
 30
-5.89568e-15
  70
    32
  0
VERTEX
  8
0
  5
283B
 10
1.93476
 20
26.4532
 30
-5.89606e-15
  70
    32
  0
VERTEX
  8
0
  5
283C
 10
1.91963
 20
26.4546
 30
-5.89641e-15
  70
    32
  0
VERTEX
  8
0
  5
283D
 10
1.90449
 20
26.4561
 30
-5.89674e-15
  70
    32
  0
VERTEX
  8
0
  5
283E
 10
1.88936
 20
26.4575
 30
-5.89705e-15
  70
    32
  0
VERTEX
  8
0
  5
283F
 10
1.87422
 20
26.4590
 30
-5.89734e-15
  70
    32
  0
VERTEX
  8
0
  5
2840
 10
1.85909
 20
26.4604
 30
-5.89761e-15
  70
    32
  0
VERTEX
  8
0
  5
2841
 10
1.84395
 20
26.4618
 30
-5.89786e-15
  70
    32
  0
VERTEX
  8
0
  5
2842
 10
1.82882
 20
26.4632
 30
-5.89810e-15
  70
    32
  0
VERTEX
  8
0
  5
2843
 10
1.81368
 20
26.4646
 30
-5.89831e-15
  70
    32
  0
VERTEX
  8
0
  5
2844
 10
1.79855
 20
26.4659
 30
-5.89851e-15
  70
    32
  0
VERTEX
  8
0
  5
2845
 10
1.78341
 20
26.4673
 30
-5.89869e-15
  70
    32
  0
VERTEX
  8
0
  5
2846
 10
1.76828
 20
26.4687
 30
-5.89886e-15
  70
    32
  0
VERTEX
  8
0
  5
2847
 10
1.75314
 20
26.4700
 30
-5.89901e-15
  70
    32
  0
VERTEX
  8
0
  5
2848
 10
1.73801
 20
26.4714
 30
-5.89915e-15
  70
    32
  0
VERTEX
  8
0
  5
2849
 10
1.72287
 20
26.4727
 30
-5.89927e-15
  70
    32
  0
VERTEX
  8
0
  5
284A
 10
1.70774
 20
26.4740
 30
-5.89938e-15
  70
    32
  0
VERTEX
  8
0
  5
284B
 10
1.69261
 20
26.4753
 30
-5.89948e-15
  70
    32
  0
VERTEX
  8
0
  5
284C
 10
1.67747
 20
26.4766
 30
-5.89957e-15
  70
    32
  0
VERTEX
  8
0
  5
284D
 10
1.66234
 20
26.4779
 30
-5.89965e-15
  70
    32
  0
VERTEX
  8
0
  5
284E
 10
1.64721
 20
26.4792
 30
-5.89972e-15
  70
    32
  0
VERTEX
  8
0
  5
284F
 10
1.63207
 20
26.4804
 30
-5.89978e-15
  70
    32
  0
VERTEX
  8
0
  5
2850
 10
1.61694
 20
26.4817
 30
-5.89983e-15
  70
    32
  0
VERTEX
  8
0
  5
2851
 10
1.60181
 20
26.4829
 30
-5.89987e-15
  70
    32
  0
VERTEX
  8
0
  5
2852
 10
1.58668
 20
26.4842
 30
-5.89990e-15
  70
    32
  0
VERTEX
  8
0
  5
2853
 10
1.57155
 20
26.4854
 30
-5.89993e-15
  70
    32
  0
VERTEX
  8
0
  5
2854
 10
1.55642
 20
26.4866
 30
-5.89995e-15
  70
    32
  0
VERTEX
  8
0
  5
2855
 10
1.54129
 20
26.4878
 30
-5.89997e-15
  70
    32
  0
VERTEX
  8
0
  5
2856
 10
1.52616
 20
26.4890
 30
-5.89998e-15
  70
    32
  0
VERTEX
  8
0
  5
2857
 10
1.51103
 20
26.4902
 30
-5.89999e-15
  70
    32
  0
VERTEX
  8
0
  5
2858
 10
1.49590
 20
26.4913
 30
-5.90000e-15
  70
    32
  0
VERTEX
  8
0
  5
2859
 10
1.48077
 20
26.4925
 30
-5.90000e-15
  70
    32
  0
VERTEX
  8
0
  5
285A
 10
1.46565
 20
26.4936
 30
-5.90000e-15
  70
    32
  0
VERTEX
  8
0
  5
285B
 10
1.45052
 20
26.4948
 30
-5.90000e-15
  70
    32
  0
VERTEX
  8
0
  5
285C
 10
1.43540
 20
26.4959
 30
-5.90000e-15
  70
    32
  0
VERTEX
  8
0
  5
285D
 10
1.42027
 20
26.4970
 30
-5.90000e-15
  70
    32
  0
VERTEX
  8
0
  5
285E
 10
1.40515
 20
26.4981
 30
-5.90000e-15
  70
    32
  0
VERTEX
  8
0
  5
285F
 10
1.39002
 20
26.4992
 30
-5.90000e-15
  70
    32
  0
VERTEX
  8
0
  5
2860
 10
1.37490
 20
26.5003
 30
-5.90000e-15
  70
    32
  0
VERTEX
  8
0
  5
2861
 10
1.35977
 20
26.5013
 30
-5.90000e-15
  70
    32
  0
VERTEX
  8
0
  5
2862
 10
1.34465
 20
26.5024
 30
-5.90000e-15
  70
    32
  0
VERTEX
  8
0
  5
2863
 10
1.32953
 20
26.5034
 30
-5.90000e-15
  70
    32
  0
VERTEX
  8
0
  5
2864
 10
1.31441
 20
26.5045
 30
-5.90000e-15
  70
    32
  0
VERTEX
  8
0
  5
2865
 10
1.29928
 20
26.5055
 30
-5.90000e-15
  70
    32
  0
VERTEX
  8
0
  5
2866
 10
1.28416
 20
26.5065
 30
-5.90000e-15
  70
    32
  0
VERTEX
  8
0
  5
2867
 10
1.26904
 20
26.5075
 30
-5.90000e-15
  70
    32
  0
VERTEX
  8
0
  5
2868
 10
1.25392
 20
26.5085
 30
-5.90000e-15
  70
    32
  0
VERTEX
  8
0
  5
2869
 10
1.23880
 20
26.5095
 30
-5.90000e-15
  70
    32
  0
VERTEX
  8
0
  5
286A
 10
1.22368
 20
26.5104
 30
-5.90000e-15
  70
    32
  0
VERTEX
  8
0
  5
286B
 10
1.20856
 20
26.5114
 30
-5.90000e-15
  70
    32
  0
VERTEX
  8
0
  5
286C
 10
1.19344
 20
26.5123
 30
-5.90000e-15
  70
    32
  0
VERTEX
  8
0
  5
286D
 10
1.17832
 20
26.5133
 30
-5.90000e-15
  70
    32
  0
VERTEX
  8
0
  5
286E
 10
1.16320
 20
26.5142
 30
-5.90000e-15
  70
    32
  0
VERTEX
  8
0
  5
286F
 10
1.14808
 20
26.5151
 30
-5.90000e-15
  70
    32
  0
VERTEX
  8
0
  5
2870
 10
1.13296
 20
26.5160
 30
-5.90000e-15
  70
    32
  0
VERTEX
  8
0
  5
2871
 10
1.11784
 20
26.5169
 30
-5.90000e-15
  70
    32
  0
VERTEX
  8
0
  5
2872
 10
1.10272
 20
26.5178
 30
-5.90000e-15
  70
    32
  0
VERTEX
  8
0
  5
2873
 10
1.08760
 20
26.5186
 30
-5.90000e-15
  70
    32
  0
VERTEX
  8
0
  5
2874
 10
1.07249
 20
26.5195
 30
-5.90000e-15
  70
    32
  0
VERTEX
  8
0
  5
2875
 10
1.05737
 20
26.5203
 30
-5.90000e-15
  70
    32
  0
VERTEX
  8
0
  5
2876
 10
1.04225
 20
26.5212
 30
-5.90000e-15
  70
    32
  0
VERTEX
  8
0
  5
2877
 10
1.02714
 20
26.5220
 30
-5.90000e-15
  70
    32
  0
VERTEX
  8
0
  5
2878
 10
1.01202
 20
26.5228
 30
-5.90000e-15
  70
    32
  0
VERTEX
  8
0
  5
2879
 10
0.996903
 20
26.5236
 30
-5.90000e-15
  70
    32
  0
VERTEX
  8
0
  5
287A
 10
0.981788
 20
26.5244
 30
-5.90000e-15
  70
    32
  0
VERTEX
  8
0
  5
287B
 10
0.966673
 20
26.5251
 30
-5.90000e-15
  70
    32
  0
VERTEX
  8
0
  5
287C
 10
0.951558
 20
26.5259
 30
-5.90000e-15
  70
    32
  0
VERTEX
  8
0
  5
287D
 10
0.936443
 20
26.5267
 30
-5.90000e-15
  70
    32
  0
VERTEX
  8
0
  5
287E
 10
0.921329
 20
26.5274
 30
-5.90000e-15
  70
    32
  0
VERTEX
  8
0
  5
287F
 10
0.906215
 20
26.5281
 30
-5.90000e-15
  70
    32
  0
VERTEX
  8
0
  5
2880
 10
0.891101
 20
26.5288
 30
-5.90000e-15
  70
    32
  0
VERTEX
  8
0
  5
2881
 10
0.875988
 20
26.5295
 30
-5.90000e-15
  70
    32
  0
VERTEX
  8
0
  5
2882
 10
0.860875
 20
26.5302
 30
-5.90000e-15
  70
    32
  0
VERTEX
  8
0
  5
2883
 10
0.845763
 20
26.5309
 30
-5.90000e-15
  70
    32
  0
VERTEX
  8
0
  5
2884
 10
0.830650
 20
26.5316
 30
-5.90000e-15
  70
    32
  0
VERTEX
  8
0
  5
2885
 10
0.815538
 20
26.5322
 30
-5.90000e-15
  70
    32
  0
VERTEX
  8
0
  5
2886
 10
0.800427
 20
26.5329
 30
-5.90000e-15
  70
    32
  0
VERTEX
  8
0
  5
2887
 10
0.785316
 20
26.5335
 30
-5.90000e-15
  70
    32
  0
VERTEX
  8
0
  5
2888
 10
0.770205
 20
26.5341
 30
-5.90000e-15
  70
    32
  0
VERTEX
  8
0
  5
2889
 10
0.755094
 20
26.5347
 30
-5.90000e-15
  70
    32
  0
VERTEX
  8
0
  5
288A
 10
0.739984
 20
26.5353
 30
-5.90000e-15
  70
    32
  0
VERTEX
  8
0
  5
288B
 10
0.724874
 20
26.5359
 30
-5.90000e-15
  70
    32
  0
VERTEX
  8
0
  5
288C
 10
0.709764
 20
26.5365
 30
-5.90000e-15
  70
    32
  0
VERTEX
  8
0
  5
288D
 10
0.694655
 20
26.5371
 30
-5.90000e-15
  70
    32
  0
VERTEX
  8
0
  5
288E
 10
0.679546
 20
26.5376
 30
-5.90000e-15
  70
    32
  0
VERTEX
  8
0
  5
288F
 10
0.664438
 20
26.5382
 30
-5.90000e-15
  70
    32
  0
VERTEX
  8
0
  5
2890
 10
0.649329
 20
26.5387
 30
-5.90000e-15
  70
    32
  0
VERTEX
  8
0
  5
2891
 10
0.634221
 20
26.5392
 30
-5.90000e-15
  70
    32
  0
VERTEX
  8
0
  5
2892
 10
0.619114
 20
26.5397
 30
-5.90000e-15
  70
    32
  0
VERTEX
  8
0
  5
2893
 10
0.604007
 20
26.5402
 30
-5.90000e-15
  70
    32
  0
VERTEX
  8
0
  5
2894
 10
0.588900
 20
26.5407
 30
-5.90000e-15
  70
    32
  0
VERTEX
  8
0
  5
2895
 10
0.573793
 20
26.5411
 30
-5.90000e-15
  70
    32
  0
VERTEX
  8
0
  5
2896
 10
0.558687
 20
26.5416
 30
-5.90000e-15
  70
    32
  0
VERTEX
  8
0
  5
2897
 10
0.543581
 20
26.5421
 30
-5.90000e-15
  70
    32
  0
VERTEX
  8
0
  5
2898
 10
0.528476
 20
26.5425
 30
-5.90000e-15
  70
    32
  0
VERTEX
  8
0
  5
2899
 10
0.513371
 20
26.5429
 30
-5.90000e-15
  70
    32
  0
VERTEX
  8
0
  5
289A
 10
0.498266
 20
26.5433
 30
-5.90000e-15
  70
    32
  0
VERTEX
  8
0
  5
289B
 10
0.483161
 20
26.5437
 30
-5.90000e-15
  70
    32
  0
VERTEX
  8
0
  5
289C
 10
0.468057
 20
26.5441
 30
-5.90000e-15
  70
    32
  0
VERTEX
  8
0
  5
289D
 10
0.452953
 20
26.5445
 30
-5.90000e-15
  70
    32
  0
VERTEX
  8
0
  5
289E
 10
0.437850
 20
26.5448
 30
-5.90000e-15
  70
    32
  0
VERTEX
  8
0
  5
289F
 10
0.422747
 20
26.5452
 30
-5.90000e-15
  70
    32
  0
VERTEX
  8
0
  5
28A0
 10
0.407644
 20
26.5455
 30
-5.90000e-15
  70
    32
  0
VERTEX
  8
0
  5
28A1
 10
0.392541
 20
26.5458
 30
-5.90000e-15
  70
    32
  0
VERTEX
  8
0
  5
28A2
 10
0.377439
 20
26.5462
 30
-5.90000e-15
  70
    32
  0
VERTEX
  8
0
  5
28A3
 10
0.362338
 20
26.5465
 30
-5.90000e-15
  70
    32
  0
VERTEX
  8
0
  5
28A4
 10
0.347236
 20
26.5467
 30
-5.90000e-15
  70
    32
  0
VERTEX
  8
0
  5
28A5
 10
0.332135
 20
26.5470
 30
-5.90000e-15
  70
    32
  0
VERTEX
  8
0
  5
28A6
 10
0.317034
 20
26.5473
 30
-5.90000e-15
  70
    32
  0
VERTEX
  8
0
  5
28A7
 10
0.301934
 20
26.5475
 30
-5.90000e-15
  70
    32
  0
VERTEX
  8
0
  5
28A8
 10
0.286834
 20
26.5478
 30
-5.90000e-15
  70
    32
  0
VERTEX
  8
0
  5
28A9
 10
0.271734
 20
26.5480
 30
-5.90000e-15
  70
    32
  0
VERTEX
  8
0
  5
28AA
 10
0.256635
 20
26.5482
 30
-5.90000e-15
  70
    32
  0
VERTEX
  8
0
  5
28AB
 10
0.241536
 20
26.5484
 30
-5.90000e-15
  70
    32
  0
VERTEX
  8
0
  5
28AC
 10
0.226437
 20
26.5486
 30
-5.90000e-15
  70
    32
  0
VERTEX
  8
0
  5
28AD
 10
0.211339
 20
26.5488
 30
-5.90000e-15
  70
    32
  0
VERTEX
  8
0
  5
28AE
 10
0.196241
 20
26.5490
 30
-5.90000e-15
  70
    32
  0
VERTEX
  8
0
  5
28AF
 10
0.181144
 20
26.5491
 30
-5.90000e-15
  70
    32
  0
VERTEX
  8
0
  5
28B0
 10
0.166046
 20
26.5493
 30
-5.90000e-15
  70
    32
  0
VERTEX
  8
0
  5
28B1
 10
0.150949
 20
26.5494
 30
-5.90000e-15
  70
    32
  0
VERTEX
  8
0
  5
28B2
 10
0.135853
 20
26.5495
 30
-5.90000e-15
  70
    32
  0
VERTEX
  8
0
  5
28B3
 10
0.120757
 20
26.5496
 30
-5.90000e-15
  70
    32
  0
VERTEX
  8
0
  5
28B4
 10
0.105661
 20
26.5497
 30
-5.90000e-15
  70
    32
  0
VERTEX
  8
0
  5
28B5
 10
0.0905654
 20
26.5498
 30
-5.90000e-15
  70
    32
  0
VERTEX
  8
0
  5
28B6
 10
0.0754703
 20
26.5498
 30
-5.90000e-15
  70
    32
  0
VERTEX
  8
0
  5
28B7
 10
0.0603756
 20
26.5499
 30
-5.90000e-15
  70
    32
  0
VERTEX
  8
0
  5
28B8
 10
0.0452811
 20
26.5499
 30
-5.90000e-15
  70
    32
  0
VERTEX
  8
0
  5
28B9
 10
0.0301871
 20
26.5500
 30
-5.90000e-15
  70
    32
  0
VERTEX
  8
0
  5
28BA
 10
0.0150934
 20
26.5500
 30
-5.90000e-15
  70
    32
  0
VERTEX
  8
0
  5
28BB
 10
9.93794e-09
 20
26.5500
 30
-5.90000e-15
  70
    32
  0
SEQEND
  8
0
  5
28BC
  0
LINE
  5
1AA1
  8
0
  6
VERDECKT
 62
     1
 10
2.4585000000000039
 20
26.0085000000000299
 30
-0.0000000000000058
 11
-2.458499999999999
 21
26.0085000000000299
 31
-0.0000000000000058
210
0.0
220
1.0
230
-0.0000000000000002
  0
LINE
  5
1AA2
  8
0
  6
VERDECKT
 62
     1
 10
2.4585000000000021
 20
21.091500000000039
 30
-0.0000000000000047
 11
2.9999999999999969
 21
20.5500000000000291
 31
-0.0000000000000046
210
0.0
220
1.0
230
-0.0000000000000002
  0
LINE
  5
1AA3
  8
0
  6
VERDECKT
 62
     1
 10
-2.4585000000000008
 20
21.091500000000039
 30
-0.0000000000000047
 11
-2.9999999999999969
 21
20.5500000000000291
 31
-0.0000000000000046
210
0.0
220
1.0
230
-0.0000000000000002
  0
LINE
  5
1AA4
  8
0
  6
VERDECKT
 62
     1
 10
2.4585000000000039
 20
26.0085000000000299
 30
-0.0000000000000058
 11
2.4585000000000021
 21
21.091500000000039
 31
-0.0000000000000047
210
0.0
220
1.0
230
-0.0000000000000002
  0
LINE
  5
1AA5
  8
0
  6
VERDECKT
 62
     1
 10
-2.458499999999999
 20
26.0085000000000299
 30
-0.0000000000000058
 11
-2.4585000000000008
 21
21.091500000000039
 31
-0.0000000000000047
210
0.0
220
1.0
230
-0.0000000000000002
  0
LINE
  5
1AA6
  8
0
  6
VERDECKT
 62
     1
 10
-2.458499999999999
 20
26.0085000000000299
 30
-0.0000000000000058
 11
-2.9999999999999969
 21
26.5500000000000291
 31
-0.0000000000000059
210
0.0
220
1.0
230
-0.0000000000000002
  0
LINE
  5
1AA7
  8
0
  6
VERDECKT
 62
     1
 10
2.4585000000000039
 20
26.0085000000000299
 30
-0.0000000000000058
 11
3.0000000000000022
 21
26.5500000000000291
 31
-0.0000000000000059
210
0.0
220
1.0
230
-0.0000000000000002
  0
LINE
  5
1AA8
  8
0
  6
VERDECKT
 62
     1
 10
-29.7326730120209888
 20
15.5500000000000504
 30
-0.0000000000000035
 11
29.7326730120209888
 21
15.5500000000000504
 31
-0.0000000000000035
210
0.0
220
1.0
230
-0.0000000000000002
  0
LINE
  5
1AA9
  8
0
  6
VERDECKT
 62
     1
 10
-11.08578643762689
 20
18.5499999999999687
 30
-0.0000000000000041
 11
11.08578643762689
 21
18.5499999999999687
 31
-0.0000000000000041
210
0.0
220
1.0
230
-0.0000000000000002
  0
LINE
  5
1AAA
  8
0
  6
VERDECKT
 62
     1
 10
3.7418432986771668
 20
17.5500000000000504
 30
-0.0000000000000039
 11
2.2770826557792812
 21
17.5500000000000504
 31
-0.0000000000000039
210
0.0
220
1.0
230
-0.0000000000000002
  0
LINE
  5
1AAB
  8
0
  6
VERDECKT
 62
     1
 10
2.0039420121366902
 20
17.5500000000000504
 30
-0.0000000000000039
 11
2.2770826557792812
 21
17.5500000000000504
 31
-0.0000000000000039
210
0.0
220
1.0
230
-0.0000000000000002
  0
LINE
  5
1AAC
  8
0
  6
VERDECKT
 62
     1
 10
1.581892335369502
 20
17.5500000000000504
 30
-0.0000000000000039
 11
2.0039420121366889
 21
17.5500000000000504
 31
-0.0000000000000039
210
0.0
220
1.0
230
-0.0000000000000002
  0
LINE
  5
1AAD
  8
0
  6
VERDECKT
 62
     1
 10
-0.4600722728365554
 20
17.5500000000000504
 30
-0.0000000000000039
 11
1.581892335369502
 21
17.5500000000000504
 31
-0.0000000000000039
210
0.0
220
1.0
230
-0.0000000000000002
  0
LINE
  5
1AAE
  8
0
  6
VERDECKT
 62
     1
 10
-0.460072272836328
 20
17.0500000000000504
 30
-0.0000000000000038
 11
-0.460072272836328
 21
17.5500000000000504
 31
-0.0000000000000039
210
0.0
220
1.0
230
-0.0000000000000002
  0
LINE
  5
1AAF
  8
0
  6
VERDECKT
 62
     1
 10
-0.460072272836328
 20
17.5500000000000504
 30
-0.0000000000000039
 11
-2.0734764077152472
 21
17.5500000000000504
 31
-0.0000000000000039
210
0.0
220
1.0
230
-0.0000000000000002
  0
LINE
  5
1AB0
  8
0
  6
VERDECKT
 62
     1
 10
-2.0734764077152472
 20
17.0500000000000504
 30
-0.0000000000000038
 11
-2.0734764077152472
 21
17.5500000000000504
 31
-0.0000000000000039
210
0.0
220
1.0
230
-0.0000000000000002
  0
LINE
  5
1AB1
  8
0
  6
VERDECKT
 62
     1
 10
-2.0734764077152441
 20
17.5500000000000504
 30
-0.0000000000000039
 11
-5.401122435902721
 21
17.5500000000000504
 31
-0.0000000000000039
210
0.0
220
1.0
230
-0.0000000000000002
  0
LINE
  5
1AB2
  8
0
  6
VERDECKT
 62
     1
 10
-10.0144498840718299
 20
17.5500000000000504
 30
-0.0000000000000039
 11
-5.401122435902721
 21
17.5500000000000504
 31
-0.0000000000000039
210
0.0
220
1.0
230
-0.0000000000000002
  0
LINE
  5
1AB3
  8
0
  6
VERDECKT
 62
     1
 10
-10.0144498840718299
 20
17.5500000000000504
 30
-0.0000000000000039
 11
-11.5018068209133109
 21
17.5500000000000504
 31
-0.0000000000000039
210
0.0
220
1.0
230
-0.0000000000000002
  0
LINE
  5
1AB4
  8
0
  6
VERDECKT
 62
     1
 10
-11.5018068209133109
 20
17.0500000000000504
 30
-0.0000000000000038
 11
-11.5018068209133109
 21
17.5500000000000504
 31
-0.0000000000000039
210
0.0
220
1.0
230
-0.0000000000000002
  0
LINE
  5
1AB5
  8
0
  6
VERDECKT
 62
     1
 10
-9.8884026860343965
 20
17.0500000000000504
 30
-0.0000000000000038
 11
-9.8884026860343965
 21
17.5500000000000504
 31
-0.0000000000000039
210
0.0
220
1.0
230
-0.0000000000000002
  0
LINE
  5
1AB6
  8
0
  6
VERDECKT
 62
     1
 10
-8.5058775537598876
 20
17.0500000000000504
 30
-0.0000000000000038
 11
-8.5058775537598876
 21
17.5500000000000504
 31
-0.0000000000000039
210
0.0
220
1.0
230
-0.0000000000000002
  0
LINE
  5
1AB7
  8
0
  6
VERDECKT
 62
     1
 10
3.175659331912243
 20
17.0500000000000398
 30
-0.0000000000000038
 11
3.175659331912243
 21
17.5500000000000504
 31
-0.0000000000000039
210
0.0
220
1.0
230
-0.0000000000000002
  0
LINE
  5
1AB8
  8
0
  6
VERDECKT
 62
     1
 10
4.60303104213176
 20
17.0500000000000504
 30
-0.0000000000000038
 11
4.60303104213176
 21
17.5500000000000504
 31
-0.0000000000000039
210
0.0
220
1.0
230
-0.0000000000000002
  0
LINE
  5
1AB9
  8
0
  6
VERDECKT
 62
     1
 10
11.5018068209136306
 20
17.5500000000000504
 30
-0.0000000000000039
 11
7.7077861599874486
 21
17.5500000000000504
 31
-0.0000000000000039
210
0.0
220
1.0
230
-0.0000000000000002
  0
LINE
  5
1ABA
  8
0
  6
VERDECKT
 62
     1
 10
3.7418432986771668
 20
17.5500000000000504
 30
-0.0000000000000039
 11
7.7077861599874486
 21
17.5500000000000504
 31
-0.0000000000000039
210
0.0
220
1.0
230
-0.0000000000000002
  0
LINE
  5
1ABB
  8
0
  6
VERDECKT
 62
     1
 10
30.6985988383101507
 20
14.8088190451025792
 30
-0.0000000000000033
 11
31.973720558371209
 21
10.0500000000000398
 31
-0.0000000000000022
210
0.0
220
1.0
230
-0.0000000000000002
  0
LINE
  5
1ABC
  8
0
  6
VERDECKT
 62
     1
 10
-30.6985988383101507
 20
14.8088190451025792
 30
-0.0000000000000033
 11
-31.973720558371209
 21
10.0500000000000398
 31
-0.0000000000000022
210
0.0
220
1.0
230
-0.0000000000000002
  0
ARC
  5
1ABD
  8
0
  6
VERDECKT
 62
     1
 10
29.7326730120209888
 20
14.5500000000000504
 30
0.0
 40
1.0000000000000231
210
0.0
220
-0.0000000000000002
230
-1.0
 50
14.9999999999991704
 51
90.0
  0
ARC
  5
1ABE
  8
0
  6
VERDECKT
 62
     1
 10
-29.7326730120209888
 20
14.5500000000000504
 30
0.0
 40
1.0000000000000231
210
0.0
220
-0.0000000000000002
230
-1.0
 50
90.0
 51
165.0000000000007958
  0
ARC
  5
1ABF
  8
0
  6
VERDECKT
 62
     1
 10
15.5355339059328799
 20
18.0500000000001393
 30
0.0
 40
2.5000000000000848
210
0.0
220
-0.0000000000000002
230
-1.0
 50
225.0000000000013074
 51
269.9999999999948272
  0
ARC
  5
1AC0
  8
0
  6
VERDECKT
 62
     1
 10
-15.5355339059328692
 20
18.0500000000001215
 30
0.0
 40
2.5000000000000671
210
0.0
220
-0.0000000000000002
230
-1.0
 50
270.0000000000051159
 51
314.9999999999986926
  0
LINE
  5
1AC1
  8
0
  6
VERDECKT
 62
     1
 10
11.7928932188134699
 20
18.2571067811866286
 30
-0.0000000000000041
 11
13.7677669529665003
 21
16.2822330470336816
 31
-0.0000000000000036
210
0.0
220
1.0
230
-0.0000000000000002
  0
LINE
  5
1AC2
  8
0
  6
VERDECKT
 62
     1
 10
-11.7928932188134699
 20
18.2571067811866286
 30
-0.0000000000000041
 11
-13.7677669529665003
 21
16.2822330470336816
 31
-0.0000000000000036
210
0.0
220
1.0
230
-0.0000000000000002
  0
ARC
  5
1AC3
  8
0
  6
VERDECKT
 62
     1
 10
11.0857864376270001
 20
17.5499999999999687
 30
0.0
 40
0.9999999999999891
210
0.0
220
-0.0000000000000002
230
-1.0
 50
45.0000000000079865
 51
90.0000000000064091
  0
ARC
  5
1AC4
  8
0
  6
VERDECKT
 62
     1
 10
-11.0857864376270001
 20
17.5499999999999687
 30
0.0
 40
0.9999999999999893
210
0.0
220
-0.0000000000000002
230
-1.0
 50
89.9999999999935767
 51
134.9999999999920135
  0
LINE
  5
1AC5
  8
0
  6
VERDECKT
 62
     1
 10
3.25
 20
20.0500000000000611
 30
-0.0000000000000045
 11
3.25
 21
18.5500000000000504
 31
-0.0000000000000041
210
0.0
220
1.0
230
-0.0000000000000002
  0
LINE
  5
1AC6
  8
0
  6
VERDECKT
 62
     1
 10
-3.25
 20
20.0500000000000611
 30
-0.0000000000000045
 11
-3.25
 21
18.5500000000000504
 31
-0.0000000000000041
210
0.0
220
1.0
230
-0.0000000000000002
  0
LINE
  5
1AC7
  8
0
  6
VERDECKT
 62
     1
 10
2.0104528086966118
 20
17.0500000000000398
 30
-0.0000000000000038
 11
2.0104528086966118
 21
17.5500000000000504
 31
-0.0000000000000039
210
0.0
220
1.0
230
-0.0000000000000002
  0
LINE
  5
1AC8
  8
0
  6
VERDECKT
 62
     1
 10
5.5271696339402752
 20
17.0500000000000398
 30
-0.0000000000000038
 11
5.5271696339402752
 21
17.5500000000000504
 31
-0.0000000000000039
210
0.0
220
1.0
230
-0.0000000000000002
  0
LINE
  5
1AC9
  8
0
  6
VERDECKT
 62
     1
 10
9.8884026860343965
 20
17.0500000000000398
 30
-0.0000000000000038
 11
9.8884026860343965
 21
17.5500000000000504
 31
-0.0000000000000039
210
0.0
220
1.0
230
-0.0000000000000002
  0
LINE
  5
1ACA
  8
0
  6
VERDECKT
 62
     1
 10
-7.5817389619497808
 20
17.0500000000000398
 30
-0.0000000000000038
 11
-7.5817389619497808
 21
17.5500000000000504
 31
-0.0000000000000039
210
0.0
220
1.0
230
-0.0000000000000002
  0
LINE
  5
1ACB
  8
0
  6
VERDECKT
 62
     1
 10
-3.2205059098556599
 20
17.0500000000000398
 30
-0.0000000000000038
 11
-3.2205059098556599
 21
17.5500000000000504
 31
-0.0000000000000039
210
0.0
220
1.0
230
-0.0000000000000002
  0
LINE
  5
1ACC
  8
0
  6
VERDECKT
 62
     1
 10
-9.1951430968283479
 20
17.0500000000000398
 30
-0.0000000000000038
 11
-9.1951430968283479
 21
17.5500000000000504
 31
-0.0000000000000039
210
0.0
220
1.0
230
-0.0000000000000002
  0
LINE
  5
1ACD
  8
0
  6
VERDECKT
 62
     1
 10
3.6238569435754369
 20
17.0500000000000398
 30
-0.0000000000000038
 11
3.6238569435754369
 21
17.5500000000000504
 31
-0.0000000000000039
210
0.0
220
1.0
230
-0.0000000000000002
  0
LINE
  5
1ACE
  8
0
  6
VERDECKT
 62
     1
 10
3.9137654990614972
 20
17.0500000000000398
 30
-0.0000000000000038
 11
3.9137654990614972
 21
17.5500000000000504
 31
-0.0000000000000039
210
0.0
220
1.0
230
-0.0000000000000002
  0
LINE
  5
1ACF
  8
0
  6
VERDECKT
 62
     1
 10
11.5018068209136306
 20
17.0500000000000398
 30
-0.0000000000000038
 11
11.5018068209136306
 21
17.5500000000000504
 31
-0.0000000000000039
210
0.0
220
1.0
230
-0.0000000000000002
  0
LINE
  5
1AD0
  8
0
  6
VERDECKT
 62
     1
 10
-5.5336923418449251
 20
6.5000000000000444
 30
-0.0000000000000014
 11
5.5336923418449251
 21
6.5000000000000444
 31
-0.0000000000000014
210
0.0
220
1.0
230
-0.0000000000000002
  0
LINE
  5
1AD1
  8
0
  6
VERDECKT
 62
     1
 10
-14.3605334363714903
 20
8.5000000000000515
 30
-0.0000000000000019
 11
14.3605334363714903
 21
8.5000000000000515
 31
-0.0000000000000019
210
0.0
220
1.0
230
-0.0000000000000002
  0
LINE
  5
1AD2
  8
0
  6
VERDECKT
 62
     1
 10
-14.3605334363714903
 20
7.0000000000000506
 30
-0.0000000000000016
 11
14.3605334363714903
 21
7.0000000000000506
 31
-0.0000000000000016
210
0.0
220
1.0
230
-0.0000000000000002
  0
LINE
  5
1AD3
  8
0
  6
VERDECKT
 62
     1
 10
-5.5336923418449251
 20
5.0000000000000426
 30
-0.0000000000000011
 11
5.5336923418449251
 21
5.0000000000000426
 31
-0.0000000000000011
210
0.0
220
1.0
230
-0.0000000000000002
  0
LINE
  5
1AD4
  8
0
  6
VERDECKT
 62
     1
 10
-3.0
 20
25.5000000000000711
 30
-0.0000000000000057
 11
3.0
 21
25.5000000000000711
 31
-0.0000000000000057
210
0.0
220
1.0
230
-0.0000000000000002
  0
LINE
  5
1AD5
  8
0
  6
VERDECKT
 62
     1
 10
-1.3707080830490681
 20
26.5000000000000604
 30
-0.0000000000000059
 11
2.0
 21
26.5000000000000604
 31
-0.0000000000000059
210
0.0
220
1.0
230
-0.0000000000000002
  0
LINE
  5
1AD6
  8
0
  6
VERDECKT
 62
     1
 10
-2.0000000000000262
 20
26.5000000000000604
 30
-0.0000000000000059
 11
-1.3717025196776831
 21
26.5000000000000604
 31
-0.0000000000000059
210
0.0
220
1.0
230
-0.0000000000000002
  0
LINE
  5
1AD7
  8
0
  6
VERDECKT
 62
     1
 10
-2.25
 20
24.5000000000000711
 30
-0.0000000000000054
 11
2.25
 21
24.5000000000000711
 31
-0.0000000000000054
210
0.0
220
1.0
230
-0.0000000000000002
  0
LINE
  5
1AD8
  8
0
  6
VERDECKT
 62
     1
 10
-3.0
 20
23.5000000000000711
 30
-0.0000000000000052
 11
3.0
 21
23.5000000000000711
 31
-0.0000000000000052
210
0.0
220
1.0
230
-0.0000000000000002
  0
LINE
  5
1AD9
  8
0
  6
VERDECKT
 62
     1
 10
-2.25
 20
22.5000000000000711
 30
-0.000000000000005
 11
2.25
 21
22.5000000000000711
 31
-0.000000000000005
210
0.0
220
1.0
230
-0.0000000000000002
  0
LINE
  5
1ADA
  8
0
  6
VERDECKT
 62
     1
 10
-3.0
 20
21.5000000000000711
 30
-0.0000000000000048
 11
3.0
 21
21.5000000000000711
 31
-0.0000000000000048
210
0.0
220
1.0
230
-0.0000000000000002
  0
LINE
  5
1ADB
  8
0
  6
VERDECKT
 62
     1
 10
-2.25
 20
20.5000000000000711
 30
-0.0000000000000046
 11
2.25
 21
20.5000000000000711
 31
-0.0000000000000046
210
0.0
220
1.0
230
-0.0000000000000002
  0
LINE
  5
1ADC
  8
0
  6
VERDECKT
 62
     1
 10
-3.0
 20
19.5000000000000711
 30
-0.0000000000000043
 11
3.0
 21
19.5000000000000711
 31
-0.0000000000000043
210
0.0
220
1.0
230
-0.0000000000000002
  0
LINE
  5
1ADD
  8
0
  6
VERDECKT
 62
     1
 10
-2.25
 20
18.5000000000000604
 30
-0.0000000000000041
 11
2.25
 21
18.5000000000000604
 31
-0.0000000000000041
210
0.0
220
1.0
230
-0.0000000000000002
  0
LINE
  5
1ADE
  8
0
  6
VERDECKT
 62
     1
 10
-3.0
 20
17.5000000000000711
 30
-0.0000000000000039
 11
3.0
 21
17.5000000000000711
 31
-0.0000000000000039
210
0.0
220
1.0
230
-0.0000000000000002
  0
LINE
  5
1ADF
  8
0
  6
VERDECKT
 62
     1
 10
-2.25
 20
16.5000000000000711
 30
-0.0000000000000037
 11
2.25
 21
16.5000000000000711
 31
-0.0000000000000037
210
0.0
220
1.0
230
-0.0000000000000002
  0
LINE
  5
1AE0
  8
0
  6
VERDECKT
 62
     1
 10
-3.0
 20
15.5000000000000693
 30
-0.0000000000000034
 11
3.0
 21
15.5000000000000693
 31
-0.0000000000000034
210
0.0
220
1.0
230
-0.0000000000000002
  0
LINE
  5
1AE1
  8
0
  6
VERDECKT
 62
     1
 10
-2.25
 20
14.5000000000000693
 30
-0.0000000000000032
 11
2.25
 21
14.5000000000000693
 31
-0.0000000000000032
210
0.0
220
1.0
230
-0.0000000000000002
  0
LINE
  5
1AE2
  8
0
  6
VERDECKT
 62
     1
 10
-3.0
 20
13.5000000000000604
 30
-0.000000000000003
 11
3.0
 21
13.5000000000000604
 31
-0.000000000000003
210
0.0
220
1.0
230
-0.0000000000000002
  0
LINE
  5
1AE3
  8
0
  6
VERDECKT
 62
     1
 10
-2.25
 20
12.5000000000000693
 30
-0.0000000000000028
 11
2.25
 21
12.5000000000000693
 31
-0.0000000000000028
210
0.0
220
1.0
230
-0.0000000000000002
  0
LINE
  5
1AE4
  8
0
  6
VERDECKT
 62
     1
 10
-3.0
 20
11.5000000000000604
 30
-0.0000000000000026
 11
3.0
 21
11.5000000000000604
 31
-0.0000000000000026
210
0.0
220
1.0
230
-0.0000000000000002
  0
LINE
  5
1AE5
  8
0
  6
VERDECKT
 62
     1
 10
-2.25
 20
10.5000000000000604
 30
-0.0000000000000023
 11
2.25
 21
10.5000000000000604
 31
-0.0000000000000023
210
0.0
220
1.0
230
-0.0000000000000002
  0
LINE
  5
1AE6
  8
0
  6
VERDECKT
 62
     1
 10
-3.0
 20
9.5000000000000657
 30
-0.0000000000000021
 11
3.0
 21
9.5000000000000657
 31
-0.0000000000000021
210
0.0
220
1.0
230
-0.0000000000000002
  0
LINE
  5
1AE7
  8
0
  6
VERDECKT
 62
     1
 10
-3.0
 20
7.5000000000000648
 30
-0.0000000000000017
 11
3.0
 21
7.5000000000000648
 31
-0.0000000000000017
210
0.0
220
1.0
230
-0.0000000000000002
  0
ARC
  5
1AE8
  8
0
  6
VERDECKT
 62
     1
 10
5.533692341844926
 20
7.5000000000000293
 30
0.0
 40
0.9999999999999849
210
0.0
220
-0.0000000000000002
230
-1.0
 50
270.0
 51
320.0000000000002842
  0
ARC
  5
1AE9
  8
0
  6
VERDECKT
 62
     1
 10
-5.5336923418449269
 20
7.5000000000000258
 30
0.0
 40
0.9999999999999823
210
0.0
220
-0.0000000000000002
230
-1.0
 50
219.9999999999996874
 51
270.0000000000001137
  0
LINE
  5
1AEA
  8
0
  6
VERDECKT
 62
     1
 10
-6.2997367849638968
 20
6.8572123903135012
 30
-0.0000000000000015
 11
-6.9288572999446378
 21
7.6069690242164061
 31
-0.0000000000000017
210
0.0
220
1.0
230
-0.0000000000000002
  0
LINE
  5
1AEB
  8
0
  6
VERDECKT
 62
     1
 10
6.2997367849638968
 20
6.8572123903135012
 30
-0.0000000000000015
 11
6.9288572999446378
 21
7.6069690242164061
 31
-0.0000000000000017
210
0.0
220
1.0
230
-0.0000000000000002
  0
ARC
  5
1AEC
  8
0
  6
VERDECKT
 62
     1
 10
8.843968407741956
 20
6.0000000000002753
 30
0.0
 40
2.4999999999997611
210
0.0
220
-0.0000000000000002
230
-1.0
 50
89.9999999999974136
 51
140.0000000000019043
  0
ARC
  5
1AED
  8
0
  6
VERDECKT
 62
     1
 10
-8.8439684077419525
 20
6.0000000000002842
 30
0.0
 40
2.4999999999997531
210
0.0
220
-0.0000000000000002
230
-1.0
 50
39.9999999999979607
 51
90.0000000000026148
  0
ARC
  5
1AEE
  8
0
  6
VERDECKT
 62
     1
 10
14.3605334363716093
 20
6.0000000000002807
 30
0.0
 40
2.4999999999997691
210
0.0
220
-0.0000000000000002
230
-1.0
 50
39.9999999999980886
 51
90.0000000000026148
  0
ARC
  5
1AEF
  8
0
  6
VERDECKT
 62
     1
 10
-14.3605334363716093
 20
6.0000000000002807
 30
0.0
 40
2.4999999999997691
210
0.0
220
-0.0000000000000002
230
-1.0
 50
89.9999999999973994
 51
140.0000000000019043
  0
LINE
  5
1AF0
  8
0
  6
VERDECKT
 62
     1
 10
16.2756445441688911
 20
7.606969024216383
 30
-0.0000000000000017
 11
18.0016464937319789
 21
5.5499999999999972
 31
-0.0000000000000012
210
0.0
220
1.0
230
-0.0000000000000002
  0
LINE
  5
1AF1
  8
0
  6
VERDECKT
 62
     1
 10
-16.2756445441688911
 20
7.606969024216383
 30
-0.0000000000000017
 11
-18.0016464937319789
 21
5.5499999999999972
 31
-0.0000000000000012
210
0.0
220
1.0
230
-0.0000000000000002
  0
ARC
  5
1AF2
  8
0
  6
VERDECKT
 62
     1
 10
21.8663076581550513
 20
2.4999999999997842
 30
0.0
 40
2.499999999999774
210
0.0
220
-0.0000000000000002
230
-1.0
 50
219.9999999999982094
 51
270.0000000000026716
  0
ARC
  5
1AF3
  8
0
  6
VERDECKT
 62
     1
 10
-21.8663076581550513
 20
2.4999999999997851
 30
0.0
 40
2.499999999999774
210
0.0
220
-0.0000000000000002
230
-1.0
 50
270.0
 51
320.0000000000043769
  0
LINE
  5
1AF4
  8
0
  6
VERDECKT
 62
     1
 10
15.1265778794904708
 20
6.6427876096865939
 30
-0.0000000000000015
 11
19.9511965503577287
 21
0.8930309757836457
 31
-0.0000000000000002
210
0.0
220
1.0
230
-0.0000000000000002
  0
LINE
  5
1AF5
  8
0
  6
VERDECKT
 62
     1
 10
-15.1265778794904708
 20
6.6427876096865939
 30
-0.0000000000000015
 11
-19.9511965503577287
 21
0.8930309757836457
 31
-0.0000000000000002
210
0.0
220
1.0
230
-0.0000000000000002
  0
ARC
  5
1AF6
  8
0
  6
VERDECKT
 62
     1
 10
14.3605334363714903
 20
6.0000000000000639
 30
0.0
 40
0.9999999999999905
210
0.0
220
-0.0000000000000002
230
-1.0
 50
39.9999999999997584
 51
89.9999999999999147
  0
ARC
  5
1AF7
  8
0
  6
VERDECKT
 62
     1
 10
-14.3605334363714903
 20
6.0000000000000639
 30
0.0
 40
0.9999999999999893
210
0.0
220
-0.0000000000000002
230
-1.0
 50
90.0000000000000995
 51
140.000000000000199
  0
ARC
  5
1AF8
  8
0
  6
VERDECKT
 62
     1
 10
8.8439684077420662
 20
6.0000000000000719
 30
0.0
 40
0.9999999999999857
210
0.0
220
-0.0000000000000002
230
-1.0
 50
90.0
 51
140.000000000000199
  0
ARC
  5
1AF9
  8
0
  6
VERDECKT
 62
     1
 10
-8.8439684077420697
 20
6.0000000000000684
 30
0.0
 40
0.9999999999999896
210
0.0
220
-0.0000000000000002
230
-1.0
 50
39.9999999999998579
 51
89.9999999999999147
  0
LINE
  5
1AFA
  8
0
  6
VERDECKT
 62
     1
 10
-7.4488034496423534
 20
5.8930309757836827
 30
-0.0000000000000013
 11
-8.077923964623098
 21
6.6427876096866001
 31
-0.0000000000000015
210
0.0
220
1.0
230
-0.0000000000000002
  0
LINE
  5
1AFB
  8
0
  6
VERDECKT
 62
     1
 10
7.4488034496423534
 20
5.8930309757836827
 30
-0.0000000000000013
 11
8.077923964623098
 21
6.6427876096866001
 31
-0.0000000000000015
210
0.0
220
1.0
230
-0.0000000000000002
  0
ARC
  5
1AFC
  8
0
  6
VERDECKT
 62
     1
 10
5.5336923418450352
 20
7.4999999999997886
 30
0.0
 40
2.4999999999997482
210
0.0
220
-0.0000000000000002
230
-1.0
 50
270.0
 51
320.0000000000048885
  0
ARC
  5
1AFD
  8
0
  6
VERDECKT
 62
     1
 10
-5.5336923418450361
 20
7.4999999999997859
 30
0.0
 40
2.4999999999997451
210
0.0
220
-0.0000000000000002
230
-1.0
 50
219.9999999999974989
 51
270.0000000000025011
  0
LINE
  5
1AFE
  8
0
  6
VERDECKT
 62
     1
 10
2.0
 20
26.5000000000000604
 30
-0.0000000000000059
 11
2.059186024211709
 21
26.4408139757883482
 31
-0.0000000000000059
210
0.0
220
1.0
230
-0.0000000000000002
  0
LINE
  5
1AFF
  8
0
  6
VERDECKT
 62
     1
 10
2.0591940048831181
 20
26.4408059951169392
 30
-0.0000000000000059
 11
3.0
 21
25.5000000000000711
 31
-0.0000000000000057
210
0.0
220
1.0
230
-0.0000000000000002
  0
LINE
  5
1B00
  8
0
  6
VERDECKT
 62
     1
 10
-2.0
 20
26.5000000000000604
 30
-0.0000000000000059
 11
-2.0594667531450952
 21
26.4405332468549616
 31
-0.0000000000000059
210
0.0
220
1.0
230
-0.0000000000000002
  0
LINE
  5
1B01
  8
0
  6
VERDECKT
 62
     1
 10
-2.0595345169728891
 20
26.4404654830271717
 30
-0.0000000000000059
 11
-3.0
 21
25.5000000000000711
 31
-0.0000000000000057
210
0.0
220
1.0
230
-0.0000000000000002
  0
LINE
  5
1B02
  8
0
  6
VERDECKT
 62
     1
 10
-2.25
 20
24.5000000000000711
 30
-0.0000000000000054
 11
-3.0
 21
25.5000000000000711
 31
-0.0000000000000057
210
0.0
220
1.0
230
-0.0000000000000002
  0
LINE
  5
1B03
  8
0
  6
VERDECKT
 62
     1
 10
2.25
 20
24.5000000000000711
 30
-0.0000000000000054
 11
3.0
 21
25.5000000000000711
 31
-0.0000000000000057
210
0.0
220
1.0
230
-0.0000000000000002
  0
LINE
  5
1B04
  8
0
  6
VERDECKT
 62
     1
 10
2.25
 20
24.5000000000000711
 30
-0.0000000000000054
 11
3.0
 21
23.5000000000000711
 31
-0.0000000000000052
210
0.0
220
1.0
230
-0.0000000000000002
  0
LINE
  5
1B05
  8
0
  6
VERDECKT
 62
     1
 10
-2.25
 20
24.5000000000000711
 30
-0.0000000000000054
 11
-3.0
 21
23.5000000000000711
 31
-0.0000000000000052
210
0.0
220
1.0
230
-0.0000000000000002
  0
LINE
  5
1B06
  8
0
  6
VERDECKT
 62
     1
 10
-2.25
 20
22.5000000000000711
 30
-0.000000000000005
 11
-3.0
 21
23.5000000000000711
 31
-0.0000000000000052
210
0.0
220
1.0
230
-0.0000000000000002
  0
LINE
  5
1B07
  8
0
  6
VERDECKT
 62
     1
 10
2.25
 20
22.5000000000000711
 30
-0.000000000000005
 11
3.0
 21
23.5000000000000711
 31
-0.0000000000000052
210
0.0
220
1.0
230
-0.0000000000000002
  0
LINE
  5
1B08
  8
0
  6
VERDECKT
 62
     1
 10
2.25
 20
22.5000000000000711
 30
-0.000000000000005
 11
2.6130774211731129
 21
22.0158967717692491
 31
-0.0000000000000049
210
0.0
220
1.0
230
-0.0000000000000002
  0
LINE
  5
1B09
  8
0
  6
VERDECKT
 62
     1
 10
2.6130853938599059
 20
22.0158861415201912
 30
-0.0000000000000049
 11
3.0
 21
21.5000000000000711
 31
-0.0000000000000048
210
0.0
220
1.0
230
-0.0000000000000002
  0
LINE
  5
1B0A
  8
0
  6
VERDECKT
 62
     1
 10
-2.25
 20
22.5000000000000711
 30
-0.000000000000005
 11
-2.613125841383408
 21
22.0158322114888598
 31
-0.0000000000000049
210
0.0
220
1.0
230
-0.0000000000000002
  0
LINE
  5
1B0B
  8
0
  6
VERDECKT
 62
     1
 10
-2.6131418989979789
 20
22.0158108013360909
 30
-0.0000000000000049
 11
-3.0
 21
21.5000000000000711
 31
-0.0000000000000048
210
0.0
220
1.0
230
-0.0000000000000002
  0
LINE
  5
1B0C
  8
0
  6
VERDECKT
 62
     1
 10
-2.25
 20
20.5000000000000711
 30
-0.0000000000000046
 11
-3.0
 21
21.5000000000000711
 31
-0.0000000000000048
210
0.0
220
1.0
230
-0.0000000000000002
  0
LINE
  5
1B0D
  8
0
  6
VERDECKT
 62
     1
 10
2.25
 20
20.5000000000000711
 30
-0.0000000000000046
 11
3.0
 21
21.5000000000000711
 31
-0.0000000000000048
210
0.0
220
1.0
230
-0.0000000000000002
  0
LINE
  5
1B0E
  8
0
  6
VERDECKT
 62
     1
 10
2.25
 20
20.5000000000000711
 30
-0.0000000000000046
 11
3.0
 21
19.5000000000000711
 31
-0.0000000000000043
210
0.0
220
1.0
230
-0.0000000000000002
  0
LINE
  5
1B0F
  8
0
  6
VERDECKT
 62
     1
 10
-2.25
 20
20.5000000000000711
 30
-0.0000000000000046
 11
-3.0
 21
19.5000000000000711
 31
-0.0000000000000043
210
0.0
220
1.0
230
-0.0000000000000002
  0
LINE
  5
1B10
  8
0
  6
VERDECKT
 62
     1
 10
-2.25
 20
18.5000000000000604
 30
-0.0000000000000041
 11
-3.0
 21
19.5000000000000711
 31
-0.0000000000000043
210
0.0
220
1.0
230
-0.0000000000000002
  0
LINE
  5
1B11
  8
0
  6
VERDECKT
 62
     1
 10
2.25
 20
18.5000000000000604
 30
-0.0000000000000041
 11
3.0
 21
19.5000000000000711
 31
-0.0000000000000043
210
0.0
220
1.0
230
-0.0000000000000002
  0
LINE
  5
1B12
  8
0
  6
VERDECKT
 62
     1
 10
2.25
 20
18.5000000000000604
 30
-0.0000000000000041
 11
3.0
 21
17.5000000000000711
 31
-0.0000000000000039
210
0.0
220
1.0
230
-0.0000000000000002
  0
LINE
  5
1B13
  8
0
  6
VERDECKT
 62
     1
 10
-2.25
 20
18.5000000000000604
 30
-0.0000000000000041
 11
-3.0
 21
17.5000000000000711
 31
-0.0000000000000039
210
0.0
220
1.0
230
-0.0000000000000002
  0
LINE
  5
1B14
  8
0
  6
VERDECKT
 62
     1
 10
-2.25
 20
16.5000000000000711
 30
-0.0000000000000037
 11
-3.0
 21
17.5000000000000711
 31
-0.0000000000000039
210
0.0
220
1.0
230
-0.0000000000000002
  0
LINE
  5
1B15
  8
0
  6
VERDECKT
 62
     1
 10
2.25
 20
16.5000000000000711
 30
-0.0000000000000037
 11
3.0
 21
17.5000000000000711
 31
-0.0000000000000039
210
0.0
220
1.0
230
-0.0000000000000002
  0
LINE
  5
1B16
  8
0
  6
VERDECKT
 62
     1
 10
2.25
 20
16.5000000000000711
 30
-0.0000000000000037
 11
3.0
 21
15.5000000000000693
 31
-0.0000000000000034
210
0.0
220
1.0
230
-0.0000000000000002
  0
LINE
  5
1B17
  8
0
  6
VERDECKT
 62
     1
 10
-2.25
 20
16.5000000000000711
 30
-0.0000000000000037
 11
-3.0
 21
15.5000000000000693
 31
-0.0000000000000034
210
0.0
220
1.0
230
-0.0000000000000002
  0
LINE
  5
1B18
  8
0
  6
VERDECKT
 62
     1
 10
-2.25
 20
14.5000000000000693
 30
-0.0000000000000032
 11
-3.0
 21
15.5000000000000693
 31
-0.0000000000000034
210
0.0
220
1.0
230
-0.0000000000000002
  0
LINE
  5
1B19
  8
0
  6
VERDECKT
 62
     1
 10
2.25
 20
14.5000000000000693
 30
-0.0000000000000032
 11
3.0
 21
15.5000000000000693
 31
-0.0000000000000034
210
0.0
220
1.0
230
-0.0000000000000002
  0
LINE
  5
1B1A
  8
0
  6
VERDECKT
 62
     1
 10
2.25
 20
14.5000000000000693
 30
-0.0000000000000032
 11
3.0
 21
13.5000000000000604
 31
-0.000000000000003
210
0.0
220
1.0
230
-0.0000000000000002
  0
LINE
  5
1B1B
  8
0
  6
VERDECKT
 62
     1
 10
-2.25
 20
14.5000000000000693
 30
-0.0000000000000032
 11
-3.0
 21
13.5000000000000604
 31
-0.000000000000003
210
0.0
220
1.0
230
-0.0000000000000002
  0
LINE
  5
1B1C
  8
0
  6
VERDECKT
 62
     1
 10
-2.25
 20
12.5000000000000693
 30
-0.0000000000000028
 11
-3.0
 21
13.5000000000000604
 31
-0.000000000000003
210
0.0
220
1.0
230
-0.0000000000000002
  0
LINE
  5
1B1D
  8
0
  6
VERDECKT
 62
     1
 10
2.25
 20
12.5000000000000693
 30
-0.0000000000000028
 11
3.0
 21
13.5000000000000604
 31
-0.000000000000003
210
0.0
220
1.0
230
-0.0000000000000002
  0
LINE
  5
1B1E
  8
0
  6
VERDECKT
 62
     1
 10
2.25
 20
12.5000000000000693
 30
-0.0000000000000028
 11
3.0
 21
11.5000000000000604
 31
-0.0000000000000026
210
0.0
220
1.0
230
-0.0000000000000002
  0
LINE
  5
1B1F
  8
0
  6
VERDECKT
 62
     1
 10
-2.25
 20
12.5000000000000693
 30
-0.0000000000000028
 11
-3.0
 21
11.5000000000000604
 31
-0.0000000000000026
210
0.0
220
1.0
230
-0.0000000000000002
  0
LINE
  5
1B20
  8
0
  6
VERDECKT
 62
     1
 10
-2.25
 20
10.5000000000000604
 30
-0.0000000000000023
 11
-3.0
 21
11.5000000000000604
 31
-0.0000000000000026
210
0.0
220
1.0
230
-0.0000000000000002
  0
LINE
  5
1B21
  8
0
  6
VERDECKT
 62
     1
 10
2.25
 20
10.5000000000000604
 30
-0.0000000000000023
 11
3.0
 21
11.5000000000000604
 31
-0.0000000000000026
210
0.0
220
1.0
230
-0.0000000000000002
  0
LINE
  5
1B22
  8
0
  6
VERDECKT
 62
     1
 10
2.25
 20
10.5000000000000604
 30
-0.0000000000000023
 11
3.0
 21
9.5000000000000657
 31
-0.0000000000000021
210
0.0
220
1.0
230
-0.0000000000000002
  0
LINE
  5
1B23
  8
0
  6
VERDECKT
 62
     1
 10
-2.25
 20
10.5000000000000604
 30
-0.0000000000000023
 11
-3.0
 21
9.5000000000000657
 31
-0.0000000000000021
210
0.0
220
1.0
230
-0.0000000000000002
  0
LINE
  5
1B24
  8
0
  6
VERDECKT
 62
     1
 10
-2.25
 20
8.5000000000000657
 30
-0.0000000000000019
 11
-3.0
 21
9.5000000000000657
 31
-0.0000000000000021
210
0.0
220
1.0
230
-0.0000000000000002
  0
LINE
  5
1B25
  8
0
  6
VERDECKT
 62
     1
 10
2.25
 20
8.5000000000000657
 30
-0.0000000000000019
 11
3.0
 21
9.5000000000000657
 31
-0.0000000000000021
210
0.0
220
1.0
230
-0.0000000000000002
  0
LINE
  5
1B26
  8
0
  6
VERDECKT
 62
     1
 10
2.25
 20
8.5000000000000657
 30
-0.0000000000000019
 11
3.0
 21
7.5000000000000648
 31
-0.0000000000000017
210
0.0
220
1.0
230
-0.0000000000000002
  0
LINE
  5
1B27
  8
0
  6
VERDECKT
 62
     1
 10
-2.25
 20
8.5000000000000657
 30
-0.0000000000000019
 11
-3.0
 21
7.5000000000000648
 31
-0.0000000000000017
210
0.0
220
1.0
230
-0.0000000000000002
  0
LINE
  5
1B28
  8
0
  6
VERDECKT
 62
     1
 10
3.0
 20
7.5000000000000648
 30
-0.0000000000000017
 11
3.0
 21
6.5000000000000506
 31
-0.0000000000000014
210
0.0
220
1.0
230
-0.0000000000000002
  0
LINE
  5
1B29
  8
0
  6
VERDECKT
 62
     1
 10
-3.0
 20
7.5000000000000648
 30
-0.0000000000000017
 11
-3.0
 21
6.5000000000000506
 31
-0.0000000000000014
210
0.0
220
1.0
230
-0.0000000000000002
  0
LINE
  5
1B2A
  8
0
  6
VERDECKT
 62
     1
 10
28.0
 20
15.5500000000000398
 30
-0.0000000000000035
 11
28.0
 21
10.0500000000000203
 31
-0.0000000000000022
210
0.0
220
1.0
230
-0.0000000000000002
  0
LINE
  5
1B2B
  8
0
  6
VERDECKT
 62
     1
 10
-28.0
 20
15.5500000000000398
 30
-0.0000000000000035
 11
-28.0
 21
10.0500000000000203
 31
-0.0000000000000022
210
0.0
220
1.0
230
-0.0000000000000002
  0
LINE
  5
1B2C
  8
0
  6
VERDECKT
 62
     1
 10
18.0
 20
15.5500000000000398
 30
-0.0000000000000035
 11
18.0
 21
5.549999999999998
 31
-0.0000000000000012
210
0.0
220
1.0
230
-0.0000000000000002
  0
LINE
  5
1B2D
  8
0
  6
VERDECKT
 62
     1
 10
-18.0
 20
15.5500000000000398
 30
-0.0000000000000035
 11
-18.0
 21
5.549999999999998
 31
-0.0000000000000012
210
0.0
220
1.0
230
-0.0000000000000002
  0
LINE
  5
1B2E
  8
0
  6
VERDECKT
 62
     1
 10
3.0000000000001128
 20
20.5500000000000504
 30
-0.0000000000000046
 11
3.0000000000001128
 21
20.0500000000000398
 31
-0.0000000000000045
210
0.0
220
1.0
230
-0.0000000000000002
  0
LINE
  5
1B2F
  8
0
  6
VERDECKT
 62
     1
 10
-3.0000000000001128
 20
20.5500000000000504
 30
-0.0000000000000046
 11
-3.0000000000001128
 21
20.0500000000000398
 31
-0.0000000000000045
210
0.0
220
1.0
230
-0.0000000000000002
  0
ENDBLK
  5
1B31
  8
0
  0
ENDSEC
  0
SECTION
  2
ENTITIES
  0
TEXT
  5
938
  8
VOLL
 10
1083.1409365370320756
 20
169.0414157988676038
 30
0.0
 40
1.8
  1

  7
GREEKS
  0
TEXT
  5
939
  8
VOLL
 10
1204.5437052062129624
 20
376.3618238441301855
 30
0.0
 40
1.8
  1

  7
GREEKS
  0
TEXT
  5
93A
  8
VOLL
 10
1534.3769161706329669
 20
192.7723998100368874
 30
0.0
 40
1.8
  1

  7
GREEKS
  0
TEXT
  5
93B
  8
VOLL
 10
1530.5446396562949758
 20
181.5685760815761114
 30
0.0
 40
1.8
  1

  7
GREEKS
  0
TEXT
  5
181A
  8
VOLL
 10
288.0767547169812133
 20
31.025947764705851
 30
0.0
 40
1.8
  1

  7
GREEKS
  0
INSERT
  5
1A62
  8
STEMPEL
  2
A$C16976031
 10
-0.0000000000000044
 20
-133.422609297804712
 30
0.0
  0
INSERT
  5
1B32
  8
STEMPEL
  2
A$C55C41640
 10
0.0
 20
0.0
 30
0.0
  0
VIEWPORT
  5
140F
 67
     1
  8
0
 10
4.8916996865018501
 20
6.911257747390585
 30
0.0
 40
28.0745474712805212
 41
14.2982589046959898
 68
     1
 69
     1
1001
ACAD
1000
MVIEW
1002
{
1070
    16
1010
0.0
1020
0.0
1030
0.0
1010
0.0
1020
0.0
1030
1.0
1040
0.0
1040
14.2982589046959898
1040
4.8916996865018501
1040
6.911257747390585
1040
50.0
1040
0.0
1040
0.0
1070
     0
1070
   500
1070
     1
1070
     1
1070
     0
1070
     0
1070
     0
1070
     0
1040
0.0
1040
0.0
1040
0.0
1040
10.0
1040
10.0
1040
10.0
1040
10.0
1070
     0
1002
{
1002
}
1002
}
  0
VIEWPORT
  5
1414
 67
     1
  8
DEFPOINTS
 10
4.8915466623116544
 20
6.911245984337147
 30
0.0
 40
10.3227029540944599
 41
14.1865102355109407
 68
     2
 69
     2
1001
ACAD
1000
MVIEW
1002
{
1070
    16
1010
340.339013262458991
1020
114.0636331770653982
1030
41.2263669652862887
1010
0.0
1020
0.0
1030
262.5979386247403795
1040
0.0
1040
305.679778957869928
1040
-28.9412683849110586
1040
33.6155157225771433
1040
50.0
1040
0.0
1040
0.0
1070
     0
1070
   500
1070
     1
1070
     0
1070
     0
1070
     0
1070
     0
1070
     0
1040
0.0
1040
0.0
1040
0.0
1040
2.5
1040
2.5
1040
10.0
1040
10.0
1070
     0
1002
{
1002
}
1002
}
  0
VIEWPORT
  5
1418
 67
     1
  8
DEFPOINTS
 10
5.3618588021921951
 20
4.7070006751318694
 30
0.0
 40
4.6017208504814704
 41
3.407215090566857
 68
     3
 69
     3
1001
ACAD
1000
MVIEW
1002
{
1070
    16
1010
733.1010326397531571
1020
119.1172362772902034
1030
12.5931127962751503
1010
86.1729528157145666
1020
37.8267759195365514
1030
28.0255422665670899
1040
1.9334153105020231
1040
49.0825144175092305
1040
0.0
1040
0.0
1040
50.0
1040
0.0
1040
0.0
1070
     0
1070
   500
1070
     1
1070
     0
1070
     0
1070
     0
1070
     0
1070
     0
1040
0.0
1040
0.0
1040
0.0
1040
2.5
1040
2.5
1040
10.0
1040
10.0
1070
     0
1002
{
1002
}
1002
}
  0
ENDSEC
  0
EOF
