  0
SECTION
  2
HEADER
  9
$ACADVER
  1
AC1009
  9
$INSBASE
 10
0.0
 20
0.0
 30
0.0
  9
$EXTMIN
 10
-60.0000000000000213
 20
-60.0
 30
-35.0234782348068165
  9
$EXTMAX
 10
409.2975248075828745
 20
276.8954131087028827
 30
41.9765217651931835
  9
$LIMMIN
 10
0.0
 20
0.0
  9
$LIMMAX
 10
210.0
 20
297.0
  9
$ORTHOMODE
 70
     1
  9
$REGENMODE
 70
     1
  9
$FILLMODE
 70
     1
  9
$QTEXTMODE
 70
     0
  9
$MIRRTEXT
 70
     1
  9
$DRAGMODE
 70
     2
  9
$LTSCALE
 40
10.0
  9
$OSMODE
 70
   183
  9
$ATTMODE
 70
     1
  9
$TEXTSIZE
 40
3.5
  9
$TRACEWID
 40
0.5
  9
$TEXTSTYLE
  7
STANDARD
  9
$CLAYER
  8
STEMPEL
  9
$CELTYPE
  6
BYLAYER
  9
$CECOLOR
 62
   256
  9
$DIMSCALE
 40
1.0
  9
$DIMASZ
 40
3.5
  9
$DIMEXO
 40
1.0
  9
$DIMDLI
 40
7.0
  9
$DIMRND
 40
0.0
  9
$DIMDLE
 40
0.0
  9
$DIMEXE
 40
1.0
  9
$DIMTP
 40
0.0
  9
$DIMTM
 40
0.0
  9
$DIMTXT
 40
3.5
  9
$DIMCEN
 40
1.5
  9
$DIMTSZ
 40
0.0
  9
$DIMTOL
 70
     0
  9
$DIMLIM
 70
     0
  9
$DIMTIH
 70
     0
  9
$DIMTOH
 70
     0
  9
$DIMSE1
 70
     0
  9
$DIMSE2
 70
     0
  9
$DIMTAD
 70
     1
  9
$DIMZIN
 70
     8
  9
$DIMBLK
  1

  9
$DIMASO
 70
     1
  9
$DIMSHO
 70
     0
  9
$DIMPOST
  1

  9
$DIMAPOST
  1

  9
$DIMALT
 70
     0
  9
$DIMALTD
 70
     2
  9
$DIMALTF
 40
25.3999999999999986
  9
$DIMLFAC
 40
1.0
  9
$DIMTOFL
 70
     1
  9
$DIMTVP
 40
0.0
  9
$DIMTIX
 70
     0
  9
$DIMSOXD
 70
     0
  9
$DIMSAH
 70
     0
  9
$DIMBLK1
  1

  9
$DIMBLK2
  1

  9
$DIMSTYLE
  2
STANDARD
  9
$DIMCLRD
 70
     0
  9
$DIMCLRE
 70
     0
  9
$DIMCLRT
 70
     1
  9
$DIMTFAC
 40
0.5142857142857143
  9
$DIMGAP
 40
1.5
  9
$LUNITS
 70
     2
  9
$LUPREC
 70
     2
  9
$SKETCHINC
 40
1.0
  9
$FILLETRAD
 40
11.4000000000000004
  9
$AUNITS
 70
     0
  9
$AUPREC
 70
     0
  9
$MENU
  1
ACAD
  9
$ELEVATION
 40
0.0
  9
$PELEVATION
 40
0.0
  9
$THICKNESS
 40
0.0
  9
$LIMCHECK
 70
     0
  9
$BLIPMODE
 70
     0
  9
$CHAMFERA
 40
0.0
  9
$CHAMFERB
 40
0.0
  9
$SKPOLY
 70
     0
  9
$TDCREATE
 40
2455397.8646990740671754
  9
$TDUPDATE
 40
2458373.6279398151673377
  9
$TDINDWG
 40
0.5679230903
  9
$TDUSRTIMER
 40
0.5679230903
  9
$USRTIMER
 70
     1
  9
$ANGBASE
 50
0.0
  9
$ANGDIR
 70
     0
  9
$PDMODE
 70
     0
  9
$PDSIZE
 40
0.0
  9
$PLINEWID
 40
0.0
  9
$COORDS
 70
     1
  9
$SPLFRAME
 70
     0
  9
$SPLINETYPE
 70
     6
  9
$SPLINESEGS
 70
     8
  9
$ATTDIA
 70
     1
  9
$ATTREQ
 70
     1
  9
$HANDLING
 70
     1
  9
$HANDSEED
  5
3160
  9
$SURFTAB1
 70
     6
  9
$SURFTAB2
 70
     6
  9
$SURFTYPE
 70
     6
  9
$SURFU
 70
     6
  9
$SURFV
 70
     6
  9
$UCSNAME
  2

  9
$UCSORG
 10
0.0
 20
0.0
 30
0.0
  9
$UCSXDIR
 10
1.0
 20
0.0
 30
0.0
  9
$UCSYDIR
 10
0.0
 20
1.0
 30
0.0
  9
$PUCSNAME
  2

  9
$PUCSORG
 10
0.0
 20
0.0
 30
0.0
  9
$PUCSXDIR
 10
1.0
 20
0.0
 30
0.0
  9
$PUCSYDIR
 10
0.0
 20
1.0
 30
0.0
  9
$USERI1
 70
     0
  9
$USERI2
 70
     0
  9
$USERI3
 70
     0
  9
$USERI4
 70
     0
  9
$USERI5
 70
     0
  9
$USERR1
 40
0.0
  9
$USERR2
 40
0.0
  9
$USERR3
 40
0.0
  9
$USERR4
 40
0.0
  9
$USERR5
 40
0.0
  9
$WORLDVIEW
 70
     1
  9
$SHADEDGE
 70
     3
  9
$SHADEDIF
 70
    70
  9
$TILEMODE
 70
     1
  9
$MAXACTVP
 70
    16
  9
$PLIMCHECK
 70
     0
  9
$PEXTMIN
 10
-4.164732073923914
 20
-4.0814426328317941
 30
-0.0000000039384695
  9
$PEXTMAX
 10
205.8561918656509988
 20
292.9364654637140006
 30
0.0000000124747896
  9
$PLIMMIN
 10
-5.027082920074462
 20
-5.027099609375
  9
$PLIMMAX
 10
204.9462447166442871
 20
291.898895263671875
  9
$UNITMODE
 70
     0
  9
$VISRETAIN
 70
     0
  9
$PLINEGEN
 70
     0
  9
$PSLTSCALE
 70
     0
  0
ENDSEC
  0
SECTION
  2
TABLES
  0
TABLE
  2
VPORT
 70
     1
  0
VPORT
  2
*ACTIVE
 70
     0
 10
0.0
 20
0.0
 11
1.0
 21
1.0
 12
0.0
 22
0.0
 13
0.0
 23
0.0
 14
1.0
 24
1.0
 15
10.0
 25
10.0
 16
0.0000000000005684
 26
0.0
 36
2034.660062830464085
 17
667.0633830742842747
 27
95.6044679797757624
 37
3.4765211517615131
 40
822.1790608595407548
 41
1.8224299065420559
 42
50.0
 43
0.0
 44
0.0
 50
0.0
 51
0.0
 71
     0
 72
  1500
 73
     1
 74
     0
 75
     0
 76
     0
 77
     0
 78
     0
  0
ENDTAB
  0
TABLE
  2
LTYPE
 70
    14
  0
LTYPE
  2
CONTINUOUS
 70
     0
  3
Solid line
 72
    65
 73
     0
 40
0.0
  0
LTYPE
  2
AUSGEZOGEN
 70
     0
  3
Ausgezogene Linie
 72
    65
 73
     0
 40
0.0
  0
LTYPE
  2
HIDDEN2
 70
     0
  3

 72
    65
 73
     2
 40
0.1875
 49
0.125
 49
-0.0625
  0
LTYPE
  2
HIDDEN
 70
     0
  3
Hidden __ __ __ __ __ __ __ __ __ __ __ __ __ __
 72
    65
 73
     2
 40
0.375
 49
0.25
 49
-0.125
  0
LTYPE
  2
PHANTOM2
 70
     0
  3
Phantom (.5x) ___ _ _ ___ _ _ ___ _ _ ___ _ _
 72
    65
 73
     6
 40
1.25
 49
0.625
 49
-0.125
 49
0.125
 49
-0.125
 49
0.125
 49
-0.125
  0
LTYPE
  2
CENTER
 70
     0
  3
Center ____ _ ____ _ ____ _ ____ _ ____ _ ____
 72
    65
 73
     4
 40
2.0
 49
1.25
 49
-0.25
 49
0.25
 49
-0.25
  0
LTYPE
  2
AMCONSTR
 70
     0
  3
_______________________
 72
    65
 73
     2
 40
9999.0
 49
9999.0
 49
0.0
  0
LTYPE
  2
CENTER2
 70
     0
  3
Center (.5x) ___ _ ___ _ ___ _ ___ _ ___ _ ___
 72
    65
 73
     4
 40
1.125
 49
0.75
 49
-0.125
 49
0.125
 49
-0.125
  0
LTYPE
  2
AMZIGZAG2
 70
     0
  3
/\/-/\/-/\/-/\/-/\/-/\/
 72
    65
 73
     2
 40
0.4401
 49
0.0001
 49
-0.4400000000000001
  0
LTYPE
  2
ACANSTGB
 70
     0
  3
__ . . __ . .
 72
    65
 73
     6
 40
0.35433070866
 49
0.15748031496
 49
-0.03937007874
 49
0.03937007874
 49
-0.03937007874
 49
0.03937007874
 49
-0.03937007874
  0
LTYPE
  2
ACANSTGL
 70
     0
  3
_ _ _ _ _
 72
    65
 73
     2
 40
0.11811023622
 49
0.07874015748
 49
-0.03937007874
  0
ENDTAB
  0
TABLE
  2
LAYER
 70
    17
  0
LAYER
  2
0
 70
     0
 62
     7
  6
CONTINUOUS
  0
LAYER
  2
STEMPEL
 70
     0
 62
     3
  6
CONTINUOUS
  0
LAYER
  2
ROHR
 70
     0
 62
   254
  6
CONTINUOUS
  0
LAYER
  2
ADSK_ASSOC_ENTITY_BACKUPS
 70
     1
 62
    -7
  6
CONTINUOUS
  0
ENDTAB
  0
TABLE
  2
STYLE
 70
     5
  0
STYLE
  2
STANDARD
 70
     0
 40
0.0
 41
0.8
 50
0.0
 71
     0
 42
3.5
  3
simplex.shx
  4

  0
STYLE
  2

 70
     1
 40
0.0
 41
1.0
 50
0.0
 71
     0
 42
2.5
  3
genltshp.shx
  4

  0
STYLE
  2
ACANSGDT
 70
     0
 40
0.0
 41
1.0
 50
0.0
 71
     0
 42
2.5
  3
amgdt.shx
  4

  0
ENDTAB
  0
TABLE
  2
VIEW
 70
     1
  0
ENDTAB
  0
TABLE
  2
UCS
 70
     0
  0
ENDTAB
  0
TABLE
  2
APPID
 70
    43
  0
APPID
  2
ACAD
 70
     0
  0
APPID
  2
ACAD_NAV_VCDISPLAY
 70
     0
  0
APPID
  2
GRADIENTCOLOR1ACI
 70
     0
  0
APPID
  2
GRADIENTCOLOR2ACI
 70
     0
  0
APPID
  2
ACAD_EXEMPT_FROM_CAD_STANDARDS
 70
     0
  0
APPID
  2
ACAECLAYERSTANDARD
 70
     0
  0
APPID
  2
ACCMTRANSPARENCY
 70
     0
  0
APPID
  2
ACAD_PSEXT
 70
     0
  0
APPID
  2
ACAD_MLEADERVER
 70
     0
  0
APPID
  2
ACAD_OBJECT_CHANGE_GUID
 70
     0
  0
APPID
  2
MCAD_NO_VIS
 70
     0
  0
APPID
  2
ACAD_TEMP_GRAPHIC
 70
     0
  0
APPID
  2
ACATTRIBSERVICES
 70
     0
  0
APPID
  2
DESIGNERASSEMBLIES
 70
     0
  0
APPID
  2
ACAD_DSTYLE_DIMJAG
 70
     0
  0
APPID
  2
ACAD_DSTYLE_DIMBREAK
 70
     0
  0
APPID
  2
GENIUS_GENSCREG_15
 70
     0
  0
APPID
  2
GENIUS_GENODEF_13
 70
     0
  0
APPID
  2
GENIUS_GENOBJ-N-SDF_13
 70
     0
  0
APPID
  2
ACAD_STEPID
 70
     0
  0
APPID
  2
RAK
 70
     0
  0
APPID
  2
ACAUTHENVIRON
 70
     0
  0
APPID
  2
ACDBDYNAMICBLOCKTRUENAME
 70
     0
  0
APPID
  2
ACDBDYNAMICBLOCKGUID
 70
     0
  0
APPID
  2
ACSYNERGY
 70
     0
  0
APPID
  2
SYNERGY_BODY_TBR_ID
 70
     0
  0
APPID
  2
ACAD_VIEW_EDGE_ID
 70
     0
  0
APPID
  2
GENIUS_GENDTOL_13
 70
     0
  0
APPID
  2
ACAD_DSTYLE_DIMINSPECT
 70
     0
  0
APPID
  2
ACADANNOMONITORALERTICONDI
 70
     0
  0
APPID
  2
ACAD_DSTYLE_DIMTALN
 70
     0
  0
APPID
  2
ACADANNOPO
 70
     0
  0
APPID
  2
ACADANNOTATIVE
 70
     0
  0
APPID
  2
ACAD_ASSOCPERSSUBENTMANAGER
 70
     0
  0
APPID
  2
ACSYNERGYSKETCH
 70
     0
  0
APPID
  2
ACAD_MODELDOC_XFORM
 70
     0
  0
APPID
  2
ACAD_DIMASSOC_CALC_DIMLFAC
 70
     0
  0
APPID
  2
ACAD_DIMASSOC_DIMLFAC
 70
     0
  0
APPID
  2
ACAD_DIMASSOC_OVERRIDDEN_D
 70
     0
  0
APPID
  2
ACAD_DSTYLE_DIMRADIAL_EXTENSION
 70
     0
  0
APPID
  2
GENIUS_GENDIMSH_14
 70
     0
  0
APPID
  2
ACAD_DSTYLE_DIMANGULAR_EXT
 70
     0
  0
APPID
  2
ACADANNOAV
 70
     0
  0
ENDTAB
  0
TABLE
  2
DIMSTYLE
 70
     9
  0
DIMSTYLE
  2
STANDARD
 70
     0
  3

  4

  5

  6

  7

 40
1.0
 41
0.18
 42
0.0625
 43
0.38
 44
0.18
 45
0.0
 46
0.0
 47
0.0
 48
0.0
140
0.18
141
0.09
142
0.0
143
25.3999999999999986
144
1.0
145
0.0
146
1.0
147
0.09
 71
     0
 72
     0
 73
     1
 74
     1
 75
     0
 76
     0
 77
     0
 78
     0
170
     0
171
     2
172
     0
173
     0
174
     0
175
     0
176
     0
177
     0
178
     0
  0
DIMSTYLE
  2
AM_ANSI
 70
     0
  3

  4
mm
  5

  6

  7

 40
1.0
 41
0.12
 42
0.05
 43
0.5
 44
0.1
 45
0.0
 46
0.0
 47
0.1
 48
0.1
140
0.12
141
0.0
142
0.0
143
25.3999999999999986
144
1.0
145
0.0
146
0.71
147
0.06
 71
     0
 72
     0
 73
     1
 74
     1
 75
     0
 76
     0
 77
     0
 78
     7
170
     0
171
     2
172
     0
173
     0
174
     0
175
     0
176
   256
177
   256
178
     2
  0
DIMSTYLE
  2
AM_ANSI$3
 70
     0
  3

  4
mm
  5

  6

  7

 40
1.0
 41
0.12
 42
0.05
 43
0.5
 44
0.1
 45
0.0
 46
0.0
 47
0.1
 48
0.1
140
0.12
141
0.0
142
0.0
143
25.3999999999999986
144
1.0
145
0.0
146
0.71
147
0.06
 71
     0
 72
     0
 73
     1
 74
     1
 75
     0
 76
     0
 77
     0
 78
     7
170
     0
171
     2
172
     0
173
     0
174
     0
175
     0
176
   256
177
   256
178
     2
  0
DIMSTYLE
  2
AM_ANSI$4
 70
     0
  3

  4
mm
  5

  6

  7

 40
1.0
 41
0.12
 42
0.05
 43
0.5
 44
0.1
 45
0.0
 46
0.0
 47
0.1
 48
0.1
140
0.12
141
0.0
142
0.0
143
25.3999999999999986
144
1.0
145
0.0
146
0.71
147
0.06
 71
     0
 72
     0
 73
     1
 74
     1
 75
     0
 76
     0
 77
     0
 78
     7
170
     0
171
     2
172
     0
173
     0
174
     0
175
     0
176
   256
177
   256
178
     2
  0
DIMSTYLE
  2
AM_ANSI$7
 70
     0
  3

  4
mm
  5

  6

  7

 40
1.0
 41
0.12
 42
0.05
 43
0.5
 44
0.1
 45
0.0
 46
0.0
 47
0.1
 48
0.1
140
0.12
141
0.0
142
0.0
143
25.3999999999999986
144
1.0
145
0.0
146
0.71
147
0.06
 71
     0
 72
     0
 73
     1
 74
     1
 75
     0
 76
     0
 77
     0
 78
     7
170
     0
171
     2
172
     0
173
     0
174
     0
175
     0
176
   256
177
   256
178
     2
  0
DIMSTYLE
  2
AM_ANSI$SF
 70
     0
  3

  4
mm
  5

  6

  7

 40
1.0
 41
0.12
 42
0.05
 43
0.5
 44
0.1
 45
0.0
 46
0.0
 47
0.1
 48
0.1
140
0.12
141
0.0
142
0.0
143
25.3999999999999986
144
1.0
145
0.0
146
0.71
147
0.06
 71
     0
 72
     0
 73
     1
 74
     1
 75
     1
 76
     1
 77
     0
 78
     7
170
     0
171
     2
172
     0
173
     0
174
     0
175
     0
176
   256
177
   256
178
     2
  0
DIMSTYLE
  2
AM_ANSI$SH
 70
     0
  3

  4
mm
  5

  6
GENAXEH
  7

 40
1.0
 41
0.12
 42
0.05
 43
0.5
 44
0.1
 45
0.0
 46
0.0
 47
0.1
 48
0.1
140
0.12
141
0.0
142
0.0
143
25.3999999999999986
144
1.0
145
0.0
146
0.71
147
0.06
 71
     0
 72
     0
 73
     1
 74
     1
 75
     1
 76
     1
 77
     0
 78
     7
170
     0
171
     2
172
     0
173
     1
174
     0
175
     0
176
   256
177
   256
178
     2
  0
ENDTAB
  0
ENDSEC
  0
SECTION
  2
BLOCKS
  0
BLOCK
  8
0
  2
$MODEL_SPACE
 70
     0
 10
0.0
 20
0.0
 30
0.0
  3
$MODEL_SPACE
  1

  0
ENDBLK
  5
36
  8
0
  0
BLOCK
 67
     1
  8
0
  2
$PAPER_SPACE
 70
     0
 10
0.0
 20
0.0
 30
0.0
  3
$PAPER_SPACE
  1

  0
ENDBLK
  5
34
 67
     1
  8
0
  0
BLOCK
  8
0
  2
GENAXEH
 70
     0
 10
0.0
 20
0.0
 30
0.0
  3
GENAXEH
  1

  0
LINE
  5
C93
  8
0
 10
-1.0
 20
0.0
 30
0.0
 11
1.0
 21
0.0
 31
0.0
  0
ENDBLK
  5
C95
  8
0
  0
BLOCK
  8
0
  2
_ACMFILLEDHALF
 70
     0
 10
0.0
 20
0.0
 30
0.0
  3
_ACMFILLEDHALF
  1

  0
TRACE
  5
CA3
  8
ROHR
 62
     0
 10
-0.8
 20
0.0
 30
0.0
 11
-1.0
 21
0.166666666
 31
0.0
 12
0.0
 22
0.0
 32
0.0
 13
0.0
 23
0.0
 33
0.0
  0
LINE
  5
CA4
  8
ROHR
 62
     0
 10
-1.0
 20
0.0
 30
0.0
 11
-0.8
 21
0.0
 31
0.0
  0
ENDBLK
  5
CA2
  8
0
  0
BLOCK
  8
0
  2
*S2
 70
     1
 10
0.0
 20
0.0
 30
0.0
  3
*S2
  1

  0
ENDBLK
  5
10CB
  8
0
  0
BLOCK
  8
0
  2
*U3
 70
     1
 10
0.0
 20
0.0
 30
0.0
  3
*U3
  1

  0
ENDBLK
  5
1ABA
  8
0
  0
BLOCK
  8
0
  2
A$C701561E2
 70
     0
 10
0.0
 20
0.0
 30
0.0
  3
A$C701561E2
  1

  0
LINE
  5
30C5
  8
0
  6
CONTINUOUS
 62
     3
 10
50.1832249497366121
 20
-35.0234782348068165
 30
0.0000000000000078
 11
0.0000000000000149
 21
-35.0234782348068308
 31
0.0000000000000078
210
-0.0000000000000002
220
1.0
230
-0.0000000000000002
  0
LINE
  5
30C6
  8
0
  6
CONTINUOUS
 62
     3
 10
-0.0000000000000006
 20
-35.0234782348068308
 30
0.0000000000000078
 11
-50.1832249497365979
 21
-35.0234782348068521
 31
0.0000000000000078
210
-0.0000000000000002
220
1.0
230
-0.0000000000000002
  0
ARC
  5
30C7
  8
0
  6
CONTINUOUS
 62
     3
 10
-39.400000000010067
 20
-27.47597240210116
 30
0.0
 40
11.3999999999899604
210
0.0
220
-0.0000000000000002
230
-1.0
 50
179.9999999999976126
 51
185.0000000000017906
  0
ARC
  5
30C8
  8
0
  6
CONTINUOUS
 62
     3
 10
39.4000000000100528
 20
-27.4759724021011813
 30
0.0
 40
11.3999999999899604
210
0.0
220
-0.0000000000000002
230
-1.0
 50
354.9999999999981242
 51
0.0000000000023918
  0
LINE
  5
30C9
  8
0
  6
CONTINUOUS
 62
     3
 10
-50.8000000000000114
 20
-27.4759724021007017
 30
0.0000000000000061
 11
-50.8000000000000327
 21
39.9765217651931906
 31
-0.0000000000000089
210
-0.0000000000000002
220
1.0
230
-0.0000000000000002
  0
LINE
  5
30CA
  8
0
  6
CONTINUOUS
 62
     3
 10
50.8000000000000327
 20
-27.4759724021006804
 30
0.0000000000000061
 11
50.8000000000000114
 21
39.9765217651932119
 31
-0.0000000000000089
210
-0.0000000000000002
220
1.0
230
-0.0000000000000002
  0
LINE
  5
30CB
  8
0
  6
CONTINUOUS
 62
     3
 10
-50.1832249497365765
 20
-35.0234782348068521
 30
0.0000000000000078
 11
-50.7566195582458874
 21
-28.469547869423991
 31
0.0000000000000063
210
-0.0000000000000002
220
1.0
230
-0.0000000000000002
  0
LINE
  5
30CC
  8
0
  6
CONTINUOUS
 62
     3
 10
50.1832249497365908
 20
-35.0234782348068165
 30
0.0000000000000078
 11
50.7566195582459088
 21
-28.469547869423959
 31
0.0000000000000063
210
-0.0000000000000002
220
1.0
230
-0.0000000000000002
  0
LINE
  5
30CD
  8
0
  6
CONTINUOUS
 62
     3
 10
60.0
 20
41.976521765193219
 30
-0.0000000000000093
 11
-0.0000000000000022
 21
41.9765217651931977
 31
-0.0000000000000093
210
-0.0000000000000002
220
1.0
230
-0.0000000000000002
  0
LINE
  5
30CE
  8
0
  6
CONTINUOUS
 62
     3
 10
-0.0000000000000165
 20
41.9765217651931977
 30
-0.0000000000000093
 11
-60.0000000000000213
 21
41.9765217651931835
 31
-0.0000000000000093
210
-0.0000000000000002
220
1.0
230
-0.0000000000000002
  0
LINE
  5
30CF
  8
0
  6
CONTINUOUS
 62
     3
 10
60.0
 20
39.9765217651932119
 30
-0.0000000000000089
 11
-0.0000000000000018
 21
39.9765217651931977
 31
-0.0000000000000089
210
-0.0000000000000002
220
1.0
230
-0.0000000000000002
  0
LINE
  5
30D0
  8
0
  6
CONTINUOUS
 62
     3
 10
-0.0000000000000161
 20
39.9765217651931977
 30
-0.0000000000000089
 11
-60.0000000000000213
 21
39.9765217651931906
 31
-0.0000000000000089
210
-0.0000000000000002
220
1.0
230
-0.0000000000000002
  0
LINE
  5
30D1
  8
0
  6
CONTINUOUS
 62
     3
 10
-60.0000000000000213
 20
39.9765217651931906
 30
-0.0000000000000089
 11
-60.0000000000000213
 21
41.9765217651931835
 31
-0.0000000000000093
210
-0.0000000000000002
220
1.0
230
-0.0000000000000002
  0
LINE
  5
30D2
  8
0
  6
CONTINUOUS
 62
     3
 10
60.0
 20
39.9765217651932119
 30
-0.0000000000000089
 11
60.0
 21
41.976521765193219
 31
-0.0000000000000093
210
-0.0000000000000002
220
1.0
230
-0.0000000000000002
  0
LINE
  5
30D3
  8
0
  6
HIDDEN
 62
     1
 10
48.9877913120265376
 20
-34.9188913435096211
 30
0.0000000000000078
 11
0.0000000000000149
 21
-34.9188913435096424
 31
0.0000000000000078
210
-0.0000000000000002
220
1.0
230
-0.0000000000000002
  0
LINE
  5
30D4
  8
0
  6
HIDDEN
 62
     1
 10
0.0000000000000005
 20
-34.9188913435096424
 30
0.0000000000000078
 11
-48.9877913120265589
 21
-34.9188913435096495
 31
0.0000000000000078
210
-0.0000000000000002
220
1.0
230
-0.0000000000000002
  0
LINE
  5
30D5
  8
0
  6
HIDDEN
 62
     1
 10
-49.599999999999973
 20
-27.4759724021013092
 30
0.0000000000000061
 11
-49.5999999999999872
 21
39.9765217651931906
 31
-0.0000000000000089
210
-0.0000000000000002
220
1.0
230
-0.0000000000000002
  0
LINE
  5
30D6
  8
0
  6
HIDDEN
 62
     1
 10
49.5999999999999872
 20
-27.4759724021012808
 30
0.0000000000000061
 11
49.599999999999973
 21
39.976521765193219
 31
-0.0000000000000089
210
-0.0000000000000002
220
1.0
230
-0.0000000000000002
  0
ARC
  5
30D7
  8
0
  6
HIDDEN
 62
     1
 10
-39.4000000000172932
 20
-27.4759724021018492
 30
0.0
 40
10.1999999999826905
210
0.0
220
-0.0000000000000002
230
-1.0
 50
179.9999999999967883
 51
185.0000000000046043
  0
ARC
  5
30D8
  8
0
  6
HIDDEN
 62
     1
 10
39.4000000000172719
 20
-27.4759724021018705
 30
0.0
 40
10.1999999999826905
210
0.0
220
-0.0000000000000002
230
-1.0
 50
354.999999999995282
 51
0.0000000000031424
  0
LINE
  5
30D9
  8
0
  6
HIDDEN
 62
     1
 10
-48.9877913120265873
 20
-34.9188913435096495
 30
0.0000000000000078
 11
-49.5611859205357987
 21
-28.3649609781273213
 31
0.0000000000000063
210
-0.0000000000000002
220
1.0
230
-0.0000000000000002
  0
LINE
  5
30DA
  8
0
  6
HIDDEN
 62
     1
 10
48.9877913120266086
 20
-34.9188913435096211
 30
0.0000000000000078
 11
49.561185920535813
 21
-28.3649609781272893
 31
0.0000000000000063
210
-0.0000000000000002
220
1.0
230
-0.0000000000000002
  0
LINE
  5
30DB
  8
0
  6
HIDDEN
 62
     1
 10
48.9877913120265802
 20
-34.9188913435096211
 30
0.0000000000000078
 11
50.1832249497366192
 21
-35.0234782348068165
 31
0.0000000000000078
210
-0.0000000000000002
220
1.0
230
-0.0000000000000002
  0
LINE
  5
30DC
  8
0
  6
HIDDEN
 62
     1
 10
-48.9877913120265589
 20
-34.9188913435096495
 30
0.0000000000000078
 11
-50.1832249497365979
 21
-35.0234782348068521
 31
0.0000000000000078
210
-0.0000000000000002
220
1.0
230
-0.0000000000000002
  0
ENDBLK
  5
30DE
  8
0
  0
BLOCK
  8
0
  2
A$C53CF3792
 70
     0
 10
0.0
 20
0.0
 30
0.0
  3
A$C53CF3792
  1

  0
CIRCLE
  5
30E2
  8
0
  6
CONTINUOUS
 62
     3
 10
349.2975248075828745
 20
0.0
 30
-0.0000000000000853
 40
60.0
  0
CIRCLE
  5
30E3
  8
0
  6
HIDDEN
 62
     1
 10
349.2975248075828745
 20
0.0
 30
-0.0000000000000853
 40
50.8000000000000114
  0
CIRCLE
  5
30E4
  8
0
  6
HIDDEN
 62
     1
 10
349.2975248075828745
 20
0.0
 30
-0.0000000000000853
 40
49.6000000000000227
  0
CIRCLE
  5
30E5
  8
0
  6
HIDDEN
 62
     1
 10
349.2975248075828745
 20
0.0
 30
-0.0000000000000853
 40
48.9877913120265589
  0
CIRCLE
  5
30E6
  8
0
  6
HIDDEN
 62
     1
 10
349.2975248075828745
 20
0.0
 30
-0.0000000000000853
 40
50.1832249497365908
  0
ENDBLK
  5
30E8
  8
0
  0
BLOCK
  8
0
  2
*U15
 70
     1
 10
0.0
 20
0.0
 30
0.0
  3
*U15
  1

  0
CIRCLE
  5
314C
  8
ROHR
 10
349.2975248075828745
 20
0.0
 30
-28.469547869423959
 40
50.756619558245923
  0
CIRCLE
  5
314D
  8
ROHR
 10
349.2975248075828745
 20
0.0
 30
-27.4759724021006804
 40
50.8000000000000114
  0
CIRCLE
  5
314E
  8
ROHR
 10
349.2975248075828745
 20
0.0
 30
-27.4759724021006804
 40
50.8000000000000114
  0
CIRCLE
  5
314F
  8
ROHR
 10
349.2975248075828745
 20
0.0
 30
39.9765217651931906
 40
50.8000000000000114
  0
CIRCLE
  5
3150
  8
ROHR
 10
349.2975248075828745
 20
0.0
 30
39.9765217651931906
 40
50.8000000000000114
  0
CIRCLE
  5
3151
  8
ROHR
 10
349.2975248075828745
 20
0.0
 30
39.9765217651931906
 40
49.6000000000000227
  0
CIRCLE
  5
3152
  8
ROHR
 10
349.2975248075828745
 20
0.0
 30
39.9765217651931906
 40
49.6000000000000227
  0
CIRCLE
  5
3153
  8
ROHR
 10
349.2975248075828745
 20
0.0
 30
-27.4759724021012808
 40
49.599999999999973
  0
CIRCLE
  5
3154
  8
ROHR
 10
349.2975248075828745
 20
0.0
 30
-27.4759724021012808
 40
49.599999999999973
  0
CIRCLE
  5
3155
  8
ROHR
 10
349.2975248075828745
 20
0.0
 30
-28.3649609781272893
 40
49.5611859205357632
  0
CIRCLE
  5
3156
  8
ROHR
 10
349.2975248075828745
 20
0.0
 30
-28.3649609781272893
 40
49.5611859205357632
  0
CIRCLE
  5
3157
  8
ROHR
 10
349.2975248075828745
 20
0.0
 30
-34.9188913435096211
 40
48.9877913120265589
  0
CIRCLE
  5
3158
  8
ROHR
 10
349.2975248075828745
 20
0.0
 30
-34.9188913435096211
 40
48.9877913120265589
  0
CIRCLE
  5
3159
  8
ROHR
 10
349.2975248075828745
 20
0.0
 30
-35.0234782348068165
 40
50.1832249497365908
  0
CIRCLE
  5
315A
  8
ROHR
 10
349.2975248075828745
 20
0.0
 30
-35.0234782348068165
 40
50.1832249497365908
  0
CIRCLE
  5
315B
  8
ROHR
 10
349.2975248075828745
 20
0.0
 30
-28.469547869423959
 40
50.756619558245923
  0
ENDBLK
  5
315D
  8
0
  0
ENDSEC
  0
SECTION
  2
ENTITIES
  0
INSERT
  5
10CD
  8
ADSK_ASSOC_ENTITY_BACKUPS
  2
*S2
 10
0.0
 20
0.0
 30
0.0
  0
INSERT
  5
2B42
  8
STEMPEL
  2
*U15
 10
0.0
 20
0.0
 30
0.0
  0
INSERT
  5
30DF
  8
STEMPEL
  2
A$C701561E2
 10
349.2975248075828745
 20
234.918891343509614
 30
-0.000000000000093
  0
INSERT
  5
30E9
  8
STEMPEL
  2
A$C53CF3792
 10
0.0
 20
0.0
 30
0.0
  0
VIEWPORT
  5
83F
 67
     1
  8
0
 10
198.7690576835045135
 20
112.8926930315015937
 30
0.0
 40
844.3721439367144512
 41
463.3221507755304742
 68
     1
 69
     1
1001
ACAD
1000
MVIEW
1002
{
1070
    16
1010
0.0
1020
0.0
1030
0.0
1010
0.0
1020
0.0
1030
1.0
1040
0.0
1040
463.3221507755304742
1040
198.7690576835045135
1040
112.8926930315015937
1040
50.0
1040
0.0
1040
0.0
1070
     0
1070
  1500
1070
     1
1070
     1
1070
     0
1070
     0
1070
     0
1070
     0
1040
0.0
1040
0.0
1040
0.0
1040
10.0
1040
10.0
1040
10.0
1040
10.0
1070
     0
1002
{
1002
}
1002
}
1001
GENIUS_GENODEF_13
1002
{
1000
HIER
1070
     0
1002
}
1002
{
1000
MANEDIT
1070
     0
1002
}
1002
{
1000
NOSEL
1070
     0
1002
}
1002
{
1000
BEHIND
1070
     0
1002
}
1002
{
1000
OTHER
1070
     0
1002
}
1002
{
1000
REACTOR
1002
}
1001
GENIUS_GENOBJ-N-SDF_13
1002
{
1000
OWNER
1000
GEN
1002
}
1001
GENIUS_GENSCREG_15
1000
PF
1040
1.0
1000
DF
1040
1.0
1000
MIN
1011
-5.2574539823979194
1021
0.0
1031
0.0
1021
17.3643170183972906
1031
0.0
1000
MAX
1011
341.607338874783693
1021
0.0
1031
0.0
1021
190.6814759742781007
1031
0.0
1000
FLAGS
1070
     4
  0
ENDSEC
  0
EOF
