  0
SECTION
  2
HEADER
  9
$ACADVER
  1
AC1009
  9
$INSBASE
 10
0.0
 20
0.0
 30
0.0
  9
$EXTMIN
 10
0.0000020700707637
 20
-0.0000007095555006
 30
0.0
  9
$EXTMAX
 10
124.5000020700707068
 20
449.9990798296536809
 30
0.0
  9
$LIMMIN
 10
0.0
 20
0.0
  9
$LIMMAX
 10
210.0
 20
297.0
  9
$ORTHOMODE
 70
     1
  9
$REGENMODE
 70
     1
  9
$FILLMODE
 70
     1
  9
$QTEXTMODE
 70
     0
  9
$MIRRTEXT
 70
     1
  9
$DRAGMODE
 70
     2
  9
$LTSCALE
 40
10.0
  9
$OSMODE
 70
    39
  9
$ATTMODE
 70
     1
  9
$TEXTSIZE
 40
3.5
  9
$TRACEWID
 40
0.5
  9
$TEXTSTYLE
  7
STANDARD
  9
$CLAYER
  8
VOLL
  9
$CELTYPE
  6
BYLAYER
  9
$CECOLOR
 62
   256
  9
$DIMSCALE
 40
1.0
  9
$DIMASZ
 40
3.5
  9
$DIMEXO
 40
1.0
  9
$DIMDLI
 40
7.0
  9
$DIMRND
 40
0.0
  9
$DIMDLE
 40
0.0
  9
$DIMEXE
 40
1.0
  9
$DIMTP
 40
0.0
  9
$DIMTM
 40
0.0
  9
$DIMTXT
 40
3.5
  9
$DIMCEN
 40
1.5
  9
$DIMTSZ
 40
0.0
  9
$DIMTOL
 70
     0
  9
$DIMLIM
 70
     0
  9
$DIMTIH
 70
     0
  9
$DIMTOH
 70
     0
  9
$DIMSE1
 70
     0
  9
$DIMSE2
 70
     0
  9
$DIMTAD
 70
     1
  9
$DIMZIN
 70
     8
  9
$DIMBLK
  1

  9
$DIMASO
 70
     1
  9
$DIMSHO
 70
     0
  9
$DIMPOST
  1

  9
$DIMAPOST
  1

  9
$DIMALT
 70
     0
  9
$DIMALTD
 70
     2
  9
$DIMALTF
 40
25.3999999999999986
  9
$DIMLFAC
 40
1.0
  9
$DIMTOFL
 70
     1
  9
$DIMTVP
 40
0.0
  9
$DIMTIX
 70
     0
  9
$DIMSOXD
 70
     0
  9
$DIMSAH
 70
     0
  9
$DIMBLK1
  1

  9
$DIMBLK2
  1

  9
$DIMSTYLE
  2
STANDARD
  9
$DIMCLRD
 70
     0
  9
$DIMCLRE
 70
     0
  9
$DIMCLRT
 70
     1
  9
$DIMTFAC
 40
0.5142857142857143
  9
$DIMGAP
 40
1.5
  9
$LUNITS
 70
     2
  9
$LUPREC
 70
     2
  9
$SKETCHINC
 40
1.0
  9
$FILLETRAD
 40
0.0
  9
$AUNITS
 70
     0
  9
$AUPREC
 70
     0
  9
$MENU
  1
ACAD
  9
$ELEVATION
 40
0.0
  9
$PELEVATION
 40
0.0
  9
$THICKNESS
 40
0.0
  9
$LIMCHECK
 70
     0
  9
$BLIPMODE
 70
     0
  9
$CHAMFERA
 40
0.0
  9
$CHAMFERB
 40
0.0
  9
$SKPOLY
 70
     0
  9
$TDCREATE
 40
2455397.8646990740671754
  9
$TDUPDATE
 40
2458418.3493171301670372
  9
$TDINDWG
 40
0.2967817708
  9
$TDUSRTIMER
 40
0.2967817708
  9
$USRTIMER
 70
     1
  9
$ANGBASE
 50
0.0
  9
$ANGDIR
 70
     0
  9
$PDMODE
 70
     0
  9
$PDSIZE
 40
0.0
  9
$PLINEWID
 40
0.0
  9
$COORDS
 70
     1
  9
$SPLFRAME
 70
     0
  9
$SPLINETYPE
 70
     6
  9
$SPLINESEGS
 70
     8
  9
$ATTDIA
 70
     1
  9
$ATTREQ
 70
     1
  9
$HANDLING
 70
     1
  9
$HANDSEED
  5
2567
  9
$SURFTAB1
 70
     6
  9
$SURFTAB2
 70
     6
  9
$SURFTYPE
 70
     6
  9
$SURFU
 70
     6
  9
$SURFV
 70
     6
  9
$UCSNAME
  2

  9
$UCSORG
 10
0.0
 20
0.0
 30
0.0
  9
$UCSXDIR
 10
1.0
 20
0.0
 30
0.0
  9
$UCSYDIR
 10
0.0
 20
1.0
 30
0.0
  9
$PUCSNAME
  2

  9
$PUCSORG
 10
0.0
 20
0.0
 30
0.0
  9
$PUCSXDIR
 10
1.0
 20
0.0
 30
0.0
  9
$PUCSYDIR
 10
0.0
 20
1.0
 30
0.0
  9
$USERI1
 70
     0
  9
$USERI2
 70
     0
  9
$USERI3
 70
     0
  9
$USERI4
 70
     0
  9
$USERI5
 70
     0
  9
$USERR1
 40
0.0
  9
$USERR2
 40
0.0
  9
$USERR3
 40
0.0
  9
$USERR4
 40
0.0
  9
$USERR5
 40
0.0
  9
$WORLDVIEW
 70
     1
  9
$SHADEDGE
 70
     3
  9
$SHADEDIF
 70
    70
  9
$TILEMODE
 70
     1
  9
$MAXACTVP
 70
    16
  9
$PLIMCHECK
 70
     0
  9
$PEXTMIN
 10
-5.148909021064866
 20
-76.0962465222710307
 30
-0.0000000349181948
  9
$PEXTMAX
 10
204.8725141100514122
 20
393.2321077757085845
 30
0.0000000814935746
  9
$PLIMMIN
 10
-5.027082920074462
 20
-5.027099609375
  9
$PLIMMAX
 10
204.9462447166442871
 20
291.898895263671875
  9
$UNITMODE
 70
     0
  9
$VISRETAIN
 70
     0
  9
$PLINEGEN
 70
     0
  9
$PSLTSCALE
 70
     0
  0
ENDSEC
  0
SECTION
  2
TABLES
  0
TABLE
  2
VPORT
 70
     1
  0
VPORT
  2
*ACTIVE
 70
     0
 10
0.0
 20
0.0
 11
1.0
 21
1.0
 12
62.2500020700706997
 22
224.9995395600491008
 13
0.0
 23
0.0
 14
1.0
 24
1.0
 15
10.0
 25
10.0
 16
-0.0000000000000012
 26
0.0
 36
5.5852494427615751
 17
0.0
 27
0.0
 37
0.0
 40
453.5942795847955153
 41
2.0800000000000001
 42
50.0
 43
0.0
 44
0.0
 50
0.0
 51
0.0
 71
     0
 72
  1500
 73
     1
 74
     0
 75
     0
 76
     0
 77
     0
 78
     0
  0
ENDTAB
  0
TABLE
  2
LTYPE
 70
     3
  0
LTYPE
  2
CONTINUOUS
 70
     0
  3
Solid line
 72
    65
 73
     0
 40
0.0
  0
LTYPE
  2
AUSGEZOGEN
 70
     0
  3
Ausgezogene Linie
 72
    65
 73
     0
 40
0.0
  0
LTYPE
  2
VERDECKT
 70
     0
  3
Verdeckt __ __ __ __ __ __ __ __ __ __ __ __ __
 72
    65
 73
     2
 40
0.375
 49
0.25
 49
-0.125
  0
ENDTAB
  0
TABLE
  2
LAYER
 70
     4
  0
LAYER
  2
0
 70
     0
 62
     7
  6
CONTINUOUS
  0
LAYER
  2
VOLL
 70
     0
 62
     1
  6
CONTINUOUS
  0
LAYER
  2
DEFPOINTS
 70
     0
 62
     7
  6
AUSGEZOGEN
  0
LAYER
  2
ADSK_ASSOC_ENTITY_BACKUPS
 70
     0
 62
     7
  6
CONTINUOUS
  0
ENDTAB
  0
TABLE
  2
STYLE
 70
     3
  0
STYLE
  2
STANDARD
 70
     0
 40
0.0
 41
0.8
 50
0.0
 71
     0
 42
3.5
  3
simplex.shx
  4

  0
STYLE
  2
ANNOTATIVE
 70
     0
 40
0.0
 41
1.0
 50
0.0
 71
     0
 42
0.2
  3
txt
  4

  0
STYLE
  2
GREEKS
 70
     0
 40
0.0
 41
0.8
 50
0.0
 71
     0
 42
2.5
  3
SIMPLEX.shx
  4

  0
ENDTAB
  0
TABLE
  2
VIEW
 70
     0
  0
ENDTAB
  0
TABLE
  2
UCS
 70
     0
  0
ENDTAB
  0
TABLE
  2
APPID
 70
    36
  0
APPID
  2
ACAD
 70
     0
  0
APPID
  2
ACADANNOTATIVE
 70
     0
  0
APPID
  2
MCAD_NO_VIS
 70
     0
  0
APPID
  2
ACAD_TEMP_GRAPHIC
 70
     0
  0
APPID
  2
ACATTRIBSERVICES
 70
     0
  0
APPID
  2
DESIGNERASSEMBLIES
 70
     0
  0
APPID
  2
ACAD_DSTYLE_DIMJAG
 70
     0
  0
APPID
  2
ACAD_DSTYLE_DIMBREAK
 70
     0
  0
APPID
  2
ACAD_NAV_VCDISPLAY
 70
     0
  0
APPID
  2
ACAD_EXEMPT_FROM_CAD_STANDARDS
 70
     0
  0
APPID
  2
ACAECLAYERSTANDARD
 70
     0
  0
APPID
  2
ACAD_PSEXT
 70
     0
  0
APPID
  2
RAK
 70
     0
  0
APPID
  2
GENIUS_GENSCREG_15
 70
     0
  0
APPID
  2
GENIUS_GENOBJ-N-SDF_13
 70
     0
  0
APPID
  2
GENIUS_GENODEF_13
 70
     0
  0
APPID
  2
ACAUTHENVIRON
 70
     0
  0
APPID
  2
ACDBDYNAMICBLOCKTRUENAME
 70
     0
  0
APPID
  2
ACDBDYNAMICBLOCKGUID
 70
     0
  0
APPID
  2
ACSYNERGY
 70
     0
  0
APPID
  2
SYNERGY_BODY_TBR_ID
 70
     0
  0
APPID
  2
ACAD_VIEW_EDGE_ID
 70
     0
  0
APPID
  2
ACAD_STEPID
 70
     0
  0
APPID
  2
GENIUS_GENDTOL_13
 70
     0
  0
APPID
  2
ACAD_DSTYLE_DIMINSPECT
 70
     0
  0
APPID
  2
ACADANNOMONITORALERTICONDI
 70
     0
  0
APPID
  2
ACSYNERGYSKETCH
 70
     0
  0
APPID
  2
ACAD_MODELDOC_XFORM
 70
     0
  0
APPID
  2
ACAD_MLEADERVER
 70
     0
  0
APPID
  2
ACAD_DSTYLE_DIMARC_LENGTH_
 70
     0
  0
APPID
  2
ACAD_DSTYLE_DIM_LINETYPE
 70
     0
  0
APPID
  2
ACAD_DSTYLE_DIM_EXT1_LINETYPE
 70
     0
  0
APPID
  2
ACAD_DSTYLE_DIM_EXT2_LINETYPE
 70
     0
  0
APPID
  2
ACAD_OBJECT_CHANGE_GUID
 70
     0
  0
APPID
  2
ACDBATTR
 70
     0
  0
APPID
  2
ACAD_DSTYLE_DIMJOGGED_JOGA
 70
     0
  0
ENDTAB
  0
TABLE
  2
DIMSTYLE
 70
     2
  0
DIMSTYLE
  2
STANDARD
 70
     0
  3

  4

  5

  6

  7

 40
1.0
 41
0.18
 42
0.0625
 43
0.38
 44
0.18
 45
0.0
 46
0.0
 47
0.0
 48
0.0
140
0.18
141
0.09
142
0.0
143
25.3999999999999986
144
1.0
145
0.0
146
1.0
147
0.09
 71
     0
 72
     0
 73
     1
 74
     1
 75
     0
 76
     0
 77
     0
 78
     0
170
     0
171
     2
172
     0
173
     0
174
     0
175
     0
176
     0
177
     0
178
     0
  0
DIMSTYLE
  2
ANNOTATIVE
 70
     0
  3

  4

  5

  6

  7

 40
1.0
 41
0.18
 42
0.0625
 43
0.38
 44
0.18
 45
0.0
 46
0.0
 47
0.0
 48
0.0
140
0.18
141
0.09
142
0.0
143
25.3999999999999986
144
1.0
145
0.0
146
1.0
147
0.09
 71
     0
 72
     0
 73
     1
 74
     1
 75
     0
 76
     0
 77
     0
 78
     0
170
     0
171
     2
172
     0
173
     0
174
     0
175
     0
176
     0
177
     0
178
     0
  0
ENDTAB
  0
ENDSEC
  0
SECTION
  2
BLOCKS
  0
BLOCK
  8
0
  2
$MODEL_SPACE
 70
     0
 10
0.0
 20
0.0
 30
0.0
  3
$MODEL_SPACE
  1

  0
ENDBLK
  5
24C0
  8
0
  0
BLOCK
 67
     1
  8
0
  2
$PAPER_SPACE
 70
     0
 10
0.0
 20
0.0
 30
0.0
  3
$PAPER_SPACE
  1

  0
ENDBLK
  5
24BC
 67
     1
  8
0
  0
BLOCK
  8
0
  2
*U2
 70
     1
 10
0.0
 20
0.0
 30
0.0
  3
*U2
  1

  0
ENDBLK
  5
CAD
  8
0
  0
BLOCK
  8
0
  2
A$C7CA140E0
 70
     0
 10
0.0
 20
0.0
 30
0.0
  3
A$C7CA140E0
  1

  0
LINE
  5
2373
  8
0
  6
CONTINUOUS
 62
     3
 10
-316.1391797232972749
 20
-99.4918931027848856
 30
0.0
 11
-216.2389076479194898
 21
-99.4918931027848856
 31
0.0
210
0.0
220
1.0
230
0.0
  0
LINE
  5
2374
  8
0
  6
CONTINUOUS
 62
     3
 10
-325.9101792206120081
 20
80.5081068972150433
 30
0.0
 11
-206.4679081506048135
 21
80.5081068972150433
 31
0.0
210
0.0
220
1.0
230
0.0
  0
ARC
  5
2375
  8
0
  6
CONTINUOUS
 62
     3
 10
305.1890436856156725
 20
-92.4154322291302037
 30
0.0
 40
11.9999999999926104
210
0.0
220
0.0
230
-1.0
 50
350.1419712024905948
 51
0.0000000000029897
  0
ARC
  5
2376
  8
0
  6
CONTINUOUS
 62
     3
 10
227.1890436856085955
 20
-92.4154322291295642
 30
0.0
 40
12.0000000000002807
210
0.0
220
0.0
230
-1.0
 50
180.0
 51
189.8580287975061083
  0
LINE
  5
2377
  8
0
  6
CONTINUOUS
 62
     3
 10
-215.1890436856083966
 20
0.0
 30
0.0
 11
-215.1890436856083966
 21
-92.4154322291295642
 31
0.0
210
0.0
220
1.0
230
0.0
  0
LINE
  5
2378
  8
0
  6
CONTINUOUS
 62
     3
 10
-317.1890436856083966
 20
0.0
 30
0.0
 11
-317.1890436856083966
 21
-92.4154322291295642
 31
0.0
210
0.0
220
1.0
230
0.0
  0
LINE
  5
2379
  8
0
  6
CONTINUOUS
 62
     3
 10
-316.1391797232972181
 20
-99.491893102784843
 30
0.0
 11
-317.0118637580155792
 21
-94.4699213470085084
 31
0.0
210
0.0
220
1.0
230
0.0
  0
LINE
  5
237A
  8
0
  6
CONTINUOUS
 62
     3
 10
-216.2389076479194898
 20
-99.4918931027848856
 30
0.0
 11
-215.3662236132011003
 21
-94.4699213470085084
 31
0.0
210
0.0
220
1.0
230
0.0
  0
ARC
  5
237B
  8
0
  6
CONTINUOUS
 62
     3
 10
304.4359357498776717
 20
70.3380856092298501
 30
0.0
 40
23.7545123786571892
210
0.0
220
0.0
230
-1.0
 50
359.3769559431946163
 51
24.0306741559347188
  0
ARC
  5
237C
  8
0
  6
CONTINUOUS
 62
     3
 10
227.9421516213378993
 20
70.3380856092299638
 30
0.0
 40
23.7545123786562016
210
0.0
220
0.0
230
-1.0
 50
155.9693258440644001
 51
180.623044056805611
  0
LINE
  5
237D
  8
0
  6
CONTINUOUS
 62
     3
 10
-328.1889529963079895
 20
49.741106897215019
 30
0.0
 11
-328.189043685608226
 21
70.079780089908013
 31
0.0
210
0.0
220
1.0
230
0.0
  0
LINE
  5
237E
  8
0
  6
CONTINUOUS
 62
     3
 10
-204.18913437490869
 20
49.741106897215019
 30
0.0
 11
-204.1890436856083113
 21
70.079780089908013
 31
0.0
210
0.0
220
1.0
230
0.0
  0
ARC
  5
237F
  8
0
  6
CONTINUOUS
 62
     3
 10
303.188501364981903
 20
49.7412183731922823
 30
0.0
 40
25.0004516315746308
210
0.0
220
0.0
230
-1.0
 50
336.7691261419030866
 51
359.9997445204948008
  0
ARC
  5
2380
  8
0
  6
CONTINUOUS
 62
     3
 10
229.189586006234407
 20
49.7412183731922326
 30
0.0
 40
25.0004516315742187
210
0.0
220
0.0
230
-1.0
 50
180.0002554795050003
 51
203.2308738580971124
  0
ARC
  5
2381
  8
0
  6
CONTINUOUS
 62
     3
 10
337.1893040004571276
 20
35.1467637861071793
 30
0.0
 40
12.0002603149681395
210
0.0
220
0.0
230
-1.0
 50
156.7691261419033992
 51
179.9997445204899975
  0
ARC
  5
2382
  8
0
  6
CONTINUOUS
 62
     3
 10
195.1887833707617119
 20
35.1467637861076625
 30
0.0
 40
12.0002603149659492
210
0.0
220
0.0
230
-1.0
 50
0.0002554795075133
 51
23.2308738580983594
  0
LINE
  5
2383
  8
0
  6
CONTINUOUS
 62
     3
 10
-207.1890436856083113
 20
35.1468172947713171
 30
0.0
 11
-207.1890436856083113
 21
17.4355957741626284
 31
0.0
210
0.0
220
1.0
230
0.0
  0
LINE
  5
2384
  8
0
  6
CONTINUOUS
 62
     3
 10
-325.189043685608226
 20
35.1468172947713171
 30
0.0
 11
-325.189043685608226
 21
17.4355957741626284
 31
0.0
210
0.0
220
1.0
230
0.0
  0
ARC
  5
2385
  8
0
  6
CONTINUOUS
 62
     3
 10
310.189043685608226
 20
17.435595774162671
 30
0.0
 40
15.0000000000000604
210
0.0
220
0.0
230
-1.0
 50
310.7057068310413115
 51
359.9999999999998863
  0
ARC
  5
2386
  8
0
  6
CONTINUOUS
 62
     3
 10
222.1890436856083966
 20
17.435595774162671
 30
0.0
 40
15.0000000000000604
210
0.0
220
0.0
230
-1.0
 50
180.0
 51
229.2942931689586885
  0
ARC
  5
2387
  8
0
  6
CONTINUOUS
 62
     3
 10
325.1890436856081124
 20
0.0000000000000422
 30
0.0
 40
7.9999999999997664
210
0.0
220
0.0
230
-1.0
 50
130.7057068310411125
 51
180.000000000000199
  0
ARC
  5
2388
  8
0
  6
CONTINUOUS
 62
     3
 10
207.1890436856085955
 20
0.0000000000000586
 30
0.0
 40
7.999999999999714
210
0.0
220
0.0
230
-1.0
 50
359.9999999999996021
 51
49.2942931689590935
  0
LINE
  5
2389
  8
0
  6
CONTINUOUS
 62
     3
 10
-206.4679081506048135
 20
80.5081068972150433
 30
0.0
 11
-206.246500455062602
 21
80.0115327103944338
 31
0.0
210
0.0
220
1.0
230
0.0
  0
LINE
  5
238A
  8
0
  6
CONTINUOUS
 62
     3
 10
-325.9101792206118944
 20
80.5081068972150433
 30
0.0
 11
-326.1315869161541059
 21
80.0115327103944054
 31
0.0
210
0.0
220
1.0
230
0.0
  0
LINE
  5
238B
  8
0
  6
CONTINUOUS
 62
     3
 10
-325.5646437474945856
 20
158.1425632309600076
 30
0.0
 11
-206.8134436237218097
 21
158.1425632309600076
 31
0.0
210
0.0
220
1.0
230
0.0
  0
LINE
  5
238C
  8
0
  6
CONTINUOUS
 62
     3
 10
-328.439043685608226
 20
153.1425632309600076
 30
0.0
 11
-203.9390436856083113
 21
153.1425632309600076
 31
0.0
210
0.0
220
1.0
230
0.0
  0
LINE
  5
238D
  8
0
  6
CONTINUOUS
 62
     3
 10
-323.939043685608226
 20
152.1425632309600076
 30
0.0
 11
-208.4390436856083113
 21
152.1425632309600076
 31
0.0
210
0.0
220
1.0
230
0.0
  0
LINE
  5
238E
  8
0
  6
CONTINUOUS
 62
     3
 10
-325.2344919527986917
 20
149.8987810136090957
 30
0.0
 11
-207.1435954184177888
 21
149.8987810136090957
 31
0.0
210
0.0
220
1.0
230
0.0
  0
LINE
  5
238F
  8
0
  6
CONTINUOUS
 62
     3
 10
-326.1907097354480243
 20
149.6425632309600076
 30
0.0
 11
-206.1873776357687973
 21
149.6425632309600076
 31
0.0
210
0.0
220
1.0
230
0.0
  0
LINE
  5
2390
  8
0
  6
CONTINUOUS
 62
     3
 10
-325.934491952798794
 20
148.6863454483109024
 30
0.0
 11
-206.4435954184179138
 21
148.6863454483109024
 31
0.0
210
0.0
220
1.0
230
0.0
  0
LINE
  5
2391
  8
0
  6
CONTINUOUS
 62
     3
 10
-326.939043685608226
 20
146.946410808253404
 30
0.0
 11
-205.4390436856081976
 21
146.946410808253404
 31
0.0
210
0.0
220
1.0
230
0.0
  0
LINE
  5
2392
  8
0
  6
CONTINUOUS
 62
     3
 10
-326.939043685608226
 20
144.9425632309599905
 30
0.0
 11
-205.4390436856081976
 21
144.9425632309599905
 31
0.0
210
0.0
220
1.0
230
0.0
  0
LINE
  5
2393
  8
0
  6
CONTINUOUS
 62
     3
 10
-327.939043685608226
 20
143.9425632309599905
 30
0.0
 11
-204.4390436856083113
 21
143.9425632309599905
 31
0.0
210
0.0
220
1.0
230
0.0
  0
LINE
  5
2394
  8
0
  6
CONTINUOUS
 62
     3
 10
-326.939043685608226
 20
142.9425632309599905
 30
0.0
 11
-205.4390436856081976
 21
142.9425632309599905
 31
0.0
210
0.0
220
1.0
230
0.0
  0
LINE
  5
2395
  8
0
  6
CONTINUOUS
 62
     3
 10
-326.939043685608226
 20
140.8925632309600076
 30
0.0
 11
-205.4390436856083113
 21
140.8925632309600076
 31
0.0
210
0.0
220
1.0
230
0.0
  0
LINE
  5
2396
  8
0
  6
CONTINUOUS
 62
     3
 10
-327.939043685608226
 20
137.1425632309600076
 30
0.0
 11
-204.4390436856083113
 21
137.1425632309600076
 31
0.0
210
0.0
220
1.0
230
0.0
  0
ARC
  5
2397
  8
0
  6
CONTINUOUS
 62
     3
 10
325.5646437474945856
 20
156.1425632309600076
 30
0.0
 40
2.0000000000000671
210
0.0
220
0.0
230
-1.0
 50
15.0000000000015294
 51
90.0
  0
ARC
  5
2398
  8
0
  6
CONTINUOUS
 62
     3
 10
206.8134436237218949
 20
156.1425632309598939
 30
0.0
 40
2.0000000000000839
210
0.0
220
0.0
230
-1.0
 50
90.00000000000081
 51
164.9999999999967031
  0
LINE
  5
2399
  8
0
  6
CONTINUOUS
 62
     3
 10
-204.8815919711437061
 20
156.6602013211650899
 30
0.0
 11
-203.9390436856083113
 21
153.1425632309600076
 31
0.0
210
0.0
220
1.0
230
0.0
  0
LINE
  5
239A
  8
0
  6
CONTINUOUS
 62
     3
 10
-327.4964954000730017
 20
156.6602013211650899
 30
0.0
 11
-328.439043685608226
 21
153.1425632309600076
 31
0.0
210
0.0
220
1.0
230
0.0
  0
LINE
  5
239B
  8
0
  6
CONTINUOUS
 62
     3
 10
-208.4390436856083113
 20
153.1425632309600076
 30
0.0
 11
-208.4390436856083113
 21
152.1425632309600076
 31
0.0
210
0.0
220
1.0
230
0.0
  0
LINE
  5
239C
  8
0
  6
CONTINUOUS
 62
     3
 10
-323.939043685608226
 20
153.1425632309600076
 30
0.0
 11
-323.939043685608226
 21
152.1425632309600076
 31
0.0
210
0.0
220
1.0
230
0.0
  0
LINE
  5
239D
  8
0
  6
CONTINUOUS
 62
     3
 10
-208.4390436856083113
 20
152.1425632309600076
 30
0.0
 11
-207.1435954184177888
 21
149.8987810136090957
 31
0.0
210
0.0
220
1.0
230
0.0
  0
LINE
  5
239E
  8
0
  6
CONTINUOUS
 62
     3
 10
-323.939043685608226
 20
152.1425632309600076
 30
0.0
 11
-325.2344919527988054
 21
149.8987810136090957
 31
0.0
210
0.0
220
1.0
230
0.0
  0
LINE
  5
239F
  8
0
  6
CONTINUOUS
 62
     3
 10
-207.1435954184177888
 20
149.8987810136090957
 30
0.0
 11
-206.1873776357687973
 21
149.6425632309600076
 31
0.0
210
0.0
220
1.0
230
0.0
  0
LINE
  5
23A0
  8
0
  6
CONTINUOUS
 62
     3
 10
-325.2344919527988054
 20
149.8987810136090957
 30
0.0
 11
-326.1907097354480243
 21
149.6425632309600076
 31
0.0
210
0.0
220
1.0
230
0.0
  0
LINE
  5
23A1
  8
0
  6
CONTINUOUS
 62
     3
 10
-325.934491952798794
 20
148.6863454483109024
 30
0.0
 11
-326.1907097354480243
 21
149.6425632309600076
 31
0.0
210
0.0
220
1.0
230
0.0
  0
LINE
  5
23A2
  8
0
  6
CONTINUOUS
 62
     3
 10
-206.4435954184179138
 20
148.6863454483109024
 30
0.0
 11
-206.1873776357687973
 21
149.6425632309600076
 31
0.0
210
0.0
220
1.0
230
0.0
  0
LINE
  5
23A3
  8
0
  6
CONTINUOUS
 62
     3
 10
-206.4435954184179138
 20
148.6863454483109024
 30
0.0
 11
-205.4390436856083113
 21
146.946410808253404
 31
0.0
210
0.0
220
1.0
230
0.0
  0
LINE
  5
23A4
  8
0
  6
CONTINUOUS
 62
     3
 10
-325.934491952798794
 20
148.6863454483109024
 30
0.0
 11
-326.9390436856083966
 21
146.946410808253404
 31
0.0
210
0.0
220
1.0
230
0.0
  0
LINE
  5
23A5
  8
0
  6
CONTINUOUS
 62
     3
 10
-205.4390436856083113
 20
146.946410808253404
 30
0.0
 11
-205.4390436856083113
 21
144.9425632309599905
 31
0.0
210
0.0
220
1.0
230
0.0
  0
LINE
  5
23A6
  8
0
  6
CONTINUOUS
 62
     3
 10
-326.9390436856083966
 20
146.946410808253404
 30
0.0
 11
-326.9390436856083966
 21
144.9425632309599905
 31
0.0
210
0.0
220
1.0
230
0.0
  0
LINE
  5
23A7
  8
0
  6
CONTINUOUS
 62
     3
 10
-205.4390436856083113
 20
144.9425632309599905
 30
0.0
 11
-204.4390436856083113
 21
143.9425632309599905
 31
0.0
210
0.0
220
1.0
230
0.0
  0
LINE
  5
23A8
  8
0
  6
CONTINUOUS
 62
     3
 10
-326.939043685608226
 20
144.9425632309599905
 30
0.0
 11
-327.9390436856083966
 21
143.9425632309599905
 31
0.0
210
0.0
220
1.0
230
0.0
  0
LINE
  5
23A9
  8
0
  6
CONTINUOUS
 62
     3
 10
-326.939043685608226
 20
142.9425632309599905
 30
0.0
 11
-327.9390436856083966
 21
143.9425632309599905
 31
0.0
210
0.0
220
1.0
230
0.0
  0
LINE
  5
23AA
  8
0
  6
CONTINUOUS
 62
     3
 10
-205.4390436856083113
 20
142.9425632309599905
 30
0.0
 11
-204.4390436856083113
 21
143.9425632309599905
 31
0.0
210
0.0
220
1.0
230
0.0
  0
LINE
  5
23AB
  8
0
  6
CONTINUOUS
 62
     3
 10
-205.4390436856083113
 20
142.9425632309599905
 30
0.0
 11
-205.4390436856083113
 21
140.8925632309600076
 31
0.0
210
0.0
220
1.0
230
0.0
  0
LINE
  5
23AC
  8
0
  6
CONTINUOUS
 62
     3
 10
-326.939043685608226
 20
142.9425632309599905
 30
0.0
 11
-326.939043685608226
 21
140.8925632309600076
 31
0.0
210
0.0
220
1.0
230
0.0
  0
LINE
  5
23AD
  8
0
  6
CONTINUOUS
 62
     3
 10
-205.4390436856083113
 20
140.8925632309600076
 30
0.0
 11
-204.4390436856083113
 21
137.1425632309600076
 31
0.0
210
0.0
220
1.0
230
0.0
  0
LINE
  5
23AE
  8
0
  6
CONTINUOUS
 62
     3
 10
-326.939043685608226
 20
140.8925632309600076
 30
0.0
 11
-327.9390436856083966
 21
137.1425632309600076
 31
0.0
210
0.0
220
1.0
230
0.0
  0
LINE
  5
23AF
  8
0
  6
VERDECKT
 62
     1
 10
-314.1687097112293259
 20
-99.1494782498050427
 30
0.0
 11
-218.2093776599874104
 21
-99.1494782498050427
 31
0.0
210
0.0
220
1.0
230
0.0
  0
LINE
  5
23B0
  8
0
  6
VERDECKT
 62
     1
 10
-323.9941834788958772
 20
79.8851948277845736
 30
0.0
 11
-208.3839038923208875
 21
79.8851948277845736
 31
0.0
210
0.0
220
1.0
230
0.0
  0
ARC
  5
23B1
  8
0
  6
VERDECKT
 62
     1
 10
305.1890436856127735
 20
-92.4154322291301042
 30
0.0
 40
9.9999999999956781
210
0.0
220
0.0
230
-1.0
 50
350.1419712024912769
 51
0.0000000000021246
  0
ARC
  5
23B2
  8
0
  6
VERDECKT
 62
     1
 10
227.1890436856116935
 20
-92.4154322291294505
 30
0.0
 40
10.0000000000032596
210
0.0
220
0.0
230
-1.0
 50
180.0000000000015916
 51
189.8580287975048861
  0
LINE
  5
23B3
  8
0
  6
VERDECKT
 62
     1
 10
-314.1687097112293827
 20
-99.1494782498050427
 30
0.0
 11
-315.0413937459475733
 21
-94.1275064940289354
 31
0.0
210
0.0
220
1.0
230
0.0
  0
LINE
  5
23B4
  8
0
  6
VERDECKT
 62
     1
 10
-218.2093776599872115
 20
-99.1494782498050427
 30
0.0
 11
-217.3366936252687935
 21
-94.1275064940289354
 31
0.0
210
0.0
220
1.0
230
0.0
  0
LINE
  5
23B5
  8
0
  6
VERDECKT
 62
     1
 10
-217.1890436856083966
 20
0.0
 30
0.0
 11
-217.1890436856083966
 21
-92.4154322291297774
 31
0.0
210
0.0
220
1.0
230
0.0
  0
LINE
  5
23B6
  8
0
  6
VERDECKT
 62
     1
 10
-315.1890436856083966
 20
0.0
 30
0.0
 11
-315.1890436856083966
 21
-92.4154322291297348
 31
0.0
210
0.0
220
1.0
230
0.0
  0
LINE
  5
23B7
  8
0
  6
VERDECKT
 62
     1
 10
-218.2093776599874104
 20
-99.1494782498050284
 30
0.0
 11
-216.2389076479194898
 21
-99.491893102784843
 31
0.0
210
0.0
220
1.0
230
0.0
  0
LINE
  5
23B8
  8
0
  6
VERDECKT
 62
     1
 10
-314.1687097112293827
 20
-99.1494782498050427
 30
0.0
 11
-316.1391797232972749
 21
-99.4918931027848856
 31
0.0
210
0.0
220
1.0
230
0.0
  0
ARC
  5
23B9
  8
0
  6
VERDECKT
 62
     1
 10
325.1890436856085103
 20
-0.0000000000000382
 30
0.0
 40
10.0000000000001101
210
0.0
220
0.0
230
-1.0
 50
130.7057068310431873
 51
179.9999999999996874
  0
ARC
  5
23BA
  8
0
  6
VERDECKT
 62
     1
 10
207.1890436856083113
 20
-0.0000000000000551
 30
0.0
 40
10.0000000000000799
210
0.0
220
0.0
230
-1.0
 50
0.0000000000003308
 51
49.2942931689568198
  0
ARC
  5
23BB
  8
0
  6
VERDECKT
 62
     1
 10
310.189043685606805
 20
17.43559577416341
 30
0.0
 40
13.0000000000015206
210
0.0
220
0.0
230
-1.0
 50
310.7057068310435284
 51
359.9999999999964757
  0
ARC
  5
23BC
  8
0
  6
VERDECKT
 62
     1
 10
222.1890436856095903
 20
17.4355957741632714
 30
0.0
 40
13.0000000000012506
210
0.0
220
0.0
230
-1.0
 50
180.0000000000027001
 51
229.2942931689572106
  0
LINE
  5
23BD
  8
0
  6
VERDECKT
 62
     1
 10
-209.1890436856083966
 20
35.1468172947713171
 30
0.0
 11
-209.1890436856083966
 21
17.4355957741626284
 31
0.0
210
0.0
220
1.0
230
0.0
  0
LINE
  5
23BE
  8
0
  6
VERDECKT
 62
     1
 10
-323.1890436856083966
 20
35.1468172947713171
 30
0.0
 11
-323.1890436856083966
 21
17.4355957741626284
 31
0.0
210
0.0
220
1.0
230
0.0
  0
ARC
  5
23BF
  8
0
  6
VERDECKT
 62
     1
 10
337.189043685608226
 20
35.1468172947713882
 30
0.0
 40
14.0
210
0.0
220
0.0
230
-1.0
 50
156.768870662395102
 51
180.000000000000199
  0
ARC
  5
23C0
  8
0
  6
VERDECKT
 62
     1
 10
195.1890436856083966
 20
35.1468172947713882
 30
0.0
 40
13.9999999999999094
210
0.0
220
0.0
230
-1.0
 50
359.9999999999997158
 51
23.2311293376048589
  0
ARC
  5
23C1
  8
0
  6
VERDECKT
 62
     1
 10
303.189043685615502
 20
49.7411068972136903
 30
0.0
 40
22.999909310692491
210
0.0
220
0.0
230
-1.0
 50
336.7688706623939083
 51
0.0000000000033078
  0
ARC
  5
23C2
  8
0
  6
VERDECKT
 62
     1
 10
229.1890436856025133
 20
49.7411068972139603
 30
0.0
 40
22.9999093106938197
210
0.0
220
0.0
230
-1.0
 50
179.9999999999972999
 51
203.2311293376054095
  0
LINE
  5
23C3
  8
0
  6
VERDECKT
 62
     1
 10
-326.1889529963079895
 20
49.741106897215019
 30
0.0
 11
-326.189043685608226
 21
70.079780089908013
 31
0.0
210
0.0
220
1.0
230
0.0
  0
LINE
  5
23C4
  8
0
  6
VERDECKT
 62
     1
 10
-206.18913437490869
 20
49.741106897215019
 30
0.0
 11
-206.1890436856083113
 21
70.079780089908013
 31
0.0
210
0.0
220
1.0
230
0.0
  0
ARC
  5
23C5
  8
0
  6
VERDECKT
 62
     1
 10
303.1895018398600996
 20
70.0798826439114038
 30
0.0
 40
22.9995418459768892
210
0.0
220
0.0
230
-1.0
 50
359.9997445204950282
 51
25.2346499720573583
  0
ARC
  5
23C6
  8
0
  6
VERDECKT
 62
     1
 10
229.1885855313560967
 20
70.0798826439114464
 30
0.0
 40
22.9995418459763385
210
0.0
220
0.0
230
-1.0
 50
154.7653500279421053
 51
180.0002554795050003
  0
LINE
  5
23C7
  8
0
  6
VERDECKT
 62
     1
 10
-323.9941834788958772
 20
79.8851948277845452
 30
0.0
 11
-325.9101792206118944
 21
80.5081068972149865
 31
0.0
210
0.0
220
1.0
230
0.0
  0
LINE
  5
23C8
  8
0
  6
VERDECKT
 62
     1
 10
-208.3839038923208875
 20
79.8851948277845452
 30
0.0
 11
-206.4679081506048135
 21
80.5081068972149865
 31
0.0
210
0.0
220
1.0
230
0.0
  0
LINE
  5
23C9
  8
0
  6
VERDECKT
 62
     1
 10
-324.5738130529883279
 20
141.1425632309600076
 30
0.0
 11
-207.8042743182282095
 21
141.1425632309600076
 31
0.0
210
0.0
220
1.0
230
0.0
  0
LINE
  5
23CA
  8
0
  6
VERDECKT
 62
     1
 10
-316.439043685608226
 20
139.1425632309600076
 30
0.0
 11
-215.9390436856083113
 21
139.1425632309600076
 31
0.0
210
0.0
220
1.0
230
0.0
  0
LINE
  5
23CB
  8
0
  6
VERDECKT
 62
     1
 10
-207.8042743182282948
 20
141.1425632309600076
 30
0.0
 11
-205.9390436856083113
 21
137.1425632309600076
 31
0.0
210
0.0
220
1.0
230
0.0
  0
LINE
  5
23CC
  8
0
  6
VERDECKT
 62
     1
 10
-324.5738130529883847
 20
141.1425632309600076
 30
0.0
 11
-326.439043685608226
 21
137.1425632309600076
 31
0.0
210
0.0
220
1.0
230
0.0
  0
ARC
  5
23CD
  8
0
  6
VERDECKT
 62
     1
 10
318.4390436856085103
 20
142.1425632309598086
 30
0.0
 40
4.9999999999999432
210
0.0
220
0.0
230
-1.0
 50
270.0
 51
348.4630409671867142
  0
ARC
  5
23CE
  8
0
  6
VERDECKT
 62
     1
 10
213.9390436856081976
 20
142.1425632309600076
 30
0.0
 40
4.9999999999999822
210
0.0
220
0.0
230
-1.0
 50
191.5369590328151048
 51
270.0000000000009095
  0
LINE
  5
23CF
  8
0
  6
VERDECKT
 62
     1
 10
-215.9390436856083113
 20
139.1425632309600076
 30
0.0
 11
-215.9390436856083113
 21
137.1425632309600076
 31
0.0
210
0.0
220
1.0
230
0.0
  0
LINE
  5
23D0
  8
0
  6
VERDECKT
 62
     1
 10
-316.439043685608226
 20
139.1425632309600076
 30
0.0
 11
-316.439043685608226
 21
137.1425632309600076
 31
0.0
210
0.0
220
1.0
230
0.0
  0
ARC
  5
23D1
  8
0
  6
VERDECKT
 62
     1
 10
316.4390436856083966
 20
144.1425632309598086
 30
0.0
 40
4.9999999999999432
210
0.0
220
0.0
230
-1.0
 50
270.0
 51
0.0000000000013104
  0
ARC
  5
23D2
  8
0
  6
VERDECKT
 62
     1
 10
215.9390436856083113
 20
144.1425632309600076
 30
0.0
 40
4.9999999999999698
210
0.0
220
0.0
230
-1.0
 50
180.0
 51
270.0000000000002842
  0
LINE
  5
23D3
  8
0
  6
VERDECKT
 62
     1
 10
-210.9390436856083966
 20
153.1425632309600076
 30
0.0
 11
-210.9390436856083966
 21
144.1425632309600076
 31
0.0
210
0.0
220
1.0
230
0.0
  0
LINE
  5
23D4
  8
0
  6
VERDECKT
 62
     1
 10
-321.4390436856083966
 20
153.1425632309600076
 30
0.0
 11
-321.4390436856083966
 21
144.1425632309600076
 31
0.0
210
0.0
220
1.0
230
0.0
  0
LINE
  5
23D5
  8
0
  6
VERDECKT
 62
     1
 10
-321.4390436856083966
 20
153.1425632309600076
 30
0.0
 11
-322.3815919711436777
 21
156.6602013211650899
 31
0.0
210
0.0
220
1.0
230
0.0
  0
LINE
  5
23D6
  8
0
  6
VERDECKT
 62
     1
 10
-210.9390436856083966
 20
153.1425632309600076
 30
0.0
 11
-209.9964954000728881
 21
156.6602013211650899
 31
0.0
210
0.0
220
1.0
230
0.0
  0
ARC
  5
23D7
  8
0
  6
VERDECKT
 62
     1
 10
324.3134436237219234
 20
156.1425632309600076
 30
0.0
 40
2.0000000000000271
210
0.0
220
0.0
230
-1.0
 50
90.0
 51
164.9999999999988063
  0
ARC
  5
23D8
  8
0
  6
VERDECKT
 62
     1
 10
208.0646437474948129
 20
156.1425632309600076
 30
0.0
 40
1.999999999999944
210
0.0
220
0.0
230
-1.0
 50
15.0000000000007994
 51
90.00000000000081
  0
ENDBLK
  5
23DA
  8
0
  0
BLOCK
  8
0
  2
A$C19F766E8
 70
     0
 10
0.0
 20
0.0
 30
0.0
  3
A$C19F766E8
  1

  0
CIRCLE
  5
23DE
  8
0
  6
CONTINUOUS
 62
     3
 10
-266.1890436856082829
 20
189.6155683806194077
 30
0.0
 40
47.9796660256210004
  0
CIRCLE
  5
23DF
  8
0
  6
CONTINUOUS
 62
     3
 10
-266.1890436856082829
 20
189.6155683806194077
 30
0.0
 40
49.0
  0
CIRCLE
  5
23E0
  8
0
  6
CONTINUOUS
 62
     3
 10
-266.1890436856082829
 20
189.6155683806194077
 30
0.0
 40
62.25
  0
CIRCLE
  5
23E1
  8
0
  6
CONTINUOUS
 62
     3
 10
-266.1890436856082829
 20
189.6155683806194077
 30
0.0
 40
50.25
  0
CIRCLE
  5
23E2
  8
0
  6
CONTINUOUS
 62
     3
 10
-266.1890436856082829
 20
189.6155683806194077
 30
0.0
 40
55.25
  0
CIRCLE
  5
23E3
  8
0
  6
VERDECKT
 62
     1
 10
-266.1890436856082829
 20
189.6155683806194077
 30
0.0
 40
51.0
  0
CIRCLE
  5
23E4
  8
0
  6
VERDECKT
 62
     1
 10
-266.1890436856082829
 20
189.6155683806194077
 30
0.0
 40
49.9501360376888925
  0
CIRCLE
  5
23E5
  8
0
  6
VERDECKT
 62
     1
 10
-266.1890436856082829
 20
189.6155683806194077
 30
0.0
 40
59.0
  0
CIRCLE
  5
23E6
  8
0
  6
VERDECKT
 62
     1
 10
-266.1890436856082829
 20
189.6155683806194077
 30
0.0
 40
57.0
  0
CIRCLE
  5
23E7
  8
0
  6
VERDECKT
 62
     1
 10
-266.1890436856082829
 20
189.6155683806194077
 30
0.0
 40
57.8051397932874522
  0
CIRCLE
  5
23E8
  8
0
  6
VERDECKT
 62
     1
 10
-266.1890436856082829
 20
189.6155683806194077
 30
0.0
 40
59.7211355350035475
  0
CIRCLE
  5
23E9
  8
0
  6
VERDECKT
 62
     1
 10
-266.1890436856082829
 20
189.6155683806194077
 30
0.0
 40
62.0014044429266278
  0
CIRCLE
  5
23EA
  8
0
  6
VERDECKT
 62
     1
 10
-266.1890436856082829
 20
189.6155683806194077
 30
0.0
 40
60.0000000002286313
  0
CIRCLE
  5
23EB
  8
0
  6
VERDECKT
 62
     1
 10
-266.1890436856082829
 20
189.6155683806194077
 30
0.0
 40
57.75
  0
CIRCLE
  5
23EC
  8
0
  6
VERDECKT
 62
     1
 10
-266.1890436856082829
 20
189.6155683806194077
 30
0.0
 40
59.0454482671905083
  0
CIRCLE
  5
23ED
  8
0
  6
VERDECKT
 62
     1
 10
-266.1890436856082829
 20
189.6155683806194077
 30
0.0
 40
60.0016660498395566
  0
CIRCLE
  5
23EE
  8
0
  6
VERDECKT
 62
     1
 10
-266.1890436856082829
 20
189.6155683806194077
 30
0.0
 40
59.7454482671904472
  0
CIRCLE
  5
23EF
  8
0
  6
VERDECKT
 62
     1
 10
-266.1890436856082829
 20
189.6155683806194077
 30
0.0
 40
60.7500000000000497
  0
CIRCLE
  5
23F0
  8
0
  6
VERDECKT
 62
     1
 10
-266.1890436856082829
 20
189.6155683806194077
 30
0.0
 40
61.75
  0
CIRCLE
  5
23F1
  8
0
  6
VERDECKT
 62
     1
 10
-266.1890436856082829
 20
189.6155683806194077
 30
0.0
 40
60.25
  0
CIRCLE
  5
23F2
  8
0
  6
VERDECKT
 62
     1
 10
-266.1890436856082829
 20
189.6155683806194077
 30
0.0
 40
58.3847693673800379
  0
CIRCLE
  5
23F3
  8
0
  6
VERDECKT
 62
     1
 10
-266.1890436856082829
 20
189.6155683806194077
 30
0.0
 40
57.1489794855664286
  0
ENDBLK
  5
23F5
  8
0
  0
ENDSEC
  0
SECTION
  2
ENTITIES
  0
TEXT
  5
8F
  8
VOLL
 10
78.076754716981128
 20
31.025947764705851
 30
0.0
 40
1.8
  1

  7
GREEKS
  0
INSERT
  5
CAF
  8
ADSK_ASSOC_ENTITY_BACKUPS
  2
*U2
 10
0.0
 20
0.0
 30
0.0
  0
INSERT
  5
250C
  8
VOLL
  2
A$C7CA140E0
 10
328.4390457556789897
 20
291.8565165986937018
 30
0.0
  0
INSERT
  5
250D
  8
VOLL
  2
A$C19F766E8
 10
328.4390457556789897
 20
-127.3655690901751996
 30
0.0
  0
VIEWPORT
  5
B4D
 67
     1
  8
0
 10
101.1100756679505963
 20
162.9174678860638039
 30
0.0
 40
1757.9264587899269827
 41
761.2993517532909209
 68
     1
 69
     1
1001
ACAD
1000
MVIEW
1002
{
1070
    16
1010
0.0
1020
0.0
1030
0.0
1010
0.0
1020
0.0
1030
1.0
1040
0.0
1040
761.2993517532909209
1040
101.1100756679505963
1040
162.9174678860638039
1040
50.0
1040
0.0
1040
0.0
1070
     0
1070
  1500
1070
     1
1070
     1
1070
     0
1070
     0
1070
     0
1070
     0
1040
0.0
1040
0.0
1040
0.0
1040
10.0
1040
10.0
1040
10.0
1040
10.0
1070
     0
1002
{
1002
}
1002
}
1001
GENIUS_GENODEF_13
1002
{
1000
HIER
1070
     0
1002
}
1002
{
1000
MANEDIT
1070
     0
1002
}
1002
{
1000
NOSEL
1070
     0
1002
}
1002
{
1000
BEHIND
1070
     0
1002
}
1002
{
1000
OTHER
1070
     0
1002
}
1002
{
1000
REACTOR
1002
}
1001
GENIUS_GENOBJ-N-SDF_13
1002
{
1000
OWNER
1000
GEN
1002
}
1001
GENIUS_GENSCREG_15
1000
PF
1040
1.0
1000
DF
1040
1.0
1000
MIN
1011
-187.9571529619740033
1021
0.0
1031
0.0
1021
-65.0917376899556643
1031
0.0
1000
MAX
1011
631.976624170531295
1021
0.0
1031
0.0
1021
307.6502560034742828
1031
0.0
1000
FLAGS
1070
     4
  0
TEXT
  5
1D6C
 67
     1
  8
VOLL
 10
309.1912723756681203
 20
35.8233568231252093
 30
0.0
 40
1.8
  1

  7
GREEKS
  0
ENDSEC
  0
EOF
