  0
SECTION
  2
HEADER
  9
$ACADVER
  1
AC1009
  9
$INSBASE
 10
0.0
 20
0.0
 30
0.0
  9
$EXTMIN
 10
-1.6472821576605829
 20
-0.0090630292066862
 30
-0.013195844287111
  9
$EXTMAX
 10
88.3432159971453075
 20
278.6776892688098997
 30
0.0080648048003695
  9
$LIMMIN
 10
0.0
 20
0.0
  9
$LIMMAX
 10
210.0
 20
297.0
  9
$ORTHOMODE
 70
     1
  9
$REGENMODE
 70
     1
  9
$FILLMODE
 70
     1
  9
$QTEXTMODE
 70
     0
  9
$MIRRTEXT
 70
     1
  9
$DRAGMODE
 70
     2
  9
$LTSCALE
 40
10.0
  9
$OSMODE
 70
    39
  9
$ATTMODE
 70
     1
  9
$TEXTSIZE
 40
3.5
  9
$TRACEWID
 40
0.5
  9
$TEXTSTYLE
  7
STANDARD
  9
$CLAYER
  8
DEFPOINTS
  9
$CELTYPE
  6
BYLAYER
  9
$CECOLOR
 62
   256
  9
$DIMSCALE
 40
1.0
  9
$DIMASZ
 40
3.5
  9
$DIMEXO
 40
1.0
  9
$DIMDLI
 40
7.0
  9
$DIMRND
 40
0.0
  9
$DIMDLE
 40
0.0
  9
$DIMEXE
 40
1.0
  9
$DIMTP
 40
0.0
  9
$DIMTM
 40
0.0
  9
$DIMTXT
 40
3.5
  9
$DIMCEN
 40
1.5
  9
$DIMTSZ
 40
0.0
  9
$DIMTOL
 70
     0
  9
$DIMLIM
 70
     0
  9
$DIMTIH
 70
     0
  9
$DIMTOH
 70
     0
  9
$DIMSE1
 70
     0
  9
$DIMSE2
 70
     0
  9
$DIMTAD
 70
     1
  9
$DIMZIN
 70
     8
  9
$DIMBLK
  1

  9
$DIMASO
 70
     1
  9
$DIMSHO
 70
     0
  9
$DIMPOST
  1

  9
$DIMAPOST
  1

  9
$DIMALT
 70
     0
  9
$DIMALTD
 70
     2
  9
$DIMALTF
 40
25.3999999999999986
  9
$DIMLFAC
 40
1.0
  9
$DIMTOFL
 70
     1
  9
$DIMTVP
 40
0.0
  9
$DIMTIX
 70
     0
  9
$DIMSOXD
 70
     0
  9
$DIMSAH
 70
     0
  9
$DIMBLK1
  1

  9
$DIMBLK2
  1

  9
$DIMSTYLE
  2
STANDARD
  9
$DIMCLRD
 70
     0
  9
$DIMCLRE
 70
     0
  9
$DIMCLRT
 70
     1
  9
$DIMTFAC
 40
0.5142857142857143
  9
$DIMGAP
 40
1.5
  9
$LUNITS
 70
     2
  9
$LUPREC
 70
     2
  9
$SKETCHINC
 40
1.0
  9
$FILLETRAD
 40
0.0
  9
$AUNITS
 70
     0
  9
$AUPREC
 70
     0
  9
$MENU
  1
ACAD
  9
$ELEVATION
 40
0.0
  9
$PELEVATION
 40
0.0
  9
$THICKNESS
 40
0.0
  9
$LIMCHECK
 70
     0
  9
$BLIPMODE
 70
     0
  9
$CHAMFERA
 40
0.0
  9
$CHAMFERB
 40
0.0
  9
$SKPOLY
 70
     0
  9
$TDCREATE
 40
2455397.8646990740671754
  9
$TDUPDATE
 40
2458418.3489699079655111
  9
$TDINDWG
 40
0.1244398264
  9
$TDUSRTIMER
 40
0.1244398264
  9
$USRTIMER
 70
     1
  9
$ANGBASE
 50
0.0
  9
$ANGDIR
 70
     0
  9
$PDMODE
 70
     0
  9
$PDSIZE
 40
0.0
  9
$PLINEWID
 40
0.0
  9
$COORDS
 70
     1
  9
$SPLFRAME
 70
     0
  9
$SPLINETYPE
 70
     6
  9
$SPLINESEGS
 70
     8
  9
$ATTDIA
 70
     1
  9
$ATTREQ
 70
     1
  9
$HANDLING
 70
     1
  9
$HANDSEED
  5
D57
  9
$SURFTAB1
 70
     6
  9
$SURFTAB2
 70
     6
  9
$SURFTYPE
 70
     6
  9
$SURFU
 70
     6
  9
$SURFV
 70
     6
  9
$UCSNAME
  2

  9
$UCSORG
 10
0.0
 20
0.0
 30
0.0
  9
$UCSXDIR
 10
1.0
 20
0.0
 30
0.0
  9
$UCSYDIR
 10
0.0
 20
1.0
 30
0.0
  9
$PUCSNAME
  2

  9
$PUCSORG
 10
0.0
 20
0.0
 30
0.0
  9
$PUCSXDIR
 10
1.0
 20
0.0
 30
0.0
  9
$PUCSYDIR
 10
0.0
 20
1.0
 30
0.0
  9
$USERI1
 70
     0
  9
$USERI2
 70
     0
  9
$USERI3
 70
     0
  9
$USERI4
 70
     0
  9
$USERI5
 70
     0
  9
$USERR1
 40
0.0
  9
$USERR2
 40
0.0
  9
$USERR3
 40
0.0
  9
$USERR4
 40
0.0
  9
$USERR5
 40
0.0
  9
$WORLDVIEW
 70
     1
  9
$SHADEDGE
 70
     3
  9
$SHADEDIF
 70
    70
  9
$TILEMODE
 70
     1
  9
$MAXACTVP
 70
    16
  9
$PLIMCHECK
 70
     0
  9
$PEXTMIN
 10
-0.2513670007010447
 20
-0.2435077936168071
 30
-0.0000000000000058
  9
$PEXTMAX
 10
16.4975271153977516
 20
23.3861060465367707
 30
0.0000000000000104
  9
$PLIMMIN
 10
-0.2500002402958907
 20
-0.2499999962453767
  9
$PLIMMAX
 10
10.7499995194082203
 20
8.2499997634587334
  9
$UNITMODE
 70
     0
  9
$VISRETAIN
 70
     0
  9
$PLINEGEN
 70
     0
  9
$PSLTSCALE
 70
     0
  0
ENDSEC
  0
SECTION
  2
TABLES
  0
TABLE
  2
VPORT
 70
     1
  0
VPORT
  2
*ACTIVE
 70
     0
 10
0.0
 20
0.0
 11
1.0
 21
1.0
 12
43.3479669197423902
 22
139.3343131198016067
 13
0.0
 23
0.0
 14
1.0
 24
1.0
 15
10.0
 25
10.0
 16
-0.0000000000000012
 26
0.0
 36
5.5852494427615733
 17
0.0
 27
0.0
 37
0.0
 40
280.9132776159767104
 41
2.0800000000000001
 42
50.0
 43
0.0
 44
0.0
 50
0.0
 51
0.0
 71
     0
 72
  1500
 73
     1
 74
     0
 75
     0
 76
     0
 77
     0
 78
     0
  0
ENDTAB
  0
TABLE
  2
LTYPE
 70
     3
  0
LTYPE
  2
CONTINUOUS
 70
     0
  3
Solid line
 72
    65
 73
     0
 40
0.0
  0
LTYPE
  2
AUSGEZOGEN
 70
     0
  3
Ausgezogene Linie
 72
    65
 73
     0
 40
0.0
  0
LTYPE
  2
VERDECKT
 70
     0
  3
Verdeckt __ __ __ __ __ __ __ __ __ __ __ __ __
 72
    65
 73
     2
 40
0.375
 49
0.25
 49
-0.125
  0
ENDTAB
  0
TABLE
  2
LAYER
 70
     3
  0
LAYER
  2
0
 70
     0
 62
     7
  6
CONTINUOUS
  0
LAYER
  2
DEFPOINTS
 70
     0
 62
     7
  6
AUSGEZOGEN
  0
LAYER
  2
VOLL
 70
     0
 62
     1
  6
CONTINUOUS
  0
ENDTAB
  0
TABLE
  2
STYLE
 70
     3
  0
STYLE
  2
STANDARD
 70
     0
 40
0.0
 41
0.8
 50
0.0
 71
     0
 42
3.5
  3
simplex.shx
  4

  0
STYLE
  2
ANNOTATIVE
 70
     0
 40
0.0
 41
1.0
 50
0.0
 71
     0
 42
0.2
  3
txt
  4

  0
STYLE
  2
GREEKS
 70
     0
 40
0.0
 41
0.8
 50
0.0
 71
     0
 42
2.5
  3
SIMPLEX.shx
  4

  0
ENDTAB
  0
TABLE
  2
VIEW
 70
     0
  0
ENDTAB
  0
TABLE
  2
UCS
 70
     0
  0
ENDTAB
  0
TABLE
  2
APPID
 70
     9
  0
APPID
  2
ACAD
 70
     0
  0
APPID
  2
ACADANNOTATIVE
 70
     0
  0
APPID
  2
ACAD_NAV_VCDISPLAY
 70
     0
  0
APPID
  2
ACAD_EXEMPT_FROM_CAD_STANDARDS
 70
     0
  0
APPID
  2
ACAECLAYERSTANDARD
 70
     0
  0
APPID
  2
ACCMTRANSPARENCY
 70
     0
  0
APPID
  2
ACAD_PSEXT
 70
     0
  0
APPID
  2
ACAD_MLEADERVER
 70
     0
  0
APPID
  2
ACAD_OBJECT_CHANGE_GUID
 70
     0
  0
ENDTAB
  0
TABLE
  2
DIMSTYLE
 70
     2
  0
DIMSTYLE
  2
STANDARD
 70
     0
  3

  4

  5

  6

  7

 40
1.0
 41
0.18
 42
0.0625
 43
0.38
 44
0.18
 45
0.0
 46
0.0
 47
0.0
 48
0.0
140
0.18
141
0.09
142
0.0
143
25.3999999999999986
144
1.0
145
0.0
146
1.0
147
0.09
 71
     0
 72
     0
 73
     1
 74
     1
 75
     0
 76
     0
 77
     0
 78
     0
170
     0
171
     2
172
     0
173
     0
174
     0
175
     0
176
     0
177
     0
178
     0
  0
DIMSTYLE
  2
ANNOTATIVE
 70
     0
  3

  4

  5

  6

  7

 40
1.0
 41
0.18
 42
0.0625
 43
0.38
 44
0.18
 45
0.0
 46
0.0
 47
0.0
 48
0.0
140
0.18
141
0.09
142
0.0
143
25.3999999999999986
144
1.0
145
0.0
146
1.0
147
0.09
 71
     0
 72
     0
 73
     1
 74
     1
 75
     0
 76
     0
 77
     0
 78
     0
170
     0
171
     2
172
     0
173
     0
174
     0
175
     0
176
     0
177
     0
178
     0
  0
ENDTAB
  0
ENDSEC
  0
SECTION
  2
BLOCKS
  0
BLOCK
  8
0
  2
$MODEL_SPACE
 70
     0
 10
0.0
 20
0.0
 30
0.0
  3
$MODEL_SPACE
  1

  0
ENDBLK
  5
CD0
  8
0
  0
BLOCK
 67
     1
  8
0
  2
$PAPER_SPACE
 70
     0
 10
0.0
 20
0.0
 30
0.0
  3
$PAPER_SPACE
  1

  0
ENDBLK
  5
CCC
 67
     1
  8
0
  0
BLOCK
  8
0
  2
A$C30EB4475
 70
     0
 10
0.0
 20
0.0
 30
0.0
  3
A$C30EB4475
  1

  0
LINE
  5
BD0
  8
0
  6
CONTINUOUS
 62
     3
 10
353.6352441008643268
 20
49.6112735825830882
 30
0.0
 11
435.1660387574145261
 21
49.6112735825830882
 31
0.0
210
0.0
220
1.0
230
0.0
  0
LINE
  5
BD1
  8
0
  6
CONTINUOUS
 62
     3
 10
357.9006414291395117
 20
-95.7448467827215666
 30
0.0
 11
430.900641429139398
 21
-95.7448467827215666
 31
0.0
210
0.0
220
1.0
230
0.0
  0
LINE
  5
BD2
  8
0
  6
CONTINUOUS
 62
     3
 10
358.7755280643988272
 20
-100.3887264174169047
 30
0.0
 11
430.0257547938800826
 21
-100.3887264174169047
 31
0.0
210
0.0
220
1.0
230
0.0
  0
ARC
  5
BD3
  8
0
  6
CONTINUOUS
 62
     3
 10
-376.3006414291464239
 20
39.0623511754627231
 30
0.0
 40
25.0000000000068212
210
0.0
220
0.0
230
-1.0
 50
0.0
 51
24.9581963123084805
  0
ARC
  5
BD4
  8
0
  6
CONTINUOUS
 62
     3
 10
-412.5006414291324859
 20
39.0623511754627231
 30
0.0
 40
25.0000000000068212
210
0.0
220
0.0
230
-1.0
 50
155.0418036876874055
 51
179.9999999999959073
  0
LINE
  5
BD5
  8
0
  6
CONTINUOUS
 62
     3
 10
437.5006414291394208
 20
39.062351175464471
 30
0.0
 11
437.5006414291394208
 21
30.0495536307649616
 31
0.0
210
0.0
220
1.0
230
0.0
  0
LINE
  5
BD6
  8
0
  6
CONTINUOUS
 62
     3
 10
351.3006414291396027
 20
39.062351175464471
 30
0.0
 11
351.3006414291396027
 21
30.0495536307649616
 31
0.0
210
0.0
220
1.0
230
0.0
  0
ARC
  5
BD7
  8
0
  6
CONTINUOUS
 62
     3
 10
-376.3006414291377837
 20
29.9812735825827801
 30
0.0
 40
25.0000932431240592
210
0.0
220
0.0
230
-1.0
 50
338.8168456069624881
 51
0.1564859543319177
  0
ARC
  5
BD8
  8
0
  6
CONTINUOUS
 62
     3
 10
-412.5006414291410124
 20
29.9812735825827801
 30
0.0
 40
25.0000932431240592
210
0.0
220
0.0
230
-1.0
 50
179.843514045668087
 51
201.1831543930375119
  0
ARC
  5
BD9
  8
0
  6
CONTINUOUS
 62
     3
 10
-341.8006414291427859
 20
16.6112735825838094
 30
0.0
 40
11.9999999999967599
210
0.0
220
0.0
230
-1.0
 50
158.8168456069647902
 51
180.0000000000034106
  0
ARC
  5
BDA
  8
0
  6
CONTINUOUS
 62
     3
 10
-447.0006414291360102
 20
16.6112735825838094
 30
0.0
 40
11.9999999999967599
210
0.0
220
0.0
230
-1.0
 50
359.9999999999964757
 51
21.1831543930351707
  0
LINE
  5
BDB
  8
0
  6
CONTINUOUS
 62
     3
 10
435.0006414291393071
 20
16.6112735825830917
 30
0.0
 11
435.0006414291393071
 21
0.0000000000001421
 31
0.0
210
0.0
220
1.0
230
0.0
  0
LINE
  5
BDC
  8
0
  6
CONTINUOUS
 62
     3
 10
353.8006414291396027
 20
16.6112735825830917
 30
0.0
 11
353.8006414291396027
 21
0.0000000000001421
 31
0.0
210
0.0
220
1.0
230
0.0
  0
ARC
  5
BDD
  8
0
  6
CONTINUOUS
 62
     3
 10
-365.8006414291397732
 20
0.0000000000002105
 30
0.0
 40
12.0000000000002807
210
0.0
220
0.0
230
-1.0
 50
322.655255645983118
 51
359.9999999999997158
  0
ARC
  5
BDE
  8
0
  6
CONTINUOUS
 62
     3
 10
-423.0006414291390797
 20
0.0000000000002141
 30
0.0
 40
12.0000000000003393
210
0.0
220
0.0
230
-1.0
 50
180.000000000000199
 51
217.3447443540167114
  0
ARC
  5
BDF
  8
0
  6
CONTINUOUS
 62
     3
 10
-349.9006414291404781
 20
-12.1321885906866704
 30
0.0
 40
7.999999999998975
210
0.0
220
0.0
230
-1.0
 50
142.6552556459868129
 51
180.000000000003098
  0
ARC
  5
BE0
  8
0
  6
CONTINUOUS
 62
     3
 10
-438.9006414291384885
 20
-12.1321885906866793
 30
0.0
 40
7.999999999998975
210
0.0
220
0.0
230
-1.0
 50
359.9999999999968168
 51
37.3447443540130735
  0
LINE
  5
BE1
  8
0
  6
CONTINUOUS
 62
     3
 10
430.9006414291395117
 20
-12.1321885906871199
 30
0.0
 11
430.9006414291395117
 21
-95.7448467827215666
 31
0.0
210
0.0
220
1.0
230
0.0
  0
LINE
  5
BE2
  8
0
  6
CONTINUOUS
 62
     3
 10
357.9006414291395117
 20
-12.1321885906871199
 30
0.0
 11
357.9006414291395117
 21
-95.7448467827215666
 31
0.0
210
0.0
220
1.0
230
0.0
  0
LINE
  5
BE3
  8
0
  6
CONTINUOUS
 62
     3
 10
358.7755280643988272
 20
-100.3887264174169047
 30
0.0
 11
357.9006414291395117
 21
-95.7448467827215666
 31
0.0
210
0.0
220
1.0
230
0.0
  0
LINE
  5
BE4
  8
0
  6
CONTINUOUS
 62
     3
 10
430.0257547938800826
 20
-100.3887264174169047
 30
0.0
 11
430.900641429139398
 21
-95.7448467827215666
 31
0.0
210
0.0
220
1.0
230
0.0
  0
LINE
  5
BE5
  8
0
  6
VERDECKT
 62
     1
 10
359.5006414291395913
 20
-95.595444400348299
 30
0.0
 11
429.3006414291393753
 21
-95.595444400348299
 31
0.0
210
0.0
220
1.0
230
0.0
  0
ARC
  5
BE6
  8
0
  6
VERDECKT
 62
     1
 10
-376.3006414291400006
 20
39.0623511754644497
 30
0.0
 40
23.4000000000003183
210
0.0
220
0.0
230
-1.0
 50
0.0000000000000509
 51
26.7955779312318612
  0
ARC
  5
BE7
  8
0
  6
VERDECKT
 62
     1
 10
-412.5006414291390797
 20
39.0623511754644497
 30
0.0
 40
23.4000000000003112
210
0.0
220
0.0
230
-1.0
 50
153.2044220687681104
 51
179.999999999999801
  0
LINE
  5
BE8
  8
0
  6
VERDECKT
 62
     1
 10
360.403674820537276
 20
-100.3887264174169047
 30
0.0
 11
359.5006414291395913
 21
-95.595444400348299
 31
0.0
210
0.0
220
1.0
230
0.0
  0
LINE
  5
BE9
  8
0
  6
VERDECKT
 62
     1
 10
428.3976080377415201
 20
-100.3887264174169047
 30
0.0
 11
429.3006414291393753
 21
-95.595444400348299
 31
0.0
210
0.0
220
1.0
230
0.0
  0
LINE
  5
BEA
  8
0
  6
VERDECKT
 62
     1
 10
429.3006414291393753
 20
-12.1321885906871199
 30
0.0
 11
429.3006414291393753
 21
-95.595444400348299
 31
0.0
210
0.0
220
1.0
230
0.0
  0
LINE
  5
BEB
  8
0
  6
VERDECKT
 62
     1
 10
359.5006414291395913
 20
-12.1321885906871199
 30
0.0
 11
359.5006414291395913
 21
-95.595444400348299
 31
0.0
210
0.0
220
1.0
230
0.0
  0
ARC
  5
BEC
  8
0
  6
VERDECKT
 62
     1
 10
-349.9006414291411033
 20
-12.1321885906865496
 30
0.0
 40
9.5999999999984293
210
0.0
220
0.0
230
-1.0
 50
142.6552556459847096
 51
180.0000000000032117
  0
ARC
  5
BED
  8
0
  6
VERDECKT
 62
     1
 10
-438.9006414291379201
 20
-12.1321885906865496
 30
0.0
 40
9.5999999999984311
210
0.0
220
0.0
230
-1.0
 50
0.0
 51
37.3447443540187507
  0
ARC
  5
BEE
  8
0
  6
VERDECKT
 62
     1
 10
-365.8006414291393753
 20
0.0000000000000056
 30
0.0
 40
10.39999999999986
210
0.0
220
0.0
230
-1.0
 50
322.655255645982777
 51
0.0000000000007493
  0
ARC
  5
BEF
  8
0
  6
VERDECKT
 62
     1
 10
-423.0006414291394776
 20
0.0000000000000036
 30
0.0
 40
10.39999999999986
210
0.0
220
0.0
230
-1.0
 50
179.9999999999992042
 51
217.3447443540171946
  0
LINE
  5
BF0
  8
0
  6
VERDECKT
 62
     1
 10
433.4006414291392844
 20
16.6112735825831201
 30
0.0
 11
433.4006414291392844
 21
0.0000000000001421
 31
0.0
210
0.0
220
1.0
230
0.0
  0
LINE
  5
BF1
  8
0
  6
VERDECKT
 62
     1
 10
355.4006414291396254
 20
16.6112735825831201
 30
0.0
 11
355.4006414291396254
 21
0.0000000000001421
 31
0.0
210
0.0
220
1.0
230
0.0
  0
ARC
  5
BF2
  8
0
  6
VERDECKT
 62
     1
 10
-341.8006414291435249
 20
16.6112735825838413
 30
0.0
 40
13.5999999999962107
210
0.0
220
0.0
230
-1.0
 50
158.8168456069639092
 51
180.0000000000030127
  0
ARC
  5
BF3
  8
0
  6
VERDECKT
 62
     1
 10
-447.0006414291356123
 20
16.6112735825838413
 30
0.0
 40
13.5999999999962107
210
0.0
220
0.0
230
-1.0
 50
0.0
 51
21.1831543930391604
  0
ARC
  5
BF4
  8
0
  6
VERDECKT
 62
     1
 10
-376.300641429140228
 20
29.9812735825832917
 30
0.0
 40
23.4000932431264204
210
0.0
220
0.0
230
-1.0
 50
338.8168456069632271
 51
0.1564859543306708
  0
ARC
  5
BF5
  8
0
  6
VERDECKT
 62
     1
 10
-412.500641429138625
 20
29.9812735825832988
 30
0.0
 40
23.4000932431264204
210
0.0
220
0.0
230
-1.0
 50
179.8435140456693091
 51
201.1831543930366024
  0
LINE
  5
BF6
  8
0
  6
VERDECKT
 62
     1
 10
435.900644412908207
 20
39.062351175464471
 30
0.0
 11
435.900644412908207
 21
30.0451837239798785
 31
0.0
210
0.0
220
1.0
230
0.0
  0
LINE
  5
BF7
  8
0
  6
VERDECKT
 62
     1
 10
352.9006384453705891
 20
39.062351175464471
 30
0.0
 11
352.9006384453705891
 21
30.0451837239798785
 31
0.0
210
0.0
220
1.0
230
0.0
  0
ENDBLK
  5
BF9
  8
0
  0
BLOCK
  8
0
  2
A$C697D5E0E
 70
     0
 10
0.0
 20
0.0
 30
0.0
  3
A$C697D5E0E
  1

  0
CIRCLE
  5
BFD
  8
0
  6
CONTINUOUS
 62
     3
 10
514.3750249872995255
 20
232.846735338899407
 30
0.0
 40
38.9873223762307433
  0
CIRCLE
  5
BFE
  8
0
  6
CONTINUOUS
 62
     3
 10
514.3750249872995255
 20
232.846735338899407
 30
0.0
 40
40.765397328275192
  0
CIRCLE
  5
BFF
  8
0
  6
CONTINUOUS
 62
     3
 10
514.3750249872995255
 20
232.846735338899407
 30
0.0
 40
43.0999999999999588
  0
CIRCLE
  5
C00
  8
0
  6
CONTINUOUS
 62
     3
 10
514.3750249872995255
 20
232.846735338899407
 30
0.0
 40
33.9969666086021078
  0
CIRCLE
  5
C01
  8
0
  6
CONTINUOUS
 62
     3
 10
514.3750249872995255
 20
232.846735338899407
 30
0.0
 40
34.8999999999999773
  0
CIRCLE
  5
C02
  8
0
  6
CONTINUOUS
 62
     3
 10
514.3750249872995255
 20
232.846735338899407
 30
0.0
 40
43.10009324312567
  0
CIRCLE
  5
C03
  8
0
  6
VERDECKT
 62
     1
 10
514.3750249872995255
 20
232.846735338899407
 30
0.0
 40
41.4999999999999432
  0
CIRCLE
  5
C04
  8
0
  6
VERDECKT
 62
     1
 10
514.3750249872995255
 20
232.846735338899407
 30
0.0
 40
40.5999999999999588
  0
CIRCLE
  5
C05
  8
0
  6
VERDECKT
 62
     1
 10
514.3750249872995255
 20
232.846735338899407
 30
0.0
 40
36.5
  0
CIRCLE
  5
C06
  8
0
  6
VERDECKT
 62
     1
 10
514.3750249872995255
 20
232.846735338899407
 30
0.0
 40
35.6251133647406277
  0
CIRCLE
  5
C07
  8
0
  6
VERDECKT
 62
     1
 10
514.3750249872995255
 20
232.846735338899407
 30
0.0
 40
38.9999999999999503
  0
CIRCLE
  5
C08
  8
0
  6
VERDECKT
 62
     1
 10
514.3750249872995255
 20
232.846735338899407
 30
0.0
 40
41.5000059675377884
  0
CIRCLE
  5
C09
  8
0
  6
VERDECKT
 62
     1
 10
514.3750249872995255
 20
232.846735338899407
 30
0.0
 40
41.5000932431257183
  0
ENDBLK
  5
C0B
  8
0
  0
ENDSEC
  0
SECTION
  2
ENTITIES
  0
TEXT
  5
8F
  8
VOLL
 10
78.076754716981128
 20
31.025947764705851
 30
0.0
 40
1.8
  1

  7
GREEKS
  0
INSERT
  5
CFE
  8
DEFPOINTS
  2
A$C30EB4475
 10
-351.3005485804339969
 20
229.0605582032582106
 30
0.0
  0
INSERT
  5
CFF
  8
DEFPOINTS
  2
A$C697D5E0E
 10
-471.274932138593897
 20
-189.7466419002965097
 30
0.0
  0
VIEWPORT
  5
8CE
 67
     1
  8
0
 10
15.7547882371576904
 20
12.0215999181027993
 30
0.0
 40
87.2073420890729096
 41
38.0921670245070487
 68
     1
 69
     1
1001
ACAD
1000
MVIEW
1002
{
1070
    16
1010
0.0
1020
0.0
1030
0.0
1010
0.0
1020
0.0
1030
1.0
1040
0.0
1040
38.0921670245070487
1040
15.7547882371576904
1040
12.0215999181027993
1040
50.0
1040
0.0
1040
0.0
1070
     0
1070
  1500
1070
     1
1070
     1
1070
     0
1070
     0
1070
     0
1070
     0
1040
0.0
1040
0.0
1040
0.0
1040
10.0
1040
10.0
1040
10.0
1040
10.0
1070
     0
1002
{
1002
}
1002
}
  0
ENDSEC
  0
EOF
