  0
SECTION
  2
HEADER
  9
$ACADVER
  1
AC1009
  9
$INSBASE
 10
509.9391017861535147
 20
-118.0350180316795985
 30
403.1361558984037856
  9
$EXTMIN
 10
-33.1500015258789134
 20
-83.036773681640625
 30
-0.0000000000000459
  9
$EXTMAX
 10
33.1500015258789134
 20
200.0
 30
0.000000000000001
  9
$LIMMIN
 10
0.0
 20
0.000000000000008
  9
$LIMMAX
 10
594.0
 20
840.0
  9
$ORTHOMODE
 70
     1
  9
$REGENMODE
 70
     1
  9
$FILLMODE
 70
     1
  9
$QTEXTMODE
 70
     0
  9
$MIRRTEXT
 70
     1
  9
$DRAGMODE
 70
     2
  9
$LTSCALE
 40
20.0
  9
$OSMODE
 70
  3583
  9
$ATTMODE
 70
     1
  9
$TEXTSIZE
 40
2.0
  9
$TRACEWID
 40
1.0
  9
$TEXTSTYLE
  7
STANDARD
  9
$CLAYER
  8
0
  9
$CELTYPE
  6
BYLAYER
  9
$CECOLOR
 62
   256
  9
$DIMSCALE
 40
1.0
  9
$DIMASZ
 40
3.5
  9
$DIMEXO
 40
1.0
  9
$DIMDLI
 40
7.0
  9
$DIMRND
 40
0.0
  9
$DIMDLE
 40
0.0
  9
$DIMEXE
 40
1.0
  9
$DIMTP
 40
0.0
  9
$DIMTM
 40
0.0
  9
$DIMTXT
 40
3.5
  9
$DIMCEN
 40
1.5
  9
$DIMTSZ
 40
0.0
  9
$DIMTOL
 70
     0
  9
$DIMLIM
 70
     0
  9
$DIMTIH
 70
     0
  9
$DIMTOH
 70
     0
  9
$DIMSE1
 70
     0
  9
$DIMSE2
 70
     0
  9
$DIMTAD
 70
     1
  9
$DIMZIN
 70
     8
  9
$DIMBLK
  1

  9
$DIMASO
 70
     1
  9
$DIMSHO
 70
     0
  9
$DIMPOST
  1

  9
$DIMAPOST
  1

  9
$DIMALT
 70
     0
  9
$DIMALTD
 70
     2
  9
$DIMALTF
 40
25.3999999999999986
  9
$DIMLFAC
 40
1.0
  9
$DIMTOFL
 70
     1
  9
$DIMTVP
 40
0.0
  9
$DIMTIX
 70
     0
  9
$DIMSOXD
 70
     0
  9
$DIMSAH
 70
     0
  9
$DIMBLK1
  1

  9
$DIMBLK2
  1

  9
$DIMSTYLE
  2
STANDARD
  9
$DIMCLRD
 70
     0
  9
$DIMCLRE
 70
     0
  9
$DIMCLRT
 70
     1
  9
$DIMTFAC
 40
0.5142857142857143
  9
$DIMGAP
 40
1.5
  9
$LUNITS
 70
     2
  9
$LUPREC
 70
     2
  9
$SKETCHINC
 40
1.0
  9
$FILLETRAD
 40
6.5
  9
$AUNITS
 70
     0
  9
$AUPREC
 70
     0
  9
$MENU
  1
ACAD
  9
$ELEVATION
 40
0.0
  9
$PELEVATION
 40
0.0
  9
$THICKNESS
 40
0.0
  9
$LIMCHECK
 70
     0
  9
$BLIPMODE
 70
     0
  9
$CHAMFERA
 40
0.0
  9
$CHAMFERB
 40
0.0
  9
$SKPOLY
 70
     0
  9
$TDCREATE
 40
2455397.867048610933125
  9
$TDUPDATE
 40
2460803.4942939821630716
  9
$TDINDWG
 40
1.4530508912
  9
$TDUSRTIMER
 40
1.4530508912
  9
$USRTIMER
 70
     1
  9
$ANGBASE
 50
0.0
  9
$ANGDIR
 70
     0
  9
$PDMODE
 70
     0
  9
$PDSIZE
 40
0.0
  9
$PLINEWID
 40
0.0
  9
$COORDS
 70
     1
  9
$SPLFRAME
 70
     0
  9
$SPLINETYPE
 70
     6
  9
$SPLINESEGS
 70
     8
  9
$ATTDIA
 70
     1
  9
$ATTREQ
 70
     1
  9
$HANDLING
 70
     1
  9
$HANDSEED
  5
205F4
  9
$SURFTAB1
 70
     6
  9
$SURFTAB2
 70
     6
  9
$SURFTYPE
 70
     6
  9
$SURFU
 70
     6
  9
$SURFV
 70
     6
  9
$UCSNAME
  2

  9
$UCSORG
 10
0.0
 20
0.0
 30
0.0
  9
$UCSXDIR
 10
1.0
 20
0.0
 30
0.0
  9
$UCSYDIR
 10
0.0
 20
1.0
 30
0.0
  9
$PUCSNAME
  2

  9
$PUCSORG
 10
0.0
 20
0.0
 30
0.0
  9
$PUCSXDIR
 10
1.0
 20
0.0
 30
0.0
  9
$PUCSYDIR
 10
0.0
 20
1.0
 30
0.0
  9
$USERI1
 70
     0
  9
$USERI2
 70
     0
  9
$USERI3
 70
     0
  9
$USERI4
 70
     0
  9
$USERI5
 70
     0
  9
$USERR1
 40
0.0
  9
$USERR2
 40
0.0
  9
$USERR3
 40
0.0
  9
$USERR4
 40
0.0
  9
$USERR5
 40
0.0
  9
$WORLDVIEW
 70
     1
  9
$SHADEDGE
 70
     3
  9
$SHADEDIF
 70
    70
  9
$TILEMODE
 70
     1
  9
$MAXACTVP
 70
    16
  9
$PLIMCHECK
 70
     0
  9
$PEXTMIN
 10
1.0000000000000000E+20
 20
1.0000000000000000E+20
 30
1.0000000000000000E+20
  9
$PEXTMAX
 10
-1.0000000000000000E+20
 20
-1.0000000000000000E+20
 30
-1.0000000000000000E+20
  9
$PLIMMIN
 10
-593.2447509765625
 20
-296.75
  9
$PLIMMAX
 10
-296.2447509765625
 20
123.25
  9
$UNITMODE
 70
     0
  9
$VISRETAIN
 70
     0
  9
$PLINEGEN
 70
     0
  9
$PSLTSCALE
 70
     0
  0
ENDSEC
  0
SECTION
  2
TABLES
  0
TABLE
  2
VPORT
 70
     1
  0
VPORT
  2
*ACTIVE
 70
     0
 10
0.0
 20
0.0
 11
1.0
 21
1.0
 12
0.0
 22
0.0
 13
0.0
 23
0.0
 14
1.0
 24
1.0
 15
10.0
 25
10.0
 16
-0.0000000000013524
 26
0.0
 36
3025.3879983176129826
 17
0.0
 27
58.4816131591796804
 37
0.0000000000001151
 40
284.5058226799882277
 41
1.9004329004328999
 42
207.9750642040615105
 43
0.0
 44
0.0
 50
0.0
 51
0.0
 71
     0
 72
  1500
 73
     1
 74
     0
 75
     0
 76
     0
 77
     0
 78
     0
  0
ENDTAB
  0
TABLE
  2
LTYPE
 70
    13
  0
LTYPE
  2
CONTINUOUS
 70
     0
  3
Solid line
 72
    65
 73
     0
 40
0.0
  0
LTYPE
  2
STRICHPUNKT
 70
     0
  3
__ . __ . __ . __ . __ . __ . __ . __ . __ . __
 72
    65
 73
     4
 40
1.0
 49
0.5
 49
-0.25
 49
0.0
 49
-0.25
  0
LTYPE
  2
HIDDEN
 70
     0
  3
Hidden __ __ __ __ __ __ __ __ __ __ __ __ __ __
 72
    65
 73
     2
 40
0.375
 49
0.25
 49
-0.125
  0
LTYPE
  2
PHANTOM2
 70
     0
  3
Phantom (.5x) ___ _ _ ___ _ _ ___ _ _ ___ _ _
 72
    65
 73
     6
 40
1.25
 49
0.625
 49
-0.125
 49
0.125
 49
-0.125
 49
0.125
 49
-0.125
  0
LTYPE
  2
CENTER
 70
     0
  3
Center ____ _ ____ _ ____ _ ____ _ ____ _ ____
 72
    65
 73
     4
 40
2.0
 49
1.25
 49
-0.25
 49
0.25
 49
-0.25
  0
LTYPE
  2
AMCONSTR
 70
     0
  3
_______________________
 72
    65
 73
     2
 40
9999.0
 49
9999.0
 49
0.0
  0
LTYPE
  2
CENTER2
 70
     0
  3
Center (.5x) ___ _ ___ _ ___ _ ___ _ ___ _ ___
 72
    65
 73
     4
 40
1.125
 49
0.75
 49
-0.125
 49
0.125
 49
-0.125
  0
LTYPE
  2
HIDDEN2
 70
     0
  3
Hidden (.5x) _ _ _ _ _ _ _ _ _ _ _ _ _ _ _ _ _
 72
    65
 73
     2
 40
0.1875
 49
0.125
 49
-0.0625
  0
LTYPE
  2
AMZIGZAG2
 70
     0
  3
/\/-/\/-/\/-/\/-/\/-/\/
 72
    65
 73
     2
 40
0.4401
 49
0.0001
 49
-0.4400000000000001
  0
LTYPE
  2
ACANSTGB
 70
     0
  3
__ . . __ . .
 72
    65
 73
     6
 40
0.35433070866
 49
0.15748031496
 49
-0.03937007874
 49
0.03937007874
 49
-0.03937007874
 49
0.03937007874
 49
-0.03937007874
  0
LTYPE
  2
ACANSTGL
 70
     0
  3
_ _ _ _ _
 72
    65
 73
     2
 40
0.11811023622
 49
0.07874015748
 49
-0.03937007874
  0
LTYPE
  2
AUSGEZOGEN
 70
     0
  3
Ausgezogene Linie
 72
    65
 73
     0
 40
0.0
  0
LTYPE
  2
VERDECKT
 70
     0
  3
Verdeckt __ __ __ __ __ __ __ __ __ __ __ __ __
 72
    65
 73
     2
 40
0.375
 49
0.25
 49
-0.125
  0
ENDTAB
  0
TABLE
  2
LAYER
 70
     4
  0
LAYER
  2
0
 70
     0
 62
     7
  6
CONTINUOUS
  0
LAYER
  2
VOLL
 70
     0
 62
     1
  6
CONTINUOUS
  0
LAYER
  2
DEFPOINTS
 70
     0
 62
     7
  6
CONTINUOUS
  0
LAYER
  2
ADSK_ASSOC_ENTITY_BACKUPS
 70
     1
 62
    -7
  6
CONTINUOUS
  0
ENDTAB
  0
TABLE
  2
STYLE
 70
     5
  0
STYLE
  2
STANDARD
 70
     0
 40
3.5
 41
0.8
 50
0.0
 71
     0
 42
2.0
  3
simplex.shx
  4

  0
STYLE
  2
GREEKS
 70
     0
 40
0.0
 41
0.8
 50
0.0
 71
     0
 42
2.5
  3
SIMPLEX.shx
  4

  0
STYLE
  2

 70
     1
 40
0.0
 41
1.0
 50
0.0
 71
     0
 42
2.5
  3
genltshp.shx
  4

  0
STYLE
  2
ACANSGDT
 70
     0
 40
0.0
 41
1.0
 50
0.0
 71
     0
 42
2.5
  3
amgdt.shx
  4

  0
STYLE
  2

 70
     1
 40
0.0
 41
1.0
 50
0.0
 71
     0
 42
2.0
  3
ltypeshp.shx
  4

  0
ENDTAB
  0
TABLE
  2
VIEW
 70
     0
  0
ENDTAB
  0
TABLE
  2
UCS
 70
     0
  0
ENDTAB
  0
TABLE
  2
APPID
 70
    49
  0
APPID
  2
ACAD
 70
     0
  0
APPID
  2
ACAD_NAV_VCDISPLAY
 70
     0
  0
APPID
  2
GRADIENTCOLOR1ACI
 70
     0
  0
APPID
  2
GRADIENTCOLOR2ACI
 70
     0
  0
APPID
  2
ACAD_DSTYLE_DIMRADIAL_EXTENSION
 70
     0
  0
APPID
  2
ACADANNOMONITORALERTICONDI
 70
     0
  0
APPID
  2
ACAD_EXEMPT_FROM_CAD_STANDARDS
 70
     0
  0
APPID
  2
ACAD_MLEADERVER
 70
     0
  0
APPID
  2
ACAD_PSEXT
 70
     0
  0
APPID
  2
ACAECLAYERSTANDARD
 70
     0
  0
APPID
  2
ACCMTRANSPARENCY
 70
     0
  0
APPID
  2
ACAD_OBJECT_CHANGE_GUID
 70
     0
  0
APPID
  2
MCAD_NO_VIS
 70
     0
  0
APPID
  2
ACAD_TEMP_GRAPHIC
 70
     0
  0
APPID
  2
ACATTRIBSERVICES
 70
     0
  0
APPID
  2
DESIGNERASSEMBLIES
 70
     0
  0
APPID
  2
ACAD_DSTYLE_DIMJAG
 70
     0
  0
APPID
  2
ACAD_DSTYLE_DIMBREAK
 70
     0
  0
APPID
  2
GENIUS_GENSCREG_15
 70
     0
  0
APPID
  2
GENIUS_GENOBJ-N-SDF_13
 70
     0
  0
APPID
  2
GENIUS_GENODEF_13
 70
     0
  0
APPID
  2
ACAD_STEPID
 70
     0
  0
APPID
  2
ACAD_DSTYLE_DIMARC_LENGTH_
 70
     0
  0
APPID
  2
ACAD_DSTYLE_DIM_LINETYPE
 70
     0
  0
APPID
  2
ACAD_DSTYLE_DIM_EXT1_LINETYPE
 70
     0
  0
APPID
  2
ACAD_DSTYLE_DIM_EXT2_LINETYPE
 70
     0
  0
APPID
  2
RAK
 70
     0
  0
APPID
  2
ACADANNOPO
 70
     0
  0
APPID
  2
ACSYNERGY
 70
     0
  0
APPID
  2
SYNERGY_BODY_TBR_ID
 70
     0
  0
APPID
  2
ACAD_VIEW_EDGE_ID
 70
     0
  0
APPID
  2
ACSYNERGYSKETCH
 70
     0
  0
APPID
  2
ACAD_MODELDOC_XFORM
 70
     0
  0
APPID
  2
GENIUS_GENDTOL_13
 70
     0
  0
APPID
  2
ACAD_DSTYLE_DIMINSPECT
 70
     0
  0
APPID
  2
ACAD_DSTYLE_DIMANGULAR_EXT
 70
     0
  0
APPID
  2
PLOTTRANSPARENCY
 70
     0
  0
APPID
  2
ACAUTHENVIRON
 70
     0
  0
APPID
  2
ACDBDYNAMICBLOCKTRUENAME
 70
     0
  0
APPID
  2
ACDBDYNAMICBLOCKGUID
 70
     0
  0
APPID
  2
PE_URL
 70
     0
  0
APPID
  2
ACADANNOAV
 70
     0
  0
APPID
  2
ACAD_TC
 70
     0
  0
APPID
  2
ACAD_DIMASSOC_CALC_DIMLFAC
 70
     0
  0
APPID
  2
ACAD_DIMASSOC_DIMLFAC
 70
     0
  0
APPID
  2
ACAD_DIMASSOC_OVERRIDDEN_D
 70
     0
  0
APPID
  2
ACAD_DSTYLE_DIMTALN
 70
     0
  0
APPID
  2
ACADANNOTATIVE
 70
     0
  0
APPID
  2
HATCHBACKGROUNDCOLOR
 70
     0
  0
ENDTAB
  0
TABLE
  2
DIMSTYLE
 70
     8
  0
DIMSTYLE
  2
STANDARD
 70
     0
  3

  4

  5

  6

  7

 40
1.0
 41
0.18
 42
0.0625
 43
0.38
 44
0.18
 45
0.0
 46
0.0
 47
0.0
 48
0.0
140
0.18
141
0.09
142
0.0
143
25.3999999999999986
144
1.0
145
0.0
146
1.0
147
0.09
 71
     0
 72
     0
 73
     1
 74
     1
 75
     0
 76
     0
 77
     0
 78
     0
170
     0
171
     2
172
     0
173
     0
174
     0
175
     0
176
     0
177
     0
178
     0
  0
DIMSTYLE
  2
AM_ANSI
 70
     0
  3

  4
mm
  5

  6

  7

 40
1.0
 41
0.12
 42
0.05
 43
0.5
 44
0.1
 45
0.0
 46
0.0
 47
0.1
 48
0.1
140
0.12
141
0.0
142
0.0
143
25.3999999999999986
144
1.0
145
0.0
146
0.71
147
0.06
 71
     0
 72
     0
 73
     1
 74
     1
 75
     0
 76
     0
 77
     0
 78
     7
170
     0
171
     2
172
     0
173
     0
174
     0
175
     0
176
   256
177
   256
178
   255
  0
DIMSTYLE
  2
AM_ANSI$3
 70
     0
  3

  4
mm
  5

  6

  7

 40
1.0
 41
0.12
 42
0.05
 43
0.5
 44
0.1
 45
0.0
 46
0.0
 47
0.1
 48
0.1
140
0.12
141
0.0
142
0.0
143
25.3999999999999986
144
1.0
145
0.0
146
0.71
147
0.06
 71
     0
 72
     0
 73
     1
 74
     1
 75
     0
 76
     0
 77
     0
 78
     7
170
     0
171
     2
172
     0
173
     0
174
     0
175
     0
176
   256
177
   256
178
   255
  0
DIMSTYLE
  2
AM_ANSI$4
 70
     0
  3

  4
mm
  5

  6

  7

 40
1.0
 41
0.12
 42
0.05
 43
0.5
 44
0.1
 45
0.0
 46
0.0
 47
0.1
 48
0.1
140
0.12
141
0.0
142
0.0
143
25.3999999999999986
144
1.0
145
0.0
146
0.71
147
0.06
 71
     0
 72
     0
 73
     1
 74
     1
 75
     0
 76
     0
 77
     0
 78
     7
170
     0
171
     2
172
     0
173
     0
174
     0
175
     0
176
   256
177
   256
178
   255
  0
DIMSTYLE
  2
AM_ANSI$7
 70
     0
  3

  4
mm
  5

  6

  7

 40
1.0
 41
0.12
 42
0.05
 43
0.5
 44
0.1
 45
0.0
 46
0.0
 47
0.1
 48
0.1
140
0.12
141
0.0
142
0.0
143
25.3999999999999986
144
1.0
145
0.0
146
0.71
147
0.06
 71
     0
 72
     0
 73
     1
 74
     1
 75
     0
 76
     0
 77
     0
 78
     7
170
     0
171
     2
172
     0
173
     0
174
     0
175
     0
176
   256
177
   256
178
   255
  0
DIMSTYLE
  2
AM_ANSI$SF
 70
     0
  3

  4
mm
  5

  6

  7

 40
1.0
 41
0.12
 42
0.05
 43
0.5
 44
0.1
 45
0.0
 46
0.0
 47
0.1
 48
0.1
140
0.12
141
0.0
142
0.0
143
25.3999999999999986
144
1.0
145
0.0
146
0.71
147
0.06
 71
     0
 72
     0
 73
     1
 74
     1
 75
     1
 76
     1
 77
     0
 78
     7
170
     0
171
     2
172
     0
173
     0
174
     0
175
     0
176
   256
177
   256
178
   255
  0
DIMSTYLE
  2
AM_ANSI$SH
 70
     0
  3

  4
mm
  5

  6
GENAXEH
  7

 40
1.0
 41
0.12
 42
0.05
 43
0.5
 44
0.1
 45
0.0
 46
0.0
 47
0.1
 48
0.1
140
0.12
141
0.0
142
0.0
143
25.3999999999999986
144
1.0
145
0.0
146
0.71
147
0.06
 71
     0
 72
     0
 73
     1
 74
     1
 75
     1
 76
     1
 77
     0
 78
     7
170
     0
171
     2
172
     0
173
     1
174
     0
175
     0
176
   256
177
   256
178
   255
  0
DIMSTYLE
  2
AM_ANSI$0
 70
     0
  3

  4
"
  5

  6

  7

 40
1.0
 41
3.5
 42
1.0
 43
10.0
 44
1.0
 45
0.0
 46
0.0
 47
0.1
 48
0.1
140
3.5
141
0.0
142
0.0
143
0.0393701
144
1.0
145
0.0
146
0.71
147
1.5
 71
     0
 72
     0
 73
     1
 74
     1
 75
     0
 76
     0
 77
     0
 78
     8
170
     0
171
     2
172
     0
173
     0
174
     0
175
     0
176
   256
177
   256
178
     2
  0
ENDTAB
  0
ENDSEC
  0
SECTION
  2
BLOCKS
  0
BLOCK
  8
0
  2
$MODEL_SPACE
 70
     0
 10
0.0
 20
0.0
 30
0.0
  3
$MODEL_SPACE
  1

  0
ENDBLK
  5
38
  8
0
  0
BLOCK
 67
     1
  8
0
  2
$PAPER_SPACE
 70
     2
 10
0.0
 20
0.0
 30
0.0
  3
$PAPER_SPACE
  1

  0
ENDBLK
  5
36
 67
     1
  8
0
  0
BLOCK
  8
0
  2
GENAXEH
 70
     0
 10
0.0
 20
0.0
 30
0.0
  3
GENAXEH
  1

  0
LINE
  5
1721
  8
0
 10
-1.0
 20
0.0
 30
0.0
 11
1.0
 21
0.0
 31
0.0
  0
ENDBLK
  5
1723
  8
0
  0
BLOCK
  8
0
  2
*S1
 70
     1
 10
0.0
 20
0.0
 30
0.0
  3
*S1
  1

  0
ENDBLK
  5
2101
  8
0
  0
BLOCK
  8
0
  2
*U2
 70
     1
 10
0.0
 20
0.0
 30
0.0
  3
*U2
  1

  0
ENDBLK
  5
3EBB
  8
0
  0
BLOCK
  8
0
  2
A$CB4A13E77
 70
     0
 10
0.0
 20
0.0
 30
0.0
  3
A$CB4A13E77
  1

  0
LINE
  5
204BE
  8
0
  6
CONTINUOUS
 62
     3
 10
-218.2230644645948132
 20
97.8800000000000665
 30
-0.0000000000000236
 11
-189.9160644645947968
 21
97.8800000000000665
 31
-0.0000000000000227
210
0.0000000000000002
220
1.0
230
-0.0000000000000002
  0
LINE
  5
204BF
  8
0
  6
CONTINUOUS
 62
     3
 10
-189.9160644645947968
 20
97.8800000000000665
 30
-0.0000000000000227
 11
-161.6090644645948089
 21
97.8800000000000523
 31
-0.0000000000000218
210
0.0000000000000002
220
1.0
230
-0.0000000000000002
  0
LINE
  5
204C0
  8
0
  6
CONTINUOUS
 62
     3
 10
-219.7230644645948132
 20
96.7600000000000762
 30
-0.000000000000023
 11
-189.9160644645947968
 21
96.7600000000000762
 31
-0.0000000000000225
210
0.0000000000000002
220
1.0
230
-0.0000000000000002
  0
LINE
  5
204C1
  8
0
  6
CONTINUOUS
 62
     3
 10
-189.9160644645947968
 20
96.7600000000000762
 30
-0.0000000000000225
 11
-160.1090644645948942
 21
96.7600000000000477
 31
-0.0000000000000219
210
0.0000000000000002
220
1.0
230
-0.0000000000000002
  0
LINE
  5
204C2
  8
0
  6
CONTINUOUS
 62
     3
 10
-160.1090644645948942
 20
99.0000000000000568
 30
-0.0000000000000224
 11
-189.9160644645947968
 21
99.0000000000000711
 31
-0.000000000000023
210
0.0000000000000002
220
1.0
230
-0.0000000000000002
  0
LINE
  5
204C3
  8
0
  6
CONTINUOUS
 62
     3
 10
-189.9160644645947968
 20
99.0000000000000711
 30
-0.000000000000023
 11
-219.7230644645948132
 21
99.0000000000000711
 31
-0.0000000000000235
210
0.0000000000000002
220
1.0
230
-0.0000000000000002
  0
LINE
  5
204C4
  8
0
  6
CONTINUOUS
 62
     3
 10
-218.2230644645948132
 20
95.6400000000000432
 30
-0.0000000000000231
 11
-189.9160644645947968
 21
95.6400000000000432
 31
-0.0000000000000222
210
0.0000000000000002
220
1.0
230
-0.0000000000000002
  0
LINE
  5
204C5
  8
0
  6
CONTINUOUS
 62
     3
 10
-189.9160644645947968
 20
95.6400000000000432
 30
-0.0000000000000222
 11
-161.6090644645948089
 21
95.640000000000029
 31
-0.0000000000000213
210
0.0000000000000002
220
1.0
230
-0.0000000000000002
  0
LINE
  5
204C6
  8
0
  6
CONTINUOUS
 62
     3
 10
-219.7230644645948132
 20
94.5200000000000244
 30
-0.0000000000000225
 11
-189.9160644645947968
 21
94.5200000000000244
 31
-0.000000000000022
210
0.0000000000000002
220
1.0
230
-0.0000000000000002
  0
LINE
  5
204C7
  8
0
  6
CONTINUOUS
 62
     3
 10
-189.9160644645947968
 20
94.5200000000000244
 30
-0.000000000000022
 11
-160.1090644645948942
 21
94.5200000000000244
 31
-0.0000000000000214
210
0.0000000000000002
220
1.0
230
-0.0000000000000002
  0
LINE
  5
204C8
  8
0
  6
CONTINUOUS
 62
     3
 10
-218.2230644645948132
 20
93.4000000000000625
 30
-0.0000000000000226
 11
-189.9160644645947968
 21
93.4000000000000625
 31
-0.0000000000000217
210
0.0000000000000002
220
1.0
230
-0.0000000000000002
  0
LINE
  5
204C9
  8
0
  6
CONTINUOUS
 62
     3
 10
-189.9160644645947968
 20
93.4000000000000625
 30
-0.0000000000000217
 11
-161.6090644645948089
 21
93.4000000000000483
 31
-0.0000000000000208
210
0.0000000000000002
220
1.0
230
-0.0000000000000002
  0
LINE
  5
204CA
  8
0
  6
CONTINUOUS
 62
     3
 10
-219.7230644645948132
 20
92.280000000000058
 30
-0.000000000000022
 11
-189.9160644645947968
 21
92.280000000000058
 31
-0.0000000000000215
210
0.0000000000000002
220
1.0
230
-0.0000000000000002
  0
LINE
  5
204CB
  8
0
  6
CONTINUOUS
 62
     3
 10
-189.9160644645947968
 20
92.280000000000058
 30
-0.0000000000000215
 11
-160.1090644645948942
 21
92.2800000000000438
 31
-0.0000000000000209
210
0.0000000000000002
220
1.0
230
-0.0000000000000002
  0
LINE
  5
204CC
  8
0
  6
CONTINUOUS
 62
     3
 10
-218.2230644645948132
 20
91.1600000000000819
 30
-0.0000000000000221
 11
-189.9160644645947968
 21
91.1600000000000819
 31
-0.0000000000000212
210
0.0000000000000002
220
1.0
230
-0.0000000000000002
  0
LINE
  5
204CD
  8
0
  6
CONTINUOUS
 62
     3
 10
-189.9160644645947968
 20
91.1600000000000819
 30
-0.0000000000000212
 11
-161.6090644645948089
 21
91.1600000000000534
 31
-0.0000000000000203
210
0.0000000000000002
220
1.0
230
-0.0000000000000002
  0
LINE
  5
204CE
  8
0
  6
CONTINUOUS
 62
     3
 10
-219.7230644645948132
 20
90.0400000000000773
 30
-0.0000000000000215
 11
-189.9160644645947968
 21
90.0400000000000773
 31
-0.000000000000021
210
0.0000000000000002
220
1.0
230
-0.0000000000000002
  0
LINE
  5
204CF
  8
0
  6
CONTINUOUS
 62
     3
 10
-189.9160644645947968
 20
90.0400000000000773
 30
-0.000000000000021
 11
-160.1090644645948942
 21
90.0400000000000631
 31
-0.0000000000000204
210
0.0000000000000002
220
1.0
230
-0.0000000000000002
  0
LINE
  5
204D0
  8
0
  6
CONTINUOUS
 62
     3
 10
-218.2230644645948132
 20
88.920000000000087
 30
-0.0000000000000216
 11
-189.9160644645947968
 21
88.920000000000087
 31
-0.0000000000000207
210
0.0000000000000002
220
1.0
230
-0.0000000000000002
  0
LINE
  5
204D1
  8
0
  6
CONTINUOUS
 62
     3
 10
-189.9160644645947968
 20
88.920000000000087
 30
-0.0000000000000207
 11
-161.6090644645948089
 21
88.9200000000000585
 31
-0.0000000000000198
210
0.0000000000000002
220
1.0
230
-0.0000000000000002
  0
LINE
  5
204D2
  8
0
  6
CONTINUOUS
 62
     3
 10
-219.7230644645948132
 20
87.800000000000054
 30
-0.000000000000021
 11
-189.9160644645947968
 21
87.800000000000054
 31
-0.0000000000000205
210
0.0000000000000002
220
1.0
230
-0.0000000000000002
  0
LINE
  5
204D3
  8
0
  6
CONTINUOUS
 62
     3
 10
-189.9160644645947968
 20
87.800000000000054
 30
-0.0000000000000205
 11
-160.1090644645948942
 21
87.800000000000054
 31
-0.0000000000000199
210
0.0000000000000002
220
1.0
230
-0.0000000000000002
  0
LINE
  5
204D4
  8
0
  6
CONTINUOUS
 62
     3
 10
-218.2230644645948132
 20
86.6800000000000637
 30
-0.0000000000000211
 11
-189.9160644645947968
 21
86.6800000000000637
 31
-0.0000000000000202
210
0.0000000000000002
220
1.0
230
-0.0000000000000002
  0
LINE
  5
204D5
  8
0
  6
CONTINUOUS
 62
     3
 10
-189.9160644645947968
 20
86.6800000000000637
 30
-0.0000000000000202
 11
-161.6090644645948089
 21
86.6800000000000352
 31
-0.0000000000000193
210
0.0000000000000002
220
1.0
230
-0.0000000000000002
  0
LINE
  5
204D6
  8
0
  6
CONTINUOUS
 62
     3
 10
-219.7230644645948132
 20
85.5600000000000591
 30
-0.0000000000000205
 11
-189.9160644645947968
 21
85.5600000000000591
 31
-0.00000000000002
210
0.0000000000000002
220
1.0
230
-0.0000000000000002
  0
LINE
  5
204D7
  8
0
  6
CONTINUOUS
 62
     3
 10
-189.9160644645947968
 20
85.5600000000000591
 30
-0.00000000000002
 11
-160.1090644645948942
 21
85.5600000000000449
 31
-0.0000000000000194
210
0.0000000000000002
220
1.0
230
-0.0000000000000002
  0
LINE
  5
204D8
  8
0
  6
CONTINUOUS
 62
     3
 10
-218.2230644645948132
 20
84.4400000000000688
 30
-0.0000000000000206
 11
-189.9160644645947968
 21
84.4400000000000688
 31
-0.0000000000000197
210
0.0000000000000002
220
1.0
230
-0.0000000000000002
  0
LINE
  5
204D9
  8
0
  6
CONTINUOUS
 62
     3
 10
-189.9160644645947968
 20
84.4400000000000688
 30
-0.0000000000000197
 11
-161.6090644645948089
 21
84.4400000000000688
 31
-0.0000000000000188
210
0.0000000000000002
220
1.0
230
-0.0000000000000002
  0
LINE
  5
204DA
  8
0
  6
CONTINUOUS
 62
     3
 10
-219.7230644645948132
 20
83.3200000000000927
 30
-0.0000000000000201
 11
-189.9160644645947968
 21
83.3200000000000927
 31
-0.0000000000000195
210
0.0000000000000002
220
1.0
230
-0.0000000000000002
  0
LINE
  5
204DB
  8
0
  6
CONTINUOUS
 62
     3
 10
-189.9160644645947968
 20
83.3200000000000927
 30
-0.0000000000000195
 11
-160.1090644645948942
 21
83.3200000000000642
 31
-0.0000000000000189
210
0.0000000000000002
220
1.0
230
-0.0000000000000002
  0
LINE
  5
204DC
  8
0
  6
CONTINUOUS
 62
     3
 10
-218.2230644645948132
 20
82.2000000000000881
 30
-0.0000000000000201
 11
-189.9160644645947968
 21
82.2000000000000881
 31
-0.0000000000000192
210
0.0000000000000002
220
1.0
230
-0.0000000000000002
  0
LINE
  5
204DD
  8
0
  6
CONTINUOUS
 62
     3
 10
-189.9160644645947968
 20
82.2000000000000881
 30
-0.0000000000000192
 11
-161.6090644645948089
 21
82.2000000000000739
 31
-0.0000000000000183
210
0.0000000000000002
220
1.0
230
-0.0000000000000002
  0
LINE
  5
204DE
  8
0
  6
CONTINUOUS
 62
     3
 10
-219.7230644645948132
 20
81.0800000000000836
 30
-0.0000000000000196
 11
-189.9160644645947968
 21
81.0800000000000836
 31
-0.000000000000019
210
0.0000000000000002
220
1.0
230
-0.0000000000000002
  0
LINE
  5
204DF
  8
0
  6
CONTINUOUS
 62
     3
 10
-189.9160644645947968
 20
81.0800000000000836
 30
-0.000000000000019
 11
-160.1090644645948942
 21
81.0800000000000836
 31
-0.0000000000000184
210
0.0000000000000002
220
1.0
230
-0.0000000000000002
  0
LINE
  5
204E0
  8
0
  6
CONTINUOUS
 62
     3
 10
-218.2230644645948132
 20
79.9600000000000932
 30
-0.0000000000000196
 11
-189.9160644645947968
 21
79.9600000000000932
 31
-0.0000000000000187
210
0.0000000000000002
220
1.0
230
-0.0000000000000002
  0
LINE
  5
204E1
  8
0
  6
CONTINUOUS
 62
     3
 10
-189.9160644645947968
 20
79.9600000000000932
 30
-0.0000000000000187
 11
-161.6090644645948089
 21
79.960000000000079
 31
-0.0000000000000178
210
0.0000000000000002
220
1.0
230
-0.0000000000000002
  0
LINE
  5
204E2
  8
0
  6
CONTINUOUS
 62
     3
 10
-219.7230644645948132
 20
78.8400000000000887
 30
-0.0000000000000191
 11
-189.9160644645947968
 21
78.8400000000000887
 31
-0.0000000000000185
210
0.0000000000000002
220
1.0
230
-0.0000000000000002
  0
LINE
  5
204E3
  8
0
  6
CONTINUOUS
 62
     3
 10
-189.9160644645947968
 20
78.8400000000000887
 30
-0.0000000000000185
 11
-160.1090644645948942
 21
78.8400000000000745
 31
-0.0000000000000179
210
0.0000000000000002
220
1.0
230
-0.0000000000000002
  0
LINE
  5
204E4
  8
0
  6
CONTINUOUS
 62
     3
 10
-218.2230644645948132
 20
77.7200000000000983
 30
-0.0000000000000191
 11
-189.9160644645947968
 21
77.7200000000000983
 31
-0.0000000000000182
210
0.0000000000000002
220
1.0
230
-0.0000000000000002
  0
LINE
  5
204E5
  8
0
  6
CONTINUOUS
 62
     3
 10
-189.9160644645947968
 20
77.7200000000000983
 30
-0.0000000000000182
 11
-161.6090644645948089
 21
77.7200000000000841
 31
-0.0000000000000173
210
0.0000000000000002
220
1.0
230
-0.0000000000000002
  0
LINE
  5
204E6
  8
0
  6
CONTINUOUS
 62
     3
 10
-219.7230644645948132
 20
76.6000000000000938
 30
-0.0000000000000186
 11
-189.9160644645947968
 21
76.6000000000000938
 31
-0.000000000000018
210
0.0000000000000002
220
1.0
230
-0.0000000000000002
  0
LINE
  5
204E7
  8
0
  6
CONTINUOUS
 62
     3
 10
-189.9160644645947968
 20
76.6000000000000938
 30
-0.000000000000018
 11
-160.1090644645948942
 21
76.6000000000000938
 31
-0.0000000000000174
210
0.0000000000000002
220
1.0
230
-0.0000000000000002
  0
LINE
  5
204E8
  8
0
  6
CONTINUOUS
 62
     3
 10
-218.7230644645948985
 20
100.0
 30
-0.000000000000024
 11
-161.1090644645948089
 21
100.0
 31
-0.0000000000000224
210
0.0000000000000002
220
1.0
230
-0.0000000000000002
  0
LINE
  5
204E9
  8
0
  6
CONTINUOUS
 62
     3
 10
-160.1090644645948942
 20
53.5000000000000426
 30
-0.0000000000000123
 11
-219.7230644645948985
 21
53.5000000000000568
 31
-0.0000000000000134
210
0.0000000000000002
220
1.0
230
-0.0000000000000002
  0
LINE
  5
204EA
  8
0
  6
CONTINUOUS
 62
     3
 10
-161.6090644645948089
 20
97.8800000000000523
 30
-0.0000000000000218
 11
-160.1090644645948942
 21
96.7600000000000477
 31
-0.0000000000000216
210
0.0000000000000002
220
1.0
230
-0.0000000000000002
  0
LINE
  5
204EB
  8
0
  6
CONTINUOUS
 62
     3
 10
-218.2230644645948132
 20
97.8800000000000665
 30
-0.0000000000000236
 11
-219.7230644645948132
 21
96.7600000000000762
 31
-0.0000000000000234
210
0.0000000000000002
220
1.0
230
-0.0000000000000002
  0
LINE
  5
204EC
  8
0
  6
CONTINUOUS
 62
     3
 10
-218.2230644645948132
 20
97.8800000000000665
 30
-0.0000000000000236
 11
-219.7230644645948132
 21
99.0000000000000711
 31
-0.0000000000000239
210
0.0000000000000002
220
1.0
230
-0.0000000000000002
  0
LINE
  5
204ED
  8
0
  6
CONTINUOUS
 62
     3
 10
-161.6090644645948089
 20
97.8800000000000523
 30
-0.0000000000000218
 11
-160.1090644645948942
 21
99.0000000000000568
 31
-0.0000000000000221
210
0.0000000000000002
220
1.0
230
-0.0000000000000002
  0
LINE
  5
204EE
  8
0
  6
CONTINUOUS
 62
     3
 10
-161.6090644645948089
 20
95.640000000000029
 30
-0.0000000000000213
 11
-160.1090644645948942
 21
94.5200000000000244
 31
-0.0000000000000211
210
0.0000000000000002
220
1.0
230
-0.0000000000000002
  0
LINE
  5
204EF
  8
0
  6
CONTINUOUS
 62
     3
 10
-218.2230644645948132
 20
95.6400000000000432
 30
-0.0000000000000231
 11
-219.7230644645948132
 21
94.5200000000000244
 31
-0.0000000000000229
210
0.0000000000000002
220
1.0
230
-0.0000000000000002
  0
LINE
  5
204F0
  8
0
  6
CONTINUOUS
 62
     3
 10
-218.2230644645948132
 20
95.6400000000000432
 30
-0.0000000000000231
 11
-219.7230644645948132
 21
96.7600000000000762
 31
-0.0000000000000234
210
0.0000000000000002
220
1.0
230
-0.0000000000000002
  0
LINE
  5
204F1
  8
0
  6
CONTINUOUS
 62
     3
 10
-161.6090644645948089
 20
95.640000000000029
 30
-0.0000000000000213
 11
-160.1090644645948942
 21
96.7600000000000477
 31
-0.0000000000000216
210
0.0000000000000002
220
1.0
230
-0.0000000000000002
  0
LINE
  5
204F2
  8
0
  6
CONTINUOUS
 62
     3
 10
-161.6090644645948089
 20
93.4000000000000483
 30
-0.0000000000000208
 11
-160.1090644645948942
 21
92.2800000000000438
 31
-0.0000000000000206
210
0.0000000000000002
220
1.0
230
-0.0000000000000002
  0
LINE
  5
204F3
  8
0
  6
CONTINUOUS
 62
     3
 10
-218.2230644645948132
 20
93.4000000000000625
 30
-0.0000000000000226
 11
-219.7230644645948132
 21
92.280000000000058
 31
-0.0000000000000224
210
0.0000000000000002
220
1.0
230
-0.0000000000000002
  0
LINE
  5
204F4
  8
0
  6
CONTINUOUS
 62
     3
 10
-218.2230644645948132
 20
93.4000000000000625
 30
-0.0000000000000226
 11
-219.7230644645948132
 21
94.5200000000000529
 31
-0.0000000000000229
210
0.0000000000000002
220
1.0
230
-0.0000000000000002
  0
LINE
  5
204F5
  8
0
  6
CONTINUOUS
 62
     3
 10
-161.6090644645948089
 20
93.4000000000000483
 30
-0.0000000000000208
 11
-160.1090644645948942
 21
94.5200000000000244
 31
-0.0000000000000211
210
0.0000000000000002
220
1.0
230
-0.0000000000000002
  0
LINE
  5
204F6
  8
0
  6
CONTINUOUS
 62
     3
 10
-161.6090644645948089
 20
91.1600000000000534
 30
-0.0000000000000203
 11
-160.1090644645948942
 21
90.0400000000000631
 31
-0.0000000000000201
210
0.0000000000000002
220
1.0
230
-0.0000000000000002
  0
LINE
  5
204F7
  8
0
  6
CONTINUOUS
 62
     3
 10
-218.2230644645948132
 20
91.1600000000000819
 30
-0.0000000000000221
 11
-219.7230644645948132
 21
90.0400000000000773
 31
-0.0000000000000219
210
0.0000000000000002
220
1.0
230
-0.0000000000000002
  0
LINE
  5
204F8
  8
0
  6
CONTINUOUS
 62
     3
 10
-218.2230644645948132
 20
91.1600000000000819
 30
-0.0000000000000221
 11
-219.7230644645948132
 21
92.280000000000058
 31
-0.0000000000000224
210
0.0000000000000002
220
1.0
230
-0.0000000000000002
  0
LINE
  5
204F9
  8
0
  6
CONTINUOUS
 62
     3
 10
-161.6090644645948089
 20
91.1600000000000534
 30
-0.0000000000000203
 11
-160.1090644645948942
 21
92.280000000000058
 31
-0.0000000000000206
210
0.0000000000000002
220
1.0
230
-0.0000000000000002
  0
LINE
  5
204FA
  8
0
  6
CONTINUOUS
 62
     3
 10
-161.6090644645948089
 20
88.9200000000000585
 30
-0.0000000000000198
 11
-160.1090644645948942
 21
87.800000000000054
 31
-0.0000000000000196
210
0.0000000000000002
220
1.0
230
-0.0000000000000002
  0
LINE
  5
204FB
  8
0
  6
CONTINUOUS
 62
     3
 10
-218.2230644645948132
 20
88.920000000000087
 30
-0.0000000000000216
 11
-219.7230644645948132
 21
87.800000000000054
 31
-0.0000000000000214
210
0.0000000000000002
220
1.0
230
-0.0000000000000002
  0
LINE
  5
204FC
  8
0
  6
CONTINUOUS
 62
     3
 10
-218.2230644645948132
 20
88.920000000000087
 30
-0.0000000000000216
 11
-219.7230644645948132
 21
90.0400000000000773
 31
-0.0000000000000219
210
0.0000000000000002
220
1.0
230
-0.0000000000000002
  0
LINE
  5
204FD
  8
0
  6
CONTINUOUS
 62
     3
 10
-161.6090644645948089
 20
88.9200000000000585
 30
-0.0000000000000198
 11
-160.1090644645948942
 21
90.0400000000000631
 31
-0.0000000000000201
210
0.0000000000000002
220
1.0
230
-0.0000000000000002
  0
LINE
  5
204FE
  8
0
  6
CONTINUOUS
 62
     3
 10
-161.6090644645948089
 20
86.6800000000000352
 30
-0.0000000000000193
 11
-160.1090644645948942
 21
85.5600000000000449
 31
-0.0000000000000191
210
0.0000000000000002
220
1.0
230
-0.0000000000000002
  0
LINE
  5
204FF
  8
0
  6
CONTINUOUS
 62
     3
 10
-218.2230644645948132
 20
86.6800000000000637
 30
-0.0000000000000211
 11
-219.7230644645948132
 21
85.5600000000000591
 31
-0.0000000000000209
210
0.0000000000000002
220
1.0
230
-0.0000000000000002
  0
LINE
  5
20500
  8
0
  6
CONTINUOUS
 62
     3
 10
-218.2230644645948132
 20
86.6800000000000637
 30
-0.0000000000000211
 11
-219.7230644645948132
 21
87.800000000000054
 31
-0.0000000000000214
210
0.0000000000000002
220
1.0
230
-0.0000000000000002
  0
LINE
  5
20501
  8
0
  6
CONTINUOUS
 62
     3
 10
-161.6090644645948089
 20
86.6800000000000352
 30
-0.0000000000000193
 11
-160.1090644645948942
 21
87.800000000000054
 31
-0.0000000000000196
210
0.0000000000000002
220
1.0
230
-0.0000000000000002
  0
LINE
  5
20502
  8
0
  6
CONTINUOUS
 62
     3
 10
-161.6090644645948089
 20
84.4400000000000688
 30
-0.0000000000000188
 11
-160.1090644645948942
 21
83.3200000000000642
 31
-0.0000000000000186
210
0.0000000000000002
220
1.0
230
-0.0000000000000002
  0
LINE
  5
20503
  8
0
  6
CONTINUOUS
 62
     3
 10
-218.2230644645948132
 20
84.4400000000000688
 30
-0.0000000000000206
 11
-219.7230644645948132
 21
83.3200000000000642
 31
-0.0000000000000204
210
0.0000000000000002
220
1.0
230
-0.0000000000000002
  0
LINE
  5
20504
  8
0
  6
CONTINUOUS
 62
     3
 10
-218.2230644645948132
 20
84.4400000000000688
 30
-0.0000000000000206
 11
-219.7230644645948132
 21
85.5600000000000733
 31
-0.0000000000000209
210
0.0000000000000002
220
1.0
230
-0.0000000000000002
  0
LINE
  5
20505
  8
0
  6
CONTINUOUS
 62
     3
 10
-161.6090644645948089
 20
84.4400000000000688
 30
-0.0000000000000188
 11
-160.1090644645948942
 21
85.5600000000000591
 31
-0.0000000000000191
210
0.0000000000000002
220
1.0
230
-0.0000000000000002
  0
LINE
  5
20506
  8
0
  6
CONTINUOUS
 62
     3
 10
-161.6090644645948089
 20
82.2000000000000739
 30
-0.0000000000000183
 11
-160.1090644645948942
 21
81.0800000000000836
 31
-0.0000000000000181
210
0.0000000000000002
220
1.0
230
-0.0000000000000002
  0
LINE
  5
20507
  8
0
  6
CONTINUOUS
 62
     3
 10
-218.2230644645948132
 20
82.2000000000000881
 30
-0.0000000000000201
 11
-219.7230644645948132
 21
81.0800000000000836
 31
-0.0000000000000199
210
0.0000000000000002
220
1.0
230
-0.0000000000000002
  0
LINE
  5
20508
  8
0
  6
CONTINUOUS
 62
     3
 10
-218.2230644645948132
 20
82.2000000000000881
 30
-0.0000000000000201
 11
-219.7230644645948132
 21
83.3200000000000927
 31
-0.0000000000000204
210
0.0000000000000002
220
1.0
230
-0.0000000000000002
  0
LINE
  5
20509
  8
0
  6
CONTINUOUS
 62
     3
 10
-161.6090644645948089
 20
82.2000000000000739
 30
-0.0000000000000183
 11
-160.1090644645948942
 21
83.3200000000000642
 31
-0.0000000000000186
210
0.0000000000000002
220
1.0
230
-0.0000000000000002
  0
LINE
  5
2050A
  8
0
  6
CONTINUOUS
 62
     3
 10
-161.6090644645948089
 20
79.960000000000079
 30
-0.0000000000000178
 11
-160.1090644645948942
 21
78.8400000000000745
 31
-0.0000000000000176
210
0.0000000000000002
220
1.0
230
-0.0000000000000002
  0
LINE
  5
2050B
  8
0
  6
CONTINUOUS
 62
     3
 10
-218.2230644645948132
 20
79.9600000000000932
 30
-0.0000000000000196
 11
-219.7230644645948132
 21
78.8400000000000887
 31
-0.0000000000000194
210
0.0000000000000002
220
1.0
230
-0.0000000000000002
  0
LINE
  5
2050C
  8
0
  6
CONTINUOUS
 62
     3
 10
-218.2230644645948132
 20
79.9600000000000932
 30
-0.0000000000000196
 11
-219.7230644645948132
 21
81.0800000000000836
 31
-0.0000000000000199
210
0.0000000000000002
220
1.0
230
-0.0000000000000002
  0
LINE
  5
2050D
  8
0
  6
CONTINUOUS
 62
     3
 10
-161.6090644645948089
 20
79.960000000000079
 30
-0.0000000000000178
 11
-160.1090644645948942
 21
81.0800000000000836
 31
-0.0000000000000181
210
0.0000000000000002
220
1.0
230
-0.0000000000000002
  0
LINE
  5
2050E
  8
0
  6
CONTINUOUS
 62
     3
 10
-161.6090644645948089
 20
77.7200000000000841
 30
-0.0000000000000173
 11
-160.1090644645948942
 21
76.6000000000000938
 31
-0.0000000000000171
210
0.0000000000000002
220
1.0
230
-0.0000000000000002
  0
LINE
  5
2050F
  8
0
  6
CONTINUOUS
 62
     3
 10
-218.2230644645948132
 20
77.7200000000000983
 30
-0.0000000000000191
 11
-219.7230644645948132
 21
76.6000000000000938
 31
-0.0000000000000189
210
0.0000000000000002
220
1.0
230
-0.0000000000000002
  0
LINE
  5
20510
  8
0
  6
CONTINUOUS
 62
     3
 10
-218.2230644645948132
 20
77.7200000000000983
 30
-0.0000000000000191
 11
-219.7230644645948132
 21
78.8400000000001029
 31
-0.0000000000000194
210
0.0000000000000002
220
1.0
230
-0.0000000000000002
  0
LINE
  5
20511
  8
0
  6
CONTINUOUS
 62
     3
 10
-161.6090644645948089
 20
77.7200000000000841
 30
-0.0000000000000173
 11
-160.1090644645948942
 21
78.8400000000000887
 31
-0.0000000000000176
210
0.0000000000000002
220
1.0
230
-0.0000000000000002
  0
LINE
  5
20512
  8
0
  6
CONTINUOUS
 62
     3
 10
-161.1090644645948089
 20
100.0
 30
-0.0000000000000224
 11
-160.1090644645948942
 21
99.0000000000000568
 31
-0.0000000000000222
210
0.0000000000000002
220
1.0
230
-0.0000000000000002
  0
LINE
  5
20513
  8
0
  6
CONTINUOUS
 62
     3
 10
-218.7230644645948985
 20
100.0
 30
-0.000000000000024
 11
-219.7230644645948132
 21
99.0000000000000711
 31
-0.0000000000000238
210
0.0000000000000002
220
1.0
230
-0.0000000000000002
  0
LINE
  5
20514
  8
0
  6
CONTINUOUS
 62
     3
 10
-219.7230644645948985
 20
53.5000000000000568
 30
-0.0000000000000134
 11
-219.7230644645948132
 21
76.6000000000000938
 31
-0.0000000000000186
210
0.0000000000000002
220
1.0
230
-0.0000000000000002
  0
LINE
  5
20515
  8
0
  6
CONTINUOUS
 62
     3
 10
-160.1090644645948942
 20
53.5000000000000426
 30
-0.0000000000000123
 11
-160.1090644645948942
 21
76.6000000000000938
 31
-0.0000000000000174
210
0.0000000000000002
220
1.0
230
-0.0000000000000002
  0
LINE
  5
20516
  8
0
  6
CONTINUOUS
 62
     3
 10
-159.5613568279815127
 20
-42.9064409348737072
 30
0.000000000000009
 11
-220.2707721012081947
 21
-42.9064409348737001
 31
0.0000000000000081
210
0.0000000000000002
220
1.0
230
-0.0000000000000002
  0
LINE
  5
20517
  8
0
  6
CONTINUOUS
 62
     3
 10
-162.374259760527508
 20
52.815678144438202
 30
-0.0000000000000116
 11
-217.4578691686621994
 21
52.8156781444382091
 31
-0.0000000000000138
210
0.0000000000000002
220
1.0
230
-0.0000000000000002
  0
LINE
  5
20518
  8
0
  6
CONTINUOUS
 62
     3
 10
-219.2440644645949135
 20
-43.9999999999999574
 30
0.0000000000000081
 11
-220.2707721012083084
 21
-42.906440934873693
 31
0.0000000000000079
210
0.0000000000000002
220
1.0
230
-0.0000000000000002
  0
LINE
  5
20519
  8
0
  6
CONTINUOUS
 62
     3
 10
-160.5880644645949076
 20
-43.9999999999999716
 30
0.0000000000000095
 11
-159.5613568279815127
 21
-42.9064409348737072
 31
0.0000000000000092
210
0.0000000000000002
220
1.0
230
-0.0000000000000002
  0
ARC
  5
2051A
  8
0
  6
CONTINUOUS
 62
     3
 10
151.1993842427833101
 20
-33.9999999999998792
 30
0.0000000000000024
 40
12.2166802218116004
210
0.0
220
-0.0000000000000002
230
-1.0
 50
313.1940780392679926
 51
359.9999999999996021
  0
ARC
  5
2051B
  8
0
  6
CONTINUOUS
 62
     3
 10
228.632744686406312
 20
-33.9999999999999716
 30
-0.0000000000000004
 40
12.2166802218114601
210
0.0
220
-0.0000000000000002
230
-1.0
 50
179.9999999999998863
 51
226.8059219607320927
  0
LINE
  5
2051C
  8
0
  6
CONTINUOUS
 62
     3
 10
-216.4160644645949105
 20
-33.9999999999999574
 30
0.0000000000000053
 11
-216.4160644645949105
 21
48.5000000000000568
 31
-0.000000000000013
210
0.0000000000000002
220
1.0
230
-0.0000000000000002
  0
LINE
  5
2051D
  8
0
  6
CONTINUOUS
 62
     3
 10
-163.4160644645949105
 20
-33.9999999999999716
 30
0.0000000000000079
 11
-163.4160644645949105
 21
48.5000000000000426
 31
-0.0000000000000105
210
0.0000000000000002
220
1.0
230
-0.0000000000000002
  0
ARC
  5
2051E
  8
0
  6
CONTINUOUS
 62
     3
 10
153.9563092864671034
 20
48.5000000000000071
 30
0.0000000000000018
 40
9.4597551781277502
210
0.0
220
-0.0000000000000002
230
-1.0
 50
0.0000000000002288
 51
27.143109089106499
  0
ARC
  5
2051F
  8
0
  6
CONTINUOUS
 62
     3
 10
225.8758196427226892
 20
48.5000000000000213
 30
0.0000000000000002
 40
9.4597551781278337
210
0.0
220
-0.0000000000000002
230
-1.0
 50
152.8568909108936111
 51
179.9999999999996874
  0
LINE
  5
20520
  8
0
  6
CONTINUOUS
 62
     3
 10
-163.7090644645948885
 20
53.5000000000000497
 30
-0.0000000000000115
 11
-162.374259760527508
 21
52.8156781444381878
 31
-0.0000000000000114
210
0.0000000000000002
220
1.0
230
-0.0000000000000002
  0
LINE
  5
20521
  8
0
  6
CONTINUOUS
 62
     3
 10
-216.1230644645949042
 20
53.5000000000000711
 30
-0.0000000000000142
 11
-217.4578691686621994
 21
52.8156781444382091
 31
-0.0000000000000141
210
0.0000000000000002
220
1.0
230
-0.0000000000000002
  0
LINE
  5
20522
  8
0
  6
CONTINUOUS
 62
     3
 10
-223.0660644645948878
 20
-43.9999999999999503
 30
0.000000000000009
 11
-156.7660644645949048
 21
-43.9999999999999716
 31
0.0000000000000086
210
0.0000000000000002
220
1.0
230
-0.0000000000000002
  0
LINE
  5
20523
  8
0
  6
CONTINUOUS
 62
     3
 10
-223.0660644645948878
 20
-100.0
 30
0.0000000000000214
 11
-156.7660644645949048
 21
-100.0
 31
0.0000000000000211
210
0.0000000000000002
220
1.0
230
-0.0000000000000002
  0
LINE
  5
20524
  8
0
  6
CONTINUOUS
 62
     3
 10
-156.7660644645949048
 20
-43.9999999999999716
 30
0.0000000000000086
 11
-156.7660644645949048
 21
-100.0
 31
0.0000000000000211
210
0.0000000000000002
220
1.0
230
-0.0000000000000002
  0
LINE
  5
20525
  8
0
  6
CONTINUOUS
 62
     3
 10
-223.0660644645948878
 20
-43.9999999999999503
 30
0.000000000000009
 11
-223.0660644645948878
 21
-100.0
 31
0.0000000000000214
210
0.0000000000000002
220
1.0
230
-0.0000000000000002
  0
LINE
  5
20526
  8
0
  6
VERDECKT
 62
     1
 10
-216.1230644645949042
 20
53.5000000000000568
 30
-0.0000000000000142
 11
-216.1230644645947905
 21
100.0
 31
-0.0000000000000245
210
0.0000000000000002
220
1.0
230
-0.0000000000000002
  0
LINE
  5
20527
  8
0
  6
VERDECKT
 62
     1
 10
-163.7090644645948885
 20
53.5000000000000426
 30
-0.0000000000000115
 11
-163.7090644645948032
 21
100.0
 31
-0.0000000000000218
210
0.0000000000000002
220
1.0
230
-0.0000000000000002
  0
ARC
  5
20528
  8
0
  6
VERDECKT
 62
     1
 10
151.1993842427831964
 20
-33.9999999999998721
 30
0.0000000000000024
 40
13.7166802218116306
210
0.0
220
-0.0000000000000002
230
-1.0
 50
313.1940780392681063
 51
359.9999999999996021
  0
ARC
  5
20529
  8
0
  6
VERDECKT
 62
     1
 10
228.6327446864061983
 20
-33.9999999999999787
 30
-0.0000000000000004
 40
13.7166802218113695
210
0.0
220
-0.0000000000000002
230
-1.0
 50
179.9999999999998863
 51
226.8059219607322916
  0
ARC
  5
2052A
  8
0
  6
VERDECKT
 62
     1
 10
153.9563092864675866
 20
48.5000000000001492
 30
0.0000000000000018
 40
10.9597551781272404
210
0.0
220
-0.0000000000000002
230
-1.0
 50
359.9999999999994884
 51
27.1431090891070212
  0
ARC
  5
2052B
  8
0
  6
VERDECKT
 62
     1
 10
225.8758196427220923
 20
48.5000000000001634
 30
0.0000000000000002
 40
10.9597551781272706
210
0.0
220
-0.0000000000000002
230
-1.0
 50
152.8568909108929859
 51
180.0000000000003979
  0
LINE
  5
2052C
  8
0
  6
VERDECKT
 62
     1
 10
-214.9160644645949105
 20
-33.9999999999999574
 30
0.0000000000000049
 11
-214.9160644645949105
 21
48.5000000000000568
 31
-0.0000000000000134
210
0.0000000000000002
220
1.0
230
-0.0000000000000002
  0
LINE
  5
2052D
  8
0
  6
VERDECKT
 62
     1
 10
-164.9160644645949105
 20
-33.9999999999999716
 30
0.0000000000000082
 11
-164.9160644645949105
 21
48.5000000000000426
 31
-0.0000000000000101
210
0.0000000000000002
220
1.0
230
-0.0000000000000002
  0
LINE
  5
2052E
  8
0
  6
VERDECKT
 62
     1
 10
-163.5880644645949076
 20
-46.8000000000000469
 30
0.0000000000000107
 11
-216.2440644645949135
 21
-46.8000000000000398
 31
0.0000000000000081
210
0.0000000000000002
220
1.0
230
-0.0000000000000002
  0
LINE
  5
2052F
  8
0
  6
VERDECKT
 62
     1
 10
-218.2440644645949135
 20
-48.6000000000000512
 30
0.0000000000000089
 11
-161.5880644645949076
 21
-48.6000000000000583
 31
0.0000000000000107
210
0.0000000000000002
220
1.0
230
-0.0000000000000002
  0
LINE
  5
20530
  8
0
  6
VERDECKT
 62
     1
 10
-163.5880644645949076
 20
-50.4000000000000625
 30
0.0000000000000115
 11
-216.2440644645949135
 21
-50.4000000000000412
 31
0.0000000000000089
210
0.0000000000000002
220
1.0
230
-0.0000000000000002
  0
LINE
  5
20531
  8
0
  6
VERDECKT
 62
     1
 10
-218.2440644645949135
 20
-52.2000000000000526
 30
0.0000000000000097
 11
-161.5880644645949076
 21
-52.2000000000000526
 31
0.0000000000000115
210
0.0000000000000002
220
1.0
230
-0.0000000000000002
  0
LINE
  5
20532
  8
0
  6
VERDECKT
 62
     1
 10
-163.5880644645949076
 20
-54.0000000000000497
 30
0.0000000000000123
 11
-216.2440644645949135
 21
-54.0000000000000284
 31
0.0000000000000097
210
0.0000000000000002
220
1.0
230
-0.0000000000000002
  0
LINE
  5
20533
  8
0
  6
VERDECKT
 62
     1
 10
-218.2440644645949135
 20
-55.8000000000000398
 30
0.0000000000000105
 11
-161.5880644645949076
 21
-55.8000000000000469
 31
0.0000000000000123
210
0.0000000000000002
220
1.0
230
-0.0000000000000002
  0
LINE
  5
20534
  8
0
  6
VERDECKT
 62
     1
 10
-163.5880644645949076
 20
-57.6000000000000512
 30
0.0000000000000131
 11
-216.2440644645949135
 21
-57.6000000000000298
 31
0.0000000000000105
210
0.0000000000000002
220
1.0
230
-0.0000000000000002
  0
LINE
  5
20535
  8
0
  6
VERDECKT
 62
     1
 10
-218.2440644645949135
 20
-59.400000000000027
 30
0.0000000000000113
 11
-161.5880644645949076
 21
-59.4000000000000412
 31
0.0000000000000131
210
0.0000000000000002
220
1.0
230
-0.0000000000000002
  0
LINE
  5
20536
  8
0
  6
VERDECKT
 62
     1
 10
-163.5880644645949076
 20
-61.2000000000000384
 30
0.0000000000000139
 11
-216.2440644645949135
 21
-61.2000000000000171
 31
0.0000000000000113
210
0.0000000000000002
220
1.0
230
-0.0000000000000002
  0
LINE
  5
20537
  8
0
  6
VERDECKT
 62
     1
 10
-218.2440644645949135
 20
-63.0000000000000284
 30
0.0000000000000121
 11
-161.5880644645949076
 21
-63.0000000000000426
 31
0.0000000000000139
210
0.0000000000000002
220
1.0
230
-0.0000000000000002
  0
LINE
  5
20538
  8
0
  6
VERDECKT
 62
     1
 10
-163.5880644645949076
 20
-64.8000000000000256
 30
0.0000000000000147
 11
-216.2440644645949135
 21
-64.8000000000000256
 31
0.0000000000000121
210
0.0000000000000002
220
1.0
230
-0.0000000000000002
  0
LINE
  5
20539
  8
0
  6
VERDECKT
 62
     1
 10
-218.2440644645949135
 20
-66.6000000000000227
 30
0.0000000000000129
 11
-161.5880644645949076
 21
-66.6000000000000369
 31
0.0000000000000147
210
0.0000000000000002
220
1.0
230
-0.0000000000000002
  0
LINE
  5
2053A
  8
0
  6
VERDECKT
 62
     1
 10
-163.5880644645949076
 20
-68.4000000000000199
 30
0.0000000000000155
 11
-216.2440644645949135
 21
-68.4000000000000199
 31
0.0000000000000129
210
0.0000000000000002
220
1.0
230
-0.0000000000000002
  0
LINE
  5
2053B
  8
0
  6
VERDECKT
 62
     1
 10
-218.2440644645949135
 20
-70.2000000000000171
 30
0.0000000000000137
 11
-161.5880644645949076
 21
-70.2000000000000313
 31
0.0000000000000155
210
0.0000000000000002
220
1.0
230
-0.0000000000000002
  0
LINE
  5
2053C
  8
0
  6
VERDECKT
 62
     1
 10
-163.5880644645949076
 20
-72.0000000000000142
 30
0.0000000000000163
 11
-216.2440644645949135
 21
-72.0000000000000142
 31
0.0000000000000137
210
0.0000000000000002
220
1.0
230
-0.0000000000000002
  0
LINE
  5
2053D
  8
0
  6
VERDECKT
 62
     1
 10
-218.2440644645949135
 20
-73.8000000000000114
 30
0.0000000000000145
 11
-161.5880644645949076
 21
-73.8000000000000256
 31
0.0000000000000163
210
0.0000000000000002
220
1.0
230
-0.0000000000000002
  0
LINE
  5
2053E
  8
0
  6
VERDECKT
 62
     1
 10
-163.5880644645949076
 20
-75.6000000000000085
 30
0.0000000000000171
 11
-216.2440644645949135
 21
-75.6000000000000085
 31
0.0000000000000145
210
0.0000000000000002
220
1.0
230
-0.0000000000000002
  0
LINE
  5
2053F
  8
0
  6
VERDECKT
 62
     1
 10
-218.2440644645949135
 20
-77.4000000000000057
 30
0.0000000000000153
 11
-161.5880644645949076
 21
-77.4000000000000057
 31
0.0000000000000171
210
0.0000000000000002
220
1.0
230
-0.0000000000000002
  0
LINE
  5
20540
  8
0
  6
VERDECKT
 62
     1
 10
-163.5880644645949076
 20
-79.2000000000000028
 30
0.0000000000000179
 11
-216.2440644645949135
 21
-79.2000000000000028
 31
0.0000000000000153
210
0.0000000000000002
220
1.0
230
-0.0000000000000002
  0
LINE
  5
20541
  8
0
  6
VERDECKT
 62
     1
 10
-218.2440644645949135
 20
-81.0
 30
0.0000000000000161
 11
-161.5880644645949076
 21
-81.0000000000000142
 31
0.0000000000000179
210
0.0000000000000002
220
1.0
230
-0.0000000000000002
  0
LINE
  5
20542
  8
0
  6
VERDECKT
 62
     1
 10
-163.5880644645949076
 20
-82.7999999999999829
 30
0.0000000000000187
 11
-216.2440644645949135
 21
-82.7999999999999829
 31
0.0000000000000161
210
0.0000000000000002
220
1.0
230
-0.0000000000000002
  0
LINE
  5
20543
  8
0
  6
VERDECKT
 62
     1
 10
-218.2440644645949135
 20
-84.5999999999999943
 30
0.0000000000000169
 11
-161.5880644645949076
 21
-84.5999999999999943
 31
0.0000000000000187
210
0.0000000000000002
220
1.0
230
-0.0000000000000002
  0
LINE
  5
20544
  8
0
  6
VERDECKT
 62
     1
 10
-163.5880644645949076
 20
-86.3999999999999773
 30
0.0000000000000195
 11
-216.2440644645949135
 21
-86.3999999999999773
 31
0.0000000000000169
210
0.0000000000000002
220
1.0
230
-0.0000000000000002
  0
LINE
  5
20545
  8
0
  6
VERDECKT
 62
     1
 10
-218.2440644645949135
 20
-88.1999999999999744
 30
0.0000000000000177
 11
-161.5880644645949076
 21
-88.2000000000000028
 31
0.0000000000000195
210
0.0000000000000002
220
1.0
230
-0.0000000000000002
  0
LINE
  5
20546
  8
0
  6
VERDECKT
 62
     1
 10
-163.5880644645949076
 20
-89.9999999999999858
 30
0.0000000000000203
 11
-216.2440644645949135
 21
-89.9999999999999858
 31
0.0000000000000177
210
0.0000000000000002
220
1.0
230
-0.0000000000000002
  0
LINE
  5
20547
  8
0
  6
VERDECKT
 62
     1
 10
-218.2440644645949135
 20
-91.7999999999999687
 30
0.0000000000000185
 11
-161.5880644645949076
 21
-91.7999999999999829
 31
0.0000000000000203
210
0.0000000000000002
220
1.0
230
-0.0000000000000002
  0
LINE
  5
20548
  8
0
  6
VERDECKT
 62
     1
 10
-163.5880644645949076
 20
-93.5999999999999659
 30
0.0000000000000211
 11
-216.2440644645949135
 21
-93.5999999999999659
 31
0.0000000000000185
210
0.0000000000000002
220
1.0
230
-0.0000000000000002
  0
LINE
  5
20549
  8
0
  6
VERDECKT
 62
     1
 10
-218.2440644645949135
 20
-95.3999999999999631
 30
0.0000000000000193
 11
-161.5880644645949076
 21
-95.3999999999999915
 31
0.0000000000000211
210
0.0000000000000002
220
1.0
230
-0.0000000000000002
  0
LINE
  5
2054A
  8
0
  6
VERDECKT
 62
     1
 10
-163.5880644645949076
 20
-97.1999999999999744
 30
0.0000000000000219
 11
-216.2440644645949135
 21
-97.1999999999999744
 31
0.0000000000000193
210
0.0000000000000002
220
1.0
230
-0.0000000000000002
  0
LINE
  5
2054B
  8
0
  6
VERDECKT
 62
     1
 10
-216.2440644645949135
 20
-46.8000000000000469
 30
0.0000000000000081
 11
-218.2440644645949988
 21
-45.0
 31
0.0000000000000077
210
0.0000000000000002
220
1.0
230
-0.0000000000000002
  0
LINE
  5
2054C
  8
0
  6
VERDECKT
 62
     1
 10
-163.5880644645949076
 20
-46.8000000000000469
 30
0.0000000000000107
 11
-161.5880644645947939
 21
-45.0000000000000213
 31
0.0000000000000103
210
0.0000000000000002
220
1.0
230
-0.0000000000000002
  0
LINE
  5
2054D
  8
0
  6
VERDECKT
 62
     1
 10
-163.5880644645949076
 20
-46.8000000000000469
 30
0.0000000000000107
 11
-161.5880644645949076
 21
-48.6000000000000512
 31
0.0000000000000111
210
0.0000000000000002
220
1.0
230
-0.0000000000000002
  0
LINE
  5
2054E
  8
0
  6
VERDECKT
 62
     1
 10
-216.2440644645949135
 20
-46.8000000000000327
 30
0.0000000000000081
 11
-218.2440644645949135
 21
-48.6000000000000298
 31
0.0000000000000085
210
0.0000000000000002
220
1.0
230
-0.0000000000000002
  0
LINE
  5
2054F
  8
0
  6
VERDECKT
 62
     1
 10
-216.2440644645949135
 20
-50.4000000000000483
 30
0.0000000000000089
 11
-218.2440644645949135
 21
-48.6000000000000512
 31
0.0000000000000085
210
0.0000000000000002
220
1.0
230
-0.0000000000000002
  0
LINE
  5
20550
  8
0
  6
VERDECKT
 62
     1
 10
-163.5880644645949076
 20
-50.4000000000000625
 30
0.0000000000000115
 11
-161.5880644645949076
 21
-48.6000000000000583
 31
0.0000000000000111
210
0.0000000000000002
220
1.0
230
-0.0000000000000002
  0
LINE
  5
20551
  8
0
  6
VERDECKT
 62
     1
 10
-163.5880644645949076
 20
-50.4000000000000483
 30
0.0000000000000115
 11
-161.5880644645949076
 21
-52.2000000000000526
 31
0.0000000000000119
210
0.0000000000000002
220
1.0
230
-0.0000000000000002
  0
LINE
  5
20552
  8
0
  6
VERDECKT
 62
     1
 10
-216.2440644645949135
 20
-50.400000000000027
 30
0.0000000000000089
 11
-218.2440644645949135
 21
-52.2000000000000313
 31
0.0000000000000093
210
0.0000000000000002
220
1.0
230
-0.0000000000000002
  0
LINE
  5
20553
  8
0
  6
VERDECKT
 62
     1
 10
-216.2440644645949135
 20
-54.0000000000000426
 30
0.0000000000000097
 11
-218.2440644645949135
 21
-52.2000000000000526
 31
0.0000000000000093
210
0.0000000000000002
220
1.0
230
-0.0000000000000002
  0
LINE
  5
20554
  8
0
  6
VERDECKT
 62
     1
 10
-163.5880644645949076
 20
-54.0000000000000497
 30
0.0000000000000123
 11
-161.5880644645949076
 21
-52.2000000000000526
 31
0.0000000000000119
210
0.0000000000000002
220
1.0
230
-0.0000000000000002
  0
LINE
  5
20555
  8
0
  6
VERDECKT
 62
     1
 10
-163.5880644645949076
 20
-54.0000000000000426
 30
0.0000000000000123
 11
-161.5880644645949076
 21
-55.8000000000000398
 31
0.0000000000000127
210
0.0000000000000002
220
1.0
230
-0.0000000000000002
  0
LINE
  5
20556
  8
0
  6
VERDECKT
 62
     1
 10
-216.2440644645949135
 20
-54.0000000000000284
 30
0.0000000000000097
 11
-218.2440644645949135
 21
-55.8000000000000185
 31
0.0000000000000101
210
0.0000000000000002
220
1.0
230
-0.0000000000000002
  0
LINE
  5
20557
  8
0
  6
VERDECKT
 62
     1
 10
-216.2440644645949135
 20
-57.6000000000000369
 30
0.0000000000000105
 11
-218.2440644645949135
 21
-55.8000000000000398
 31
0.0000000000000101
210
0.0000000000000002
220
1.0
230
-0.0000000000000002
  0
LINE
  5
20558
  8
0
  6
VERDECKT
 62
     1
 10
-163.5880644645949076
 20
-57.6000000000000512
 30
0.0000000000000131
 11
-161.5880644645949076
 21
-55.8000000000000469
 31
0.0000000000000127
210
0.0000000000000002
220
1.0
230
-0.0000000000000002
  0
LINE
  5
20559
  8
0
  6
VERDECKT
 62
     1
 10
-163.5880644645949076
 20
-57.6000000000000369
 30
0.0000000000000131
 11
-161.5880644645949076
 21
-59.400000000000027
 31
0.0000000000000135
210
0.0000000000000002
220
1.0
230
-0.0000000000000002
  0
LINE
  5
2055A
  8
0
  6
VERDECKT
 62
     1
 10
-216.2440644645949135
 20
-57.6000000000000227
 30
0.0000000000000105
 11
-218.2440644645949135
 21
-59.4000000000000199
 31
0.0000000000000109
210
0.0000000000000002
220
1.0
230
-0.0000000000000002
  0
LINE
  5
2055B
  8
0
  6
VERDECKT
 62
     1
 10
-216.2440644645949135
 20
-61.2000000000000313
 30
0.0000000000000113
 11
-218.2440644645949135
 21
-59.400000000000027
 31
0.0000000000000109
210
0.0000000000000002
220
1.0
230
-0.0000000000000002
  0
LINE
  5
2055C
  8
0
  6
VERDECKT
 62
     1
 10
-163.5880644645949076
 20
-61.2000000000000384
 30
0.0000000000000139
 11
-161.5880644645949076
 21
-59.4000000000000412
 31
0.0000000000000135
210
0.0000000000000002
220
1.0
230
-0.0000000000000002
  0
LINE
  5
2055D
  8
0
  6
VERDECKT
 62
     1
 10
-163.5880644645949076
 20
-61.2000000000000313
 30
0.0000000000000139
 11
-161.5880644645949076
 21
-63.0000000000000284
 31
0.0000000000000143
210
0.0000000000000002
220
1.0
230
-0.0000000000000002
  0
LINE
  5
2055E
  8
0
  6
VERDECKT
 62
     1
 10
-216.2440644645949135
 20
-61.2000000000000099
 30
0.0000000000000113
 11
-218.2440644645949135
 21
-63.0000000000000071
 31
0.0000000000000117
210
0.0000000000000002
220
1.0
230
-0.0000000000000002
  0
LINE
  5
2055F
  8
0
  6
VERDECKT
 62
     1
 10
-216.2440644645949135
 20
-64.8000000000000256
 30
0.0000000000000121
 11
-218.2440644645949135
 21
-63.0000000000000284
 31
0.0000000000000117
210
0.0000000000000002
220
1.0
230
-0.0000000000000002
  0
LINE
  5
20560
  8
0
  6
VERDECKT
 62
     1
 10
-163.5880644645949076
 20
-64.8000000000000256
 30
0.0000000000000147
 11
-161.5880644645949076
 21
-63.0000000000000426
 31
0.0000000000000143
210
0.0000000000000002
220
1.0
230
-0.0000000000000002
  0
LINE
  5
20561
  8
0
  6
VERDECKT
 62
     1
 10
-163.5880644645949076
 20
-64.8000000000000256
 30
0.0000000000000147
 11
-161.5880644645949076
 21
-66.6000000000000369
 31
0.0000000000000151
210
0.0000000000000002
220
1.0
230
-0.0000000000000002
  0
LINE
  5
20562
  8
0
  6
VERDECKT
 62
     1
 10
-216.2440644645949135
 20
-64.8000000000000256
 30
0.0000000000000121
 11
-218.2440644645949135
 21
-66.6000000000000227
 31
0.0000000000000125
210
0.0000000000000002
220
1.0
230
-0.0000000000000002
  0
LINE
  5
20563
  8
0
  6
VERDECKT
 62
     1
 10
-216.2440644645949135
 20
-68.4000000000000199
 30
0.0000000000000129
 11
-218.2440644645949135
 21
-66.6000000000000227
 31
0.0000000000000125
210
0.0000000000000002
220
1.0
230
-0.0000000000000002
  0
LINE
  5
20564
  8
0
  6
VERDECKT
 62
     1
 10
-163.5880644645949076
 20
-68.4000000000000199
 30
0.0000000000000155
 11
-161.5880644645949076
 21
-66.6000000000000369
 31
0.0000000000000151
210
0.0000000000000002
220
1.0
230
-0.0000000000000002
  0
LINE
  5
20565
  8
0
  6
VERDECKT
 62
     1
 10
-163.5880644645949076
 20
-68.4000000000000199
 30
0.0000000000000155
 11
-161.5880644645949076
 21
-70.2000000000000313
 31
0.0000000000000159
210
0.0000000000000002
220
1.0
230
-0.0000000000000002
  0
LINE
  5
20566
  8
0
  6
VERDECKT
 62
     1
 10
-216.2440644645949135
 20
-68.4000000000000199
 30
0.0000000000000129
 11
-218.2440644645949135
 21
-70.2000000000000171
 31
0.0000000000000133
210
0.0000000000000002
220
1.0
230
-0.0000000000000002
  0
LINE
  5
20567
  8
0
  6
VERDECKT
 62
     1
 10
-216.2440644645949135
 20
-72.0000000000000142
 30
0.0000000000000137
 11
-218.2440644645949135
 21
-70.2000000000000171
 31
0.0000000000000133
210
0.0000000000000002
220
1.0
230
-0.0000000000000002
  0
LINE
  5
20568
  8
0
  6
VERDECKT
 62
     1
 10
-163.5880644645949076
 20
-72.0000000000000142
 30
0.0000000000000163
 11
-161.5880644645949076
 21
-70.2000000000000313
 31
0.0000000000000159
210
0.0000000000000002
220
1.0
230
-0.0000000000000002
  0
LINE
  5
20569
  8
0
  6
VERDECKT
 62
     1
 10
-163.5880644645949076
 20
-72.0000000000000142
 30
0.0000000000000163
 11
-161.5880644645949076
 21
-73.8000000000000256
 31
0.0000000000000167
210
0.0000000000000002
220
1.0
230
-0.0000000000000002
  0
LINE
  5
2056A
  8
0
  6
VERDECKT
 62
     1
 10
-216.2440644645949135
 20
-72.0000000000000142
 30
0.0000000000000137
 11
-218.2440644645949135
 21
-73.8000000000000114
 31
0.0000000000000141
210
0.0000000000000002
220
1.0
230
-0.0000000000000002
  0
LINE
  5
2056B
  8
0
  6
VERDECKT
 62
     1
 10
-216.2440644645949135
 20
-75.6000000000000085
 30
0.0000000000000145
 11
-218.2440644645949135
 21
-73.8000000000000114
 31
0.0000000000000141
210
0.0000000000000002
220
1.0
230
-0.0000000000000002
  0
LINE
  5
2056C
  8
0
  6
VERDECKT
 62
     1
 10
-163.5880644645949076
 20
-75.6000000000000085
 30
0.0000000000000171
 11
-161.5880644645949076
 21
-73.8000000000000256
 31
0.0000000000000167
210
0.0000000000000002
220
1.0
230
-0.0000000000000002
  0
LINE
  5
2056D
  8
0
  6
VERDECKT
 62
     1
 10
-163.5880644645949076
 20
-75.6000000000000085
 30
0.0000000000000171
 11
-161.5880644645949076
 21
-77.4000000000000057
 31
0.0000000000000175
210
0.0000000000000002
220
1.0
230
-0.0000000000000002
  0
LINE
  5
2056E
  8
0
  6
VERDECKT
 62
     1
 10
-216.2440644645949135
 20
-75.6000000000000085
 30
0.0000000000000145
 11
-218.2440644645949135
 21
-77.4000000000000057
 31
0.0000000000000149
210
0.0000000000000002
220
1.0
230
-0.0000000000000002
  0
LINE
  5
2056F
  8
0
  6
VERDECKT
 62
     1
 10
-216.2440644645949135
 20
-79.2000000000000028
 30
0.0000000000000153
 11
-218.2440644645949135
 21
-77.4000000000000057
 31
0.0000000000000149
210
0.0000000000000002
220
1.0
230
-0.0000000000000002
  0
LINE
  5
20570
  8
0
  6
VERDECKT
 62
     1
 10
-163.5880644645949076
 20
-79.2000000000000028
 30
0.0000000000000179
 11
-161.5880644645949076
 21
-77.4000000000000057
 31
0.0000000000000175
210
0.0000000000000002
220
1.0
230
-0.0000000000000002
  0
LINE
  5
20571
  8
0
  6
VERDECKT
 62
     1
 10
-163.5880644645949076
 20
-79.2000000000000028
 30
0.0000000000000179
 11
-161.5880644645949076
 21
-81.0000000000000142
 31
0.0000000000000183
210
0.0000000000000002
220
1.0
230
-0.0000000000000002
  0
LINE
  5
20572
  8
0
  6
VERDECKT
 62
     1
 10
-216.2440644645949135
 20
-79.2000000000000028
 30
0.0000000000000153
 11
-218.2440644645949135
 21
-81.0
 31
0.0000000000000157
210
0.0000000000000002
220
1.0
230
-0.0000000000000002
  0
LINE
  5
20573
  8
0
  6
VERDECKT
 62
     1
 10
-216.2440644645949135
 20
-82.7999999999999829
 30
0.0000000000000161
 11
-218.2440644645949135
 21
-81.0
 31
0.0000000000000157
210
0.0000000000000002
220
1.0
230
-0.0000000000000002
  0
LINE
  5
20574
  8
0
  6
VERDECKT
 62
     1
 10
-163.5880644645949076
 20
-82.7999999999999829
 30
0.0000000000000187
 11
-161.5880644645949076
 21
-81.0000000000000142
 31
0.0000000000000183
210
0.0000000000000002
220
1.0
230
-0.0000000000000002
  0
LINE
  5
20575
  8
0
  6
VERDECKT
 62
     1
 10
-163.5880644645949076
 20
-82.7999999999999829
 30
0.0000000000000187
 11
-161.5880644645949076
 21
-84.5999999999999943
 31
0.0000000000000191
210
0.0000000000000002
220
1.0
230
-0.0000000000000002
  0
LINE
  5
20576
  8
0
  6
VERDECKT
 62
     1
 10
-216.2440644645949135
 20
-82.7999999999999829
 30
0.0000000000000161
 11
-218.2440644645949135
 21
-84.5999999999999943
 31
0.0000000000000165
210
0.0000000000000002
220
1.0
230
-0.0000000000000002
  0
LINE
  5
20577
  8
0
  6
VERDECKT
 62
     1
 10
-216.2440644645949135
 20
-86.3999999999999773
 30
0.0000000000000169
 11
-218.2440644645949135
 21
-84.5999999999999943
 31
0.0000000000000165
210
0.0000000000000002
220
1.0
230
-0.0000000000000002
  0
LINE
  5
20578
  8
0
  6
VERDECKT
 62
     1
 10
-163.5880644645949076
 20
-86.3999999999999773
 30
0.0000000000000195
 11
-161.5880644645949076
 21
-84.5999999999999943
 31
0.0000000000000191
210
0.0000000000000002
220
1.0
230
-0.0000000000000002
  0
LINE
  5
20579
  8
0
  6
VERDECKT
 62
     1
 10
-163.5880644645949076
 20
-86.3999999999999773
 30
0.0000000000000195
 11
-161.5880644645949076
 21
-88.2000000000000028
 31
0.0000000000000199
210
0.0000000000000002
220
1.0
230
-0.0000000000000002
  0
LINE
  5
2057A
  8
0
  6
VERDECKT
 62
     1
 10
-216.2440644645949135
 20
-86.3999999999999773
 30
0.0000000000000169
 11
-218.2440644645949135
 21
-88.1999999999999744
 31
0.0000000000000173
210
0.0000000000000002
220
1.0
230
-0.0000000000000002
  0
LINE
  5
2057B
  8
0
  6
VERDECKT
 62
     1
 10
-216.2440644645949135
 20
-89.9999999999999858
 30
0.0000000000000177
 11
-218.2440644645949135
 21
-88.1999999999999744
 31
0.0000000000000173
210
0.0000000000000002
220
1.0
230
-0.0000000000000002
  0
LINE
  5
2057C
  8
0
  6
VERDECKT
 62
     1
 10
-163.5880644645949076
 20
-89.9999999999999858
 30
0.0000000000000203
 11
-161.5880644645949076
 21
-88.2000000000000028
 31
0.0000000000000199
210
0.0000000000000002
220
1.0
230
-0.0000000000000002
  0
LINE
  5
2057D
  8
0
  6
VERDECKT
 62
     1
 10
-163.5880644645949076
 20
-89.9999999999999858
 30
0.0000000000000203
 11
-161.5880644645949076
 21
-91.7999999999999829
 31
0.0000000000000207
210
0.0000000000000002
220
1.0
230
-0.0000000000000002
  0
LINE
  5
2057E
  8
0
  6
VERDECKT
 62
     1
 10
-216.2440644645949135
 20
-89.9999999999999858
 30
0.0000000000000177
 11
-218.2440644645949135
 21
-91.7999999999999687
 31
0.0000000000000181
210
0.0000000000000002
220
1.0
230
-0.0000000000000002
  0
LINE
  5
2057F
  8
0
  6
VERDECKT
 62
     1
 10
-216.2440644645949135
 20
-93.5999999999999659
 30
0.0000000000000185
 11
-218.2440644645949135
 21
-91.7999999999999687
 31
0.0000000000000181
210
0.0000000000000002
220
1.0
230
-0.0000000000000002
  0
LINE
  5
20580
  8
0
  6
VERDECKT
 62
     1
 10
-163.5880644645949076
 20
-93.5999999999999659
 30
0.0000000000000211
 11
-161.5880644645949076
 21
-91.7999999999999829
 31
0.0000000000000207
210
0.0000000000000002
220
1.0
230
-0.0000000000000002
  0
LINE
  5
20581
  8
0
  6
VERDECKT
 62
     1
 10
-163.5880644645949076
 20
-93.5999999999999659
 30
0.0000000000000211
 11
-161.5880644645949076
 21
-95.3999999999999915
 31
0.0000000000000215
210
0.0000000000000002
220
1.0
230
-0.0000000000000002
  0
LINE
  5
20582
  8
0
  6
VERDECKT
 62
     1
 10
-216.2440644645949135
 20
-93.5999999999999659
 30
0.0000000000000185
 11
-218.2440644645949135
 21
-95.3999999999999631
 31
0.0000000000000189
210
0.0000000000000002
220
1.0
230
-0.0000000000000002
  0
LINE
  5
20583
  8
0
  6
VERDECKT
 62
     1
 10
-216.2440644645949135
 20
-97.1999999999999744
 30
0.0000000000000193
 11
-218.2440644645949135
 21
-95.3999999999999631
 31
0.0000000000000189
210
0.0000000000000002
220
1.0
230
-0.0000000000000002
  0
LINE
  5
20584
  8
0
  6
VERDECKT
 62
     1
 10
-163.5880644645949076
 20
-97.1999999999999744
 30
0.0000000000000219
 11
-161.5880644645949076
 21
-95.3999999999999915
 31
0.0000000000000215
210
0.0000000000000002
220
1.0
230
-0.0000000000000002
  0
LINE
  5
20585
  8
0
  6
VERDECKT
 62
     1
 10
-163.5880644645949076
 20
-97.1999999999999744
 30
0.0000000000000219
 11
-161.5880644645949076
 21
-99.0
 31
0.0000000000000223
210
0.0000000000000002
220
1.0
230
-0.0000000000000002
  0
LINE
  5
20586
  8
0
  6
VERDECKT
 62
     1
 10
-216.2440644645949135
 20
-97.1999999999999744
 30
0.0000000000000193
 11
-218.2440644645949135
 21
-98.9999999999999858
 31
0.0000000000000197
210
0.0000000000000002
220
1.0
230
-0.0000000000000002
  0
LINE
  5
20587
  8
0
  6
VERDECKT
 62
     1
 10
-218.2440644645949135
 20
-44.9999999999999503
 30
0.0000000000000081
 11
-219.2440644645949135
 21
-43.9999999999999503
 31
0.0000000000000079
210
0.0000000000000002
220
1.0
230
-0.0000000000000002
  0
LINE
  5
20588
  8
0
  6
VERDECKT
 62
     1
 10
-161.5880644645949076
 20
-44.9999999999999716
 30
0.0000000000000099
 11
-160.5880644645949076
 21
-43.9999999999999716
 31
0.0000000000000097
210
0.0000000000000002
220
1.0
230
-0.0000000000000002
  0
LINE
  5
20589
  8
0
  6
VERDECKT
 62
     1
 10
-161.5880644645949076
 20
-99.0
 30
0.0000000000000219
 11
-160.5880644645949076
 21
-100.0
 31
0.0000000000000221
210
0.0000000000000002
220
1.0
230
-0.0000000000000002
  0
LINE
  5
2058A
  8
0
  6
VERDECKT
 62
     1
 10
-218.2440644645949135
 20
-98.9999999999999858
 30
0.0000000000000201
 11
-219.2440644645949135
 21
-100.0
 31
0.0000000000000203
210
0.0000000000000002
220
1.0
230
-0.0000000000000002
  0
ENDBLK
  5
2058C
  8
0
  0
BLOCK
  8
0
  2
A$C1BD073FB
 70
     0
 10
0.0
 20
0.0
 30
0.0
  3
A$C1BD073FB
  1

  0
CIRCLE
  5
20590
  8
0
  6
CONTINUOUS
 62
     3
 10
-189.9160644645947968
 20
-40.3738448831188066
 30
-0.0000000000000853
 40
29.8069999999999986
  0
CIRCLE
  5
20591
  8
0
  6
CONTINUOUS
 62
     3
 10
-189.9160644645947968
 20
-40.3738448831188066
 30
-0.0000000000000853
 40
28.8069999999999986
  0
CIRCLE
  5
20592
  8
0
  6
CONTINUOUS
 62
     3
 10
-189.9160644645947968
 20
-40.3738448831188066
 30
-0.0000000000000853
 40
26.2070000000000007
  0
CIRCLE
  5
20593
  8
0
  6
CONTINUOUS
 62
     3
 10
-189.9160644645949105
 20
-40.3738448831188066
 30
-0.0000000000000853
 40
30.3547076366133588
  0
CIRCLE
  5
20594
  8
0
  6
CONTINUOUS
 62
     3
 10
-189.9160644645947968
 20
-40.3738448831188066
 30
-0.0000000000000853
 40
25.0000000000000107
  0
CIRCLE
  5
20595
  8
0
  6
CONTINUOUS
 62
     3
 10
-189.9160644645949105
 20
-40.3738448831188066
 30
-0.0000000000000853
 40
33.1500000000000128
  0
CIRCLE
  5
20596
  8
0
  6
VERDECKT
 62
     1
 10
-189.9160644645947968
 20
-40.3738448831188066
 30
-0.0000000000000853
 40
28.3069999999999986
  0
CIRCLE
  5
20597
  8
0
  6
VERDECKT
 62
     1
 10
-189.9160644645949105
 20
-40.3738448831188066
 30
-0.0000000000000853
 40
29.3279999999999994
  0
CIRCLE
  5
20598
  8
0
  6
VERDECKT
 62
     1
 10
-189.9160644645947968
 20
-40.3738448831188066
 30
-0.0000000000000853
 40
26.5000000000000213
  0
CIRCLE
  5
20599
  8
0
  6
VERDECKT
 62
     1
 10
-189.9160644645947968
 20
-40.3738448831188066
 30
-0.0000000000000853
 40
27.5418047040673706
  0
CIRCLE
  5
2059A
  8
0
  6
VERDECKT
 62
     1
 10
-189.9160644645949105
 20
-40.3738448831188066
 30
-0.0000000000000853
 40
26.3279999999999994
  0
CIRCLE
  5
2059B
  8
0
  6
VERDECKT
 62
     1
 10
-189.9160644645949105
 20
-40.3738448831188066
 30
-0.0000000000000853
 40
28.3280000000000101
  0
CIRCLE
  5
2059C
  8
0
  6
VERDECKT
 62
     1
 10
-189.9160644645949105
 20
-40.3738448831188066
 30
-0.0000000000000853
 40
29.3279999999999994
  0
ENDBLK
  5
2059E
  8
0
  0
ENDSEC
  0
SECTION
  2
ENTITIES
  0
TEXT
  5
5DDE
  8
VOLL
 10
78.076754716981128
 20
31.025947764705851
 30
0.0
 40
1.8
  1

  7
GREEKS
  0
INSERT
  5
5DDF
  8
ADSK_ASSOC_ENTITY_BACKUPS
  2
*S1
 10
0.0
 20
0.0
 30
0.0
  0
INSERT
  5
2058D
  8
0
  2
A$CB4A13E77
 10
189.9160644645949105
 20
100.0
 30
-0.0000000000000213
  0
INSERT
  5
2059F
  8
0
  2
A$C1BD073FB
 10
189.9160644645947968
 20
-9.6261551168811934
 30
0.0000000000000852
  0
VIEWPORT
  5
1571
 67
     1
  8
0
 10
-444.7447509765623863
 20
-86.75
 30
0.0
 40
802.3246303869141229
 41
422.1799307958477812
 68
     1
 69
     1
1001
ACAD
1000
MVIEW
1002
{
1070
    16
1010
0.0
1020
0.0
1030
0.0
1010
0.0
1020
0.0
1030
1.0
1040
0.0
1040
422.1799307958477812
1040
-444.7447509765623863
1040
-86.75
1040
50.0
1040
0.0
1040
0.0
1070
     0
1070
  1500
1070
     1
1070
     1
1070
     0
1070
     0
1070
     0
1070
     0
1040
0.0
1040
0.0
1040
0.0
1040
10.0
1040
10.0
1040
10.0
1040
10.0
1070
     0
1002
{
1002
}
1002
}
1001
GENIUS_GENOBJ-N-SDF_13
1002
{
1000
OWNER
1000
GEN
1002
}
1001
GENIUS_GENODEF_13
1002
{
1000
HIER
1070
     0
1002
}
1002
{
1000
MANEDIT
1070
     0
1002
}
1002
{
1000
NOSEL
1070
     0
1002
}
1002
{
1000
BEHIND
1070
     0
1002
}
1002
{
1000
OTHER
1070
     0
1002
}
1002
{
1000
REACTOR
1002
}
1001
GENIUS_GENSCREG_15
1000
PF
1040
1.0
1000
DF
1040
1.0
1000
MIN
1011
-98.3237311841076007
1021
0.0
1031
0.0
1021
-84.5929851452383446
1031
0.0
1000
MAX
1011
756.7695330154733711
1021
0.0
1031
0.0
1021
339.8977580961391141
1031
0.0
1000
FLAGS
1070
     4
  0
ENDSEC
  0
EOF
