  0
SECTION
  2
HEADER
  9
$ACADVER
  1
AC1009
  9
$INSBASE
 10
0.0
 20
0.0
 30
0.0
  9
$EXTMIN
 10
-27.2499999999999396
 20
-27.2500000000000284
 30
-0.0000000000000259
  9
$EXTMAX
 10
2546.725801768187921
 20
202.2744079978413083
 30
0.0
  9
$LIMMIN
 10
0.0
 20
0.0
  9
$LIMMAX
 10
209.999999999999801
 20
297.0000000000001137
  9
$ORTHOMODE
 70
     1
  9
$REGENMODE
 70
     1
  9
$FILLMODE
 70
     1
  9
$QTEXTMODE
 70
     0
  9
$MIRRTEXT
 70
     1
  9
$DRAGMODE
 70
     2
  9
$LTSCALE
 40
10.0
  9
$OSMODE
 70
  1327
  9
$ATTMODE
 70
     1
  9
$TEXTSIZE
 40
3.5
  9
$TRACEWID
 40
0.5
  9
$TEXTSTYLE
  7
STANDARD
  9
$CLAYER
  8
VOLL
  9
$CELTYPE
  6
BYLAYER
  9
$CECOLOR
 62
   256
  9
$DIMSCALE
 40
1.0
  9
$DIMASZ
 40
3.5
  9
$DIMEXO
 40
1.0
  9
$DIMDLI
 40
7.0
  9
$DIMRND
 40
0.0
  9
$DIMDLE
 40
0.0
  9
$DIMEXE
 40
1.0
  9
$DIMTP
 40
2.0
  9
$DIMTM
 40
2.0
  9
$DIMTXT
 40
3.5
  9
$DIMCEN
 40
1.5
  9
$DIMTSZ
 40
0.0
  9
$DIMTOL
 70
     0
  9
$DIMLIM
 70
     0
  9
$DIMTIH
 70
     0
  9
$DIMTOH
 70
     0
  9
$DIMSE1
 70
     0
  9
$DIMSE2
 70
     0
  9
$DIMTAD
 70
     1
  9
$DIMZIN
 70
     8
  9
$DIMBLK
  1

  9
$DIMASO
 70
     1
  9
$DIMSHO
 70
     0
  9
$DIMPOST
  1

  9
$DIMAPOST
  1

  9
$DIMALT
 70
     0
  9
$DIMALTD
 70
     2
  9
$DIMALTF
 40
25.3999999999999986
  9
$DIMLFAC
 40
1.0
  9
$DIMTOFL
 70
     1
  9
$DIMTVP
 40
0.0
  9
$DIMTIX
 70
     0
  9
$DIMSOXD
 70
     0
  9
$DIMSAH
 70
     0
  9
$DIMBLK1
  1

  9
$DIMBLK2
  1

  9
$DIMSTYLE
  2
STANDARD
  9
$DIMCLRD
 70
     0
  9
$DIMCLRE
 70
     0
  9
$DIMCLRT
 70
     1
  9
$DIMTFAC
 40
0.5142857142857143
  9
$DIMGAP
 40
1.0
  9
$LUNITS
 70
     2
  9
$LUPREC
 70
     2
  9
$SKETCHINC
 40
1.0
  9
$FILLETRAD
 40
0.0
  9
$AUNITS
 70
     0
  9
$AUPREC
 70
     0
  9
$MENU
  1
ACAD
  9
$ELEVATION
 40
0.0
  9
$PELEVATION
 40
0.0
  9
$THICKNESS
 40
0.0
  9
$LIMCHECK
 70
     0
  9
$BLIPMODE
 70
     0
  9
$CHAMFERA
 40
0.0
  9
$CHAMFERB
 40
0.0
  9
$SKPOLY
 70
     0
  9
$TDCREATE
 40
2452928.1903935191221535
  9
$TDUPDATE
 40
2458382.4307523150928319
  9
$TDINDWG
 40
0.3009629051
  9
$TDUSRTIMER
 40
0.3009629051
  9
$USRTIMER
 70
     1
  9
$ANGBASE
 50
0.0
  9
$ANGDIR
 70
     0
  9
$PDMODE
 70
     0
  9
$PDSIZE
 40
0.0
  9
$PLINEWID
 40
0.0
  9
$COORDS
 70
     1
  9
$SPLFRAME
 70
     0
  9
$SPLINETYPE
 70
     6
  9
$SPLINESEGS
 70
     8
  9
$ATTDIA
 70
     0
  9
$ATTREQ
 70
     0
  9
$HANDLING
 70
     1
  9
$HANDSEED
  5
F6E
  9
$SURFTAB1
 70
     6
  9
$SURFTAB2
 70
     6
  9
$SURFTYPE
 70
     6
  9
$SURFU
 70
     6
  9
$SURFV
 70
     6
  9
$UCSNAME
  2

  9
$UCSORG
 10
0.0
 20
0.0
 30
0.0
  9
$UCSXDIR
 10
1.0
 20
0.0
 30
0.0
  9
$UCSYDIR
 10
0.0
 20
1.0
 30
0.0
  9
$PUCSNAME
  2

  9
$PUCSORG
 10
0.0
 20
0.0
 30
0.0
  9
$PUCSXDIR
 10
1.0
 20
0.0
 30
0.0
  9
$PUCSYDIR
 10
0.0
 20
1.0
 30
0.0
  9
$USERI1
 70
     0
  9
$USERI2
 70
     0
  9
$USERI3
 70
     0
  9
$USERI4
 70
     0
  9
$USERI5
 70
     0
  9
$USERR1
 40
0.0
  9
$USERR2
 40
0.0
  9
$USERR3
 40
0.0
  9
$USERR4
 40
0.0
  9
$USERR5
 40
0.0
  9
$WORLDVIEW
 70
     1
  9
$SHADEDGE
 70
     3
  9
$SHADEDIF
 70
    70
  9
$TILEMODE
 70
     1
  9
$MAXACTVP
 70
    16
  9
$PLIMCHECK
 70
     0
  9
$PEXTMIN
 10
-88.7352413874757389
 20
-42.4463477616777709
 30
-0.0000000000000159
  9
$PEXTMAX
 10
121.2933047608668033
 20
489.4328383634436932
 30
0.0000000000000146
  9
$PLIMMIN
 10
-0.2500002402958907
 20
-0.2499999962453767
  9
$PLIMMAX
 10
10.7499995194082203
 20
8.2499997634587334
  9
$UNITMODE
 70
     0
  9
$VISRETAIN
 70
     0
  9
$PLINEGEN
 70
     0
  9
$PSLTSCALE
 70
     0
  0
ENDSEC
  0
SECTION
  2
TABLES
  0
TABLE
  2
VPORT
 70
     1
  0
VPORT
  2
*ACTIVE
 70
     0
 10
0.0
 20
0.0
 11
1.0
 21
1.0
 12
0.0
 22
0.0
 13
0.0
 23
0.0
 14
1.0
 24
1.0
 15
10.0
 25
10.0
 16
-0.0000000000000995
 26
0.0
 36
459.0090985446470881
 17
-14.5998763838205701
 27
58.3735469780666705
 37
-15.3155650333662692
 40
180.8690613054064897
 41
1.8826466916354549
 42
50.0
 43
0.0
 44
0.0
 50
0.0
 51
0.0
 71
     0
 72
  1500
 73
     1
 74
     0
 75
     0
 76
     0
 77
     0
 78
     0
  0
ENDTAB
  0
TABLE
  2
LTYPE
 70
     6
  0
LTYPE
  2
CONTINUOUS
 70
     0
  3
Solid line
 72
    65
 73
     0
 40
0.0
  0
LTYPE
  2
VERDECKT
 70
     0
  3
Verdeckt __ __ __ __ __ __ __ __ __ __ __ __ __
 72
    65
 73
     2
 40
0.375
 49
0.25
 49
-0.125
  0
ENDTAB
  0
TABLE
  2
LAYER
 70
    15
  0
LAYER
  2
0
 70
     0
 62
     7
  6
CONTINUOUS
  0
LAYER
  2
VOLL
 70
     0
 62
     1
  6
CONTINUOUS
  0
LAYER
  2
BEM
 70
     0
 62
     7
  6
CONTINUOUS
  0
LAYER
  2
DEFPOINTS
 70
     0
 62
     7
  6
CONTINUOUS
  0
LAYER
  2
TEXT
 70
     0
 62
     7
  6
CONTINUOUS
  0
LAYER
  2
TEXT35
 70
     0
 62
     1
  6
CONTINUOUS
  0
LAYER
  2
ROHR
 70
     0
 62
     9
  6
CONTINUOUS
  0
LAYER
  2
ADSK_ASSOC_ENTITY_BACKUPS
 70
     1
 62
    -7
  6
CONTINUOUS
  0
ENDTAB
  0
TABLE
  2
STYLE
 70
     4
  0
STYLE
  2
STANDARD
 70
     0
 40
0.0
 41
0.8
 50
0.0
 71
     0
 42
3.5
  3
simplex.shx
  4

  0
STYLE
  2
GREEKS
 70
     0
 40
0.0
 41
0.8
 50
0.0
 71
     0
 42
3.5
  3
SIMPLEX.shx
  4

  0
STYLE
  2

 70
     1
 40
0.0
 41
1.0
 50
0.0
 71
     0
 42
3.5
  3
ltypeshp.shx
  4

  0
ENDTAB
  0
TABLE
  2
VIEW
 70
     1
  0
ENDTAB
  0
TABLE
  2
UCS
 70
     0
  0
ENDTAB
  0
TABLE
  2
APPID
 70
    19
  0
APPID
  2
ACAD
 70
     0
  0
APPID
  2
RAK
 70
     0
  0
APPID
  2
ACAECLAYERSTANDARD
 70
     0
  0
APPID
  2
ACCMTRANSPARENCY
 70
     0
  0
APPID
  2
ACAD_NAV_VCDISPLAY
 70
     0
  0
APPID
  2
ACAD_PSEXT
 70
     0
  0
APPID
  2
ACAD_EXEMPT_FROM_CAD_STANDARDS
 70
     0
  0
APPID
  2
ACSYNERGY
 70
     0
  0
APPID
  2
SYNERGY_BODY_TBR_ID
 70
     0
  0
APPID
  2
ACAD_VIEW_EDGE_ID
 70
     0
  0
APPID
  2
ACAD_DIMASSOC_CALC_DIMLFAC
 70
     0
  0
APPID
  2
ACAD_DIMASSOC_DIMLFAC
 70
     0
  0
APPID
  2
ACAD_DIMASSOC_OVERRIDDEN_D
 70
     0
  0
APPID
  2
ACAD_DSTYLE_DIMRADIAL_EXTENSION
 70
     0
  0
APPID
  2
ACSYNERGYSKETCH
 70
     0
  0
APPID
  2
ACAD_MODELDOC_XFORM
 70
     0
  0
APPID
  2
ACAD_MLEADERVER
 70
     0
  0
APPID
  2
ACADANNOMONITORALERTICONDI
 70
     0
  0
APPID
  2
ACAD_ASSOCPERSSUBENTMANAGER
 70
     0
  0
ENDTAB
  0
TABLE
  2
DIMSTYLE
 70
     2
  0
DIMSTYLE
  2
STANDARD
 70
     0
  3

  4

  5

  6

  7

 40
1.0
 41
0.18
 42
0.0625
 43
0.38
 44
0.18
 45
0.0
 46
0.0
 47
0.0
 48
0.0
140
0.18
141
0.09
142
0.0
143
25.3999999999999986
144
1.0
145
0.0
146
1.0
147
0.09
 71
     0
 72
     0
 73
     1
 74
     1
 75
     0
 76
     0
 77
     0
 78
     0
170
     0
171
     2
172
     0
173
     0
174
     0
175
     0
176
     0
177
     0
178
     0
  0
ENDTAB
  0
ENDSEC
  0
SECTION
  2
BLOCKS
  0
BLOCK
  8
0
  2
$MODEL_SPACE
 70
     0
 10
0.0
 20
0.0
 30
0.0
  3
$MODEL_SPACE
  1

  0
ENDBLK
  5
3D
  8
0
  0
BLOCK
 67
     1
  8
0
  2
$PAPER_SPACE
 70
     0
 10
0.0
 20
0.0
 30
0.0
  3
$PAPER_SPACE
  1

  0
ENDBLK
  5
3B
 67
     1
  8
0
  0
BLOCK
  8
0
  2
*S2
 70
     1
 10
0.0
 20
0.0
 30
0.0
  3
*S2
  1

  0
ENDBLK
  5
617
  8
0
  0
BLOCK
  8
0
  2
A$C07AA6E70
 70
     0
 10
0.0
 20
0.0
 30
0.0
  3
A$C07AA6E70
  1

  0
CIRCLE
  5
E7E
  8
0
  6
CONTINUOUS
 62
     3
 10
375.3597181251781194
 20
199.4834299670534961
 30
-0.0000000000000639
 40
24.1476030003186715
  0
CIRCLE
  5
E7F
  8
0
  6
CONTINUOUS
 62
     3
 10
375.3597181251781194
 20
199.4834299670534961
 30
-0.0000000000000639
 40
25.4999999999999396
  0
CIRCLE
  5
E80
  8
0
  6
CONTINUOUS
 62
     3
 10
375.3597181251781194
 20
199.4834299670534108
 30
-0.0000000000000675
 40
19.4999999999999716
  0
CIRCLE
  5
E81
  8
0
  6
CONTINUOUS
 62
     3
 10
375.3597181251781194
 20
199.4834299670534108
 30
-0.0000000000000675
 40
22.4999999999999183
  0
CIRCLE
  5
E82
  8
0
  6
CONTINUOUS
 62
     3
 10
375.3597181251781194
 20
199.4834299670534961
 30
-0.0000000000000639
 40
22.7705481821078592
  0
CIRCLE
  5
E83
  8
0
  6
CONTINUOUS
 62
     3
 10
375.3597181251781194
 20
199.4834299670534961
 30
-0.0000000000000639
 40
25.5004463987676111
  0
CIRCLE
  5
E84
  8
0
  6
CONTINUOUS
 62
     3
 10
375.3597181251781194
 20
199.4834299670534108
 30
-0.0000000000000675
 40
27.25
  0
CIRCLE
  5
E85
  8
0
  6
VERDECKT
 62
     1
 10
375.3597181251781194
 20
199.4834299670534108
 30
-0.0000000000000675
 40
20.9999999999999716
  0
CIRCLE
  5
E86
  8
0
  6
VERDECKT
 62
     1
 10
375.3597181251781194
 20
199.4834299670534108
 30
-0.0000000000000675
 40
24.55249306410645
  0
CIRCLE
  5
E87
  8
0
  6
VERDECKT
 62
     1
 10
375.3597181251781194
 20
199.4834299670534108
 30
-0.0000000000000675
 40
23.14799929775279
  0
CIRCLE
  5
E88
  8
0
  6
VERDECKT
 62
     1
 10
375.3597181251781194
 20
199.4834299670534961
 30
-0.0000000000000639
 40
23.9999999999999396
  0
CIRCLE
  5
E89
  8
0
  6
VERDECKT
 62
     1
 10
375.3597181251781194
 20
199.4834299670534108
 30
-0.0000000000000639
 40
23.6424890894862187
  0
CIRCLE
  5
E8A
  8
0
  6
VERDECKT
 62
     1
 10
375.3597181251781194
 20
199.4834299670534108
 30
-0.0000000000000675
 40
22.4000000000000306
  0
CIRCLE
  5
E8B
  8
0
  6
VERDECKT
 62
     1
 10
375.3597181251781194
 20
199.4834299670534108
 30
-0.0000000000000675
 40
22.6858836404115287
  0
CIRCLE
  5
E8C
  8
0
  6
VERDECKT
 62
     1
 10
375.3597181251781194
 20
199.4834299670534108
 30
-0.0000000000000675
 40
23.9000000000000412
  0
ENDBLK
  5
E8E
  8
0
  0
BLOCK
  8
0
  2
A$C4588586B
 70
     0
 10
0.0
 20
0.0
 30
0.0
  3
A$C4588586B
  1

  0
LINE
  5
E92
  8
0
  6
CONTINUOUS
 62
     3
 10
-20.9778513094760797
 20
45.999999999999801
 30
-0.0000000000000102
 11
27.317354691161249
 21
45.9999999999999218
 31
-0.0000000000000102
210
0.0
220
1.0
230
-0.0000000000000002
  0
LINE
  5
E93
  8
0
  6
CONTINUOUS
 62
     3
 10
-21.3827413732638014
 20
-10.4733148376174405
 30
0.0000000000000023
 11
27.7222447549490916
 21
-10.4733148376173197
 31
0.0000000000000023
210
0.0
220
1.0
230
-0.0000000000000002
  0
ARC
  5
E94
  8
0
  6
CONTINUOUS
 62
     3
 10
5.830248309157092
 20
39.4578196795917719
 30
0.0
 40
16.5000000000002487
210
0.0
220
-0.0000000000000002
230
-1.0
 50
359.9999999999988063
 51
23.3592945446401892
  0
ARC
  5
E95
  8
0
  6
CONTINUOUS
 62
     3
 10
-12.16975169084232
 20
39.4578196795917933
 30
0.0
 40
16.500000000000199
210
0.0
220
-0.0000000000000002
230
-1.0
 50
156.6407054553596083
 51
180.0000000000011084
  0
LINE
  5
E96
  8
0
  6
CONTINUOUS
 62
     3
 10
28.6697516908425314
 20
39.4578196795914522
 30
-0.0000000000000088
 11
28.6697516908425385
 21
34.3669999999999405
 31
-0.0000000000000076
210
0.0
220
1.0
230
-0.0000000000000002
  0
LINE
  5
E97
  8
0
  6
CONTINUOUS
 62
     3
 10
-22.3302483091573585
 20
39.4578196795914025
 30
-0.0000000000000088
 11
-22.3302483091573514
 21
34.3669999999998907
 31
-0.0000000000000076
210
0.0
220
1.0
230
-0.0000000000000002
  0
ARC
  5
E98
  8
0
  6
CONTINUOUS
 62
     3
 10
3.1534304899345962
 20
34.2361519394162315
 30
0.0
 40
19.1772642179904196
210
0.0
220
-0.0000000000000002
230
-1.0
 50
341.5454045916466157
 51
0.3909368779107982
  0
ARC
  5
E99
  8
0
  6
CONTINUOUS
 62
     3
 10
-9.4929338716200107
 20
34.236151939416203
 30
0.0
 40
19.1772642179901815
210
0.0
220
-0.0000000000000002
230
-1.0
 50
179.6090631220889122
 51
198.454595408353299
  0
ARC
  5
E9A
  8
0
  6
CONTINUOUS
 62
     3
 10
30.8302483091555892
 20
25.0000000000004086
 30
0.0
 40
9.9999999999982592
210
0.0
220
-0.0000000000000002
230
-1.0
 50
161.5454045916461041
 51
180.0000000000013074
  0
ARC
  5
E9B
  8
0
  6
CONTINUOUS
 62
     3
 10
-37.1697516908407266
 20
25.0000000000004903
 30
0.0
 40
9.9999999999982165
210
0.0
220
-0.0000000000000002
230
-1.0
 50
0.0
 51
18.4545954083552886
  0
LINE
  5
E9C
  8
0
  6
CONTINUOUS
 62
     3
 10
27.1697516908425314
 20
25.0000000000002309
 30
-0.0000000000000056
 11
27.1697516908425385
 21
20.82182538049668
 31
-0.0000000000000046
210
0.0
220
1.0
230
-0.0000000000000002
  0
LINE
  5
E9D
  8
0
  6
CONTINUOUS
 62
     3
 10
-20.8302483091573585
 20
25.0000000000001883
 30
-0.0000000000000056
 11
-20.8302483091573514
 21
20.8218253804966302
 31
-0.0000000000000046
210
0.0
220
1.0
230
-0.0000000000000002
  0
ARC
  5
E9E
  8
0
  6
CONTINUOUS
 62
     3
 10
10.8302483091571808
 20
20.821825380496719
 30
0.0
 40
10.0000000000001492
210
0.0
220
-0.0000000000000002
230
-1.0
 50
324.340912303861387
 51
359.9999999999994884
  0
ARC
  5
E9F
  8
0
  6
CONTINUOUS
 62
     3
 10
-17.1697516908423182
 20
20.821825380496751
 30
0.0
 40
10.0000000000001794
210
0.0
220
-0.0000000000000002
230
-1.0
 50
180.0000000000003979
 51
215.6590876961381014
  0
ARC
  5
EA0
  8
0
  6
CONTINUOUS
 62
     3
 10
23.8302483091578594
 20
11.4944463274077506
 30
0.0
 40
6.0000000000005356
210
0.0
220
-0.0000000000000002
230
-1.0
 50
144.3409123038636039
 51
179.9999999999976978
  0
ARC
  5
EA1
  8
0
  6
CONTINUOUS
 62
     3
 10
-30.1697516908431815
 20
11.4944463274078004
 30
0.0
 40
6.000000000000564
210
0.0
220
-0.0000000000000002
230
-1.0
 50
0.00000000000229
 51
35.6590876961360905
  0
LINE
  5
EA2
  8
0
  6
CONTINUOUS
 62
     3
 10
24.1697516908425314
 20
11.4944463274080402
 30
-0.0000000000000026
 11
24.1697516908425385
 21
0.0880074906351638
 31
0.0
210
0.0
220
1.0
230
-0.0000000000000002
  0
LINE
  5
EA3
  8
0
  6
CONTINUOUS
 62
     3
 10
-17.8302483091572483
 20
11.4944463274079904
 30
-0.0000000000000026
 11
-17.8302483091572306
 21
0.0880074906351159
 31
0.0
210
0.0
220
1.0
230
-0.0000000000000002
  0
ARC
  5
EA4
  8
0
  6
CONTINUOUS
 62
     3
 10
23.8302483091571915
 20
0.0880074906350239
 30
0.0
 40
5.9999999999999316
210
0.0
220
-0.0000000000000002
230
-1.0
 50
179.9999999999990905
 51
200.5560452195834955
  0
ARC
  5
EA5
  8
0
  6
CONTINUOUS
 62
     3
 10
-30.1697516908423786
 20
0.0880074906350612
 30
0.0
 40
5.9999999999998321
210
0.0
220
-0.0000000000000002
230
-1.0
 50
339.4439547804162203
 51
0.0000000000009796
  0
LINE
  5
EA6
  8
0
  6
CONTINUOUS
 62
     3
 10
24.5517766254282712
 20
-2.018733158895258
 30
0.0000000000000004
 11
27.7222447549490916
 21
-10.4733148376173197
 31
0.0000000000000023
210
0.0
220
1.0
230
-0.0000000000000002
  0
LINE
  5
EA7
  8
0
  6
CONTINUOUS
 62
     3
 10
-18.2122732437429811
 20
-2.0187331588953068
 30
0.0000000000000004
 11
-21.3827413732638014
 21
-10.4733148376173801
 31
0.0000000000000023
210
0.0
220
1.0
230
-0.0000000000000002
  0
LINE
  5
EA8
  8
0
  6
CONTINUOUS
 62
     3
 10
-19.9782476069101484
 20
-10.9999999999999503
 30
0.0000000000000024
 11
-21.3827413732638014
 21
-10.4733148376173908
 31
0.0000000000000023
210
0.0
220
1.0
230
-0.0000000000000002
  0
LINE
  5
EA9
  8
0
  6
CONTINUOUS
 62
     3
 10
26.3177509885954386
 20
-10.9999999999999005
 30
0.0000000000000024
 11
27.7222447549490987
 21
-10.4733148376173393
 31
0.0000000000000023
210
0.0
220
1.0
230
-0.0000000000000002
  0
LINE
  5
EAA
  8
0
  6
CONTINUOUS
 62
     3
 10
-24.0802483091573514
 20
-45.9999999999999218
 30
0.0000000000000102
 11
30.4197516908426486
 21
-45.9999999999999218
 31
0.0000000000000102
210
0.0
220
1.0
230
-0.0000000000000002
  0
LINE
  5
EAB
  8
0
  6
CONTINUOUS
 62
     3
 10
-24.0802483091573514
 20
-10.9999999999999094
 30
0.0000000000000024
 11
30.4197516908426486
 21
-10.9999999999999094
 31
0.0000000000000024
210
0.0
220
1.0
230
-0.0000000000000002
  0
LINE
  5
EAC
  8
0
  6
CONTINUOUS
 62
     3
 10
30.4197516908426486
 20
-10.9999999999999094
 30
0.0000000000000024
 11
30.4197516908426486
 21
-45.9999999999999218
 31
0.0000000000000102
210
0.0
220
1.0
230
-0.0000000000000002
  0
LINE
  5
EAD
  8
0
  6
CONTINUOUS
 62
     3
 10
-24.0802483091573514
 20
-10.9999999999999094
 30
0.0000000000000024
 11
-24.0802483091573514
 21
-45.9999999999999218
 31
0.0000000000000102
210
0.0
220
1.0
230
-0.0000000000000002
  0
LINE
  5
EAE
  8
0
  6
VERDECKT
 62
     1
 10
-19.600796491265271
 20
45.4052563345081523
 30
-0.0000000000000101
 11
25.940299872950451
 21
45.4052563345082731
 31
-0.0000000000000101
210
0.0
220
1.0
230
-0.0000000000000002
  0
LINE
  5
EAF
  8
0
  6
VERDECKT
 62
     1
 10
23.1472828590747213
 20
-2.5454183212778498
 30
0.0000000000000006
 11
26.3177509885954315
 21
-10.9999999999998899
 31
0.0000000000000024
210
0.0
220
1.0
230
-0.0000000000000002
  0
LINE
  5
EB0
  8
0
  6
VERDECKT
 62
     1
 10
-16.8077794773894382
 20
-2.5454183212778969
 30
0.0000000000000006
 11
-19.9782476069101307
 21
-10.9999999999999396
 31
0.0000000000000024
210
0.0
220
1.0
230
-0.0000000000000002
  0
ARC
  5
EB1
  8
0
  6
VERDECKT
 62
     1
 10
23.8302483091567794
 20
0.0880074906350173
 30
0.0
 40
7.499999999999523
210
0.0
220
-0.0000000000000002
230
-1.0
 50
179.9999999999996874
 51
200.556045219584604
  0
ARC
  5
EB2
  8
0
  6
VERDECKT
 62
     1
 10
-30.1697516908420695
 20
0.088007490635066
 30
0.0
 40
7.499999999999523
210
0.0
220
-0.0000000000000002
230
-1.0
 50
339.4439547804154245
 51
0.0000000000002913
  0
LINE
  5
EB3
  8
0
  6
VERDECKT
 62
     1
 10
22.6697516908425207
 20
11.4944463274079602
 30
-0.0000000000000026
 11
22.6697516908425385
 21
0.088007490635107
 31
0.0
210
0.0
220
1.0
230
-0.0000000000000002
  0
LINE
  5
EB4
  8
0
  6
VERDECKT
 62
     1
 10
-16.3302483091572483
 20
11.4944463274079105
 30
-0.0000000000000026
 11
-16.3302483091572306
 21
0.088007490635059
 31
0.0
210
0.0
220
1.0
230
-0.0000000000000002
  0
ARC
  5
EB5
  8
0
  6
VERDECKT
 62
     1
 10
23.8302483091573585
 20
11.4944463274079691
 30
0.0
 40
7.5000000000000258
210
0.0
220
-0.0000000000000002
230
-1.0
 50
144.3409123038622113
 51
180.0000000000003979
  0
ARC
  5
EB6
  8
0
  6
VERDECKT
 62
     1
 10
-30.169751690842709
 20
11.4944463274079993
 30
0.0
 40
7.5000000000000844
210
0.0
220
-0.0000000000000002
230
-1.0
 50
0.0
 51
35.6590876961378882
  0
ARC
  5
EB7
  8
0
  6
VERDECKT
 62
     1
 10
10.8302483091566693
 20
20.8218253804969606
 30
0.0
 40
8.5000000000006608
210
0.0
220
-0.0000000000000002
230
-1.0
 50
324.3409123038621829
 51
359.9999999999973284
  0
ARC
  5
EB8
  8
0
  6
VERDECKT
 62
     1
 10
-17.1697516908418706
 20
20.8218253804969784
 30
0.0
 40
8.5000000000006395
210
0.0
220
-0.0000000000000002
230
-1.0
 50
180.0000000000023022
 51
215.6590876961373908
  0
LINE
  5
EB9
  8
0
  6
VERDECKT
 62
     1
 10
25.6697516908425314
 20
25.0000000000001812
 30
-0.0000000000000056
 11
25.6697516908425314
 21
20.8218253804966302
 31
-0.0000000000000046
210
0.0
220
1.0
230
-0.0000000000000002
  0
LINE
  5
EBA
  8
0
  6
VERDECKT
 62
     1
 10
-19.3302483091573585
 20
25.0000000000001315
 30
-0.0000000000000056
 11
-19.3302483091573514
 21
20.8218253804965698
 31
-0.0000000000000046
210
0.0
220
1.0
230
-0.0000000000000002
  0
ARC
  5
EBB
  8
0
  6
VERDECKT
 62
     1
 10
30.8302483091563992
 20
25.0000000000002309
 30
0.0
 40
11.4999999999990603
210
0.0
220
-0.0000000000000002
230
-1.0
 50
162.0397718346210922
 51
180.0000000000003979
  0
ARC
  5
EBC
  8
0
  6
VERDECKT
 62
     1
 10
-37.1697516908417782
 20
25.00000000000027
 30
0.0
 40
11.4999999999992699
210
0.0
220
-0.0000000000000002
230
-1.0
 50
359.9999999999996021
 51
17.9602281653787088
  0
ARC
  5
EBD
  8
0
  6
VERDECKT
 62
     1
 10
1.5396485839932159
 20
34.4946192641535632
 30
0.0
 40
19.2910218607797788
210
0.0
220
-0.0000000000000002
230
-1.0
 50
342.0397718346217175
 51
359.6209584640437811
  0
ARC
  5
EBE
  8
0
  6
VERDECKT
 62
     1
 10
-7.8791519656784672
 20
34.4946192641535632
 30
0.0
 40
19.2910218607797006
210
0.0
220
-0.0000000000000002
230
-1.0
 50
180.3790415359559915
 51
197.9602281653781972
  0
LINE
  5
EBF
  8
0
  6
VERDECKT
 62
     1
 10
27.1697516908425314
 20
39.4578196795917577
 30
-0.0000000000000088
 11
27.1697516908425385
 21
34.3670000000002531
 31
-0.0000000000000076
210
0.0
220
1.0
230
-0.0000000000000002
  0
LINE
  5
EC0
  8
0
  6
VERDECKT
 62
     1
 10
-20.8302483091573585
 20
39.457819679591708
 30
-0.0000000000000088
 11
-20.8302483091573514
 21
34.3670000000002034
 31
-0.0000000000000076
210
0.0
220
1.0
230
-0.0000000000000002
  0
ARC
  5
EC1
  8
0
  6
VERDECKT
 62
     1
 10
5.8302483091572004
 20
39.4578196795917506
 30
0.0
 40
15.0000000000001403
210
0.0
220
-0.0000000000000002
230
-1.0
 50
0.0
 51
23.3592945446405302
  0
ARC
  5
EC2
  8
0
  6
VERDECKT
 62
     1
 10
-12.1697516908424106
 20
39.4578196795917719
 30
0.0
 40
15.0000000000001101
210
0.0
220
-0.0000000000000002
230
-1.0
 50
156.6407054553594094
 51
180.0
  0
LINE
  5
EC3
  8
0
  6
VERDECKT
 62
     1
 10
-19.600796491265271
 20
45.4052563345082234
 30
-0.0000000000000101
 11
-20.9778513094760797
 21
45.9999999999998721
 31
-0.0000000000000102
210
0.0
220
1.0
230
-0.0000000000000002
  0
LINE
  5
EC4
  8
0
  6
VERDECKT
 62
     1
 10
25.940299872950451
 20
45.4052563345082589
 30
-0.0000000000000101
 11
27.3173546911612597
 21
45.9999999999999076
 31
-0.0000000000000102
210
0.0
220
1.0
230
-0.0000000000000002
  0
LINE
  5
EC5
  8
0
  6
VERDECKT
 62
     1
 10
-19.2302483091573286
 20
-44.4999999999997513
 30
0.0000000000000099
 11
25.5697516908426188
 21
-44.4999999999997513
 31
0.0000000000000099
210
0.0
220
1.0
230
-0.0000000000000002
  0
LINE
  5
EC6
  8
0
  6
VERDECKT
 62
     1
 10
-20.4727373986435701
 20
-42.9999999999997797
 30
0.0000000000000095
 11
26.8122407803288603
 21
-42.9999999999997797
 31
0.0000000000000095
210
0.0
220
1.0
230
-0.0000000000000002
  0
LINE
  5
EC7
  8
0
  6
VERDECKT
 62
     1
 10
-19.230248309157389
 20
-41.4999999999997513
 30
0.0000000000000092
 11
25.5697516908426792
 21
-41.4999999999997513
 31
0.0000000000000092
210
0.0
220
1.0
230
-0.0000000000000002
  0
LINE
  5
EC8
  8
0
  6
VERDECKT
 62
     1
 10
-20.730248309157389
 20
-39.9999999999997513
 30
0.0000000000000089
 11
27.0697516908426792
 21
-39.9999999999997513
 31
0.0000000000000089
210
0.0
220
1.0
230
-0.0000000000000002
  0
LINE
  5
EC9
  8
0
  6
VERDECKT
 62
     1
 10
-19.230248309157389
 20
-38.4999999999997513
 30
0.0000000000000085
 11
25.5697516908426792
 21
-38.4999999999997513
 31
0.0000000000000085
210
0.0
220
1.0
230
-0.0000000000000002
  0
LINE
  5
ECA
  8
0
  6
VERDECKT
 62
     1
 10
-20.730248309157389
 20
-36.9999999999997797
 30
0.0000000000000082
 11
27.0697516908426792
 21
-36.9999999999997797
 31
0.0000000000000082
210
0.0
220
1.0
230
-0.0000000000000002
  0
LINE
  5
ECB
  8
0
  6
VERDECKT
 62
     1
 10
-19.230248309157389
 20
-35.4999999999997513
 30
0.0000000000000079
 11
25.5697516908426792
 21
-35.4999999999997513
 31
0.0000000000000079
210
0.0
220
1.0
230
-0.0000000000000002
  0
LINE
  5
ECC
  8
0
  6
VERDECKT
 62
     1
 10
-20.730248309157389
 20
-33.9999999999997513
 30
0.0000000000000075
 11
27.0697516908426792
 21
-33.9999999999997513
 31
0.0000000000000075
210
0.0
220
1.0
230
-0.0000000000000002
  0
LINE
  5
ECD
  8
0
  6
VERDECKT
 62
     1
 10
-19.230248309157389
 20
-32.4999999999997513
 30
0.0000000000000072
 11
25.5697516908426792
 21
-32.4999999999997513
 31
0.0000000000000072
210
0.0
220
1.0
230
-0.0000000000000002
  0
LINE
  5
ECE
  8
0
  6
VERDECKT
 62
     1
 10
-20.730248309157389
 20
-30.9999999999997513
 30
0.0000000000000069
 11
27.0697516908426792
 21
-30.9999999999997513
 31
0.0000000000000069
210
0.0
220
1.0
230
-0.0000000000000002
  0
LINE
  5
ECF
  8
0
  6
VERDECKT
 62
     1
 10
-19.230248309157389
 20
-29.4999999999997513
 30
0.0000000000000066
 11
25.5697516908426792
 21
-29.4999999999997513
 31
0.0000000000000066
210
0.0
220
1.0
230
-0.0000000000000002
  0
LINE
  5
ED0
  8
0
  6
VERDECKT
 62
     1
 10
-20.730248309157389
 20
-27.9999999999997513
 30
0.0000000000000062
 11
27.0697516908426792
 21
-27.9999999999997513
 31
0.0000000000000062
210
0.0
220
1.0
230
-0.0000000000000002
  0
LINE
  5
ED1
  8
0
  6
VERDECKT
 62
     1
 10
-19.230248309157389
 20
-26.4999999999997513
 30
0.0000000000000059
 11
25.5697516908426792
 21
-26.4999999999997513
 31
0.0000000000000059
210
0.0
220
1.0
230
-0.0000000000000002
  0
LINE
  5
ED2
  8
0
  6
VERDECKT
 62
     1
 10
-20.730248309157389
 20
-24.9999999999997513
 30
0.0000000000000056
 11
27.0697516908426792
 21
-24.9999999999997513
 31
0.0000000000000056
210
0.0
220
1.0
230
-0.0000000000000002
  0
LINE
  5
ED3
  8
0
  6
VERDECKT
 62
     1
 10
-19.230248309157389
 20
-23.4999999999997513
 30
0.0000000000000052
 11
25.5697516908426792
 21
-23.4999999999997513
 31
0.0000000000000052
210
0.0
220
1.0
230
-0.0000000000000002
  0
LINE
  5
ED4
  8
0
  6
VERDECKT
 62
     1
 10
-20.730248309157389
 20
-21.9999999999997691
 30
0.0000000000000049
 11
27.0697516908426792
 21
-21.9999999999997691
 31
0.0000000000000049
210
0.0
220
1.0
230
-0.0000000000000002
  0
LINE
  5
ED5
  8
0
  6
VERDECKT
 62
     1
 10
-19.230248309157389
 20
-20.4999999999997513
 30
0.0000000000000046
 11
25.5697516908426792
 21
-20.4999999999997513
 31
0.0000000000000046
210
0.0
220
1.0
230
-0.0000000000000002
  0
LINE
  5
ED6
  8
0
  6
VERDECKT
 62
     1
 10
-20.730248309157389
 20
-18.9999999999997513
 30
0.0000000000000042
 11
27.0697516908426792
 21
-18.9999999999997513
 31
0.0000000000000042
210
0.0
220
1.0
230
-0.0000000000000002
  0
LINE
  5
ED7
  8
0
  6
VERDECKT
 62
     1
 10
-19.230248309157389
 20
-17.4999999999997513
 30
0.0000000000000039
 11
25.5697516908426792
 21
-17.4999999999997513
 31
0.0000000000000039
210
0.0
220
1.0
230
-0.0000000000000002
  0
LINE
  5
ED8
  8
0
  6
VERDECKT
 62
     1
 10
-20.730248309157389
 20
-15.9999999999997708
 30
0.0000000000000036
 11
27.0697516908426792
 21
-15.9999999999997708
 31
0.0000000000000036
210
0.0
220
1.0
230
-0.0000000000000002
  0
LINE
  5
ED9
  8
0
  6
VERDECKT
 62
     1
 10
-19.230248309157389
 20
-14.4999999999997495
 30
0.0000000000000032
 11
25.5697516908426792
 21
-14.4999999999997495
 31
0.0000000000000032
210
0.0
220
1.0
230
-0.0000000000000002
  0
LINE
  5
EDA
  8
0
  6
VERDECKT
 62
     1
 10
-20.730248309157389
 20
-12.9999999999997495
 30
0.0000000000000029
 11
27.0697516908426792
 21
-12.9999999999997495
 31
0.0000000000000029
210
0.0
220
1.0
230
-0.0000000000000002
  0
LINE
  5
EDB
  8
0
  6
VERDECKT
 62
     1
 10
-19.5161319495688907
 20
-11.4999999999997407
 30
0.0000000000000026
 11
25.8556353312541809
 21
-11.4999999999997407
 31
0.0000000000000026
210
0.0
220
1.0
230
-0.0000000000000002
  0
LINE
  5
EDC
  8
0
  6
VERDECKT
 62
     1
 10
25.5697516908426401
 20
-44.49999999999973
 30
0.0000000000000099
 11
27.0697516908427005
 21
-45.9999999999997016
 31
0.0000000000000102
210
0.0
220
1.0
230
-0.0000000000000002
  0
LINE
  5
EDD
  8
0
  6
VERDECKT
 62
     1
 10
-19.23024830915735
 20
-44.49999999999973
 30
0.0000000000000099
 11
-20.7302483091574103
 21
-45.9999999999997016
 31
0.0000000000000102
210
0.0
220
1.0
230
-0.0000000000000002
  0
LINE
  5
EDE
  8
0
  6
VERDECKT
 62
     1
 10
-19.2302483091573215
 20
-44.4999999999997371
 30
0.0000000000000099
 11
-20.4727373986435701
 21
-42.9999999999997726
 31
0.0000000000000095
210
0.0
220
1.0
230
-0.0000000000000002
  0
LINE
  5
EDF
  8
0
  6
VERDECKT
 62
     1
 10
25.5697516908426117
 20
-44.4999999999997371
 30
0.0000000000000099
 11
26.8122407803288496
 21
-42.9999999999997726
 31
0.0000000000000095
210
0.0
220
1.0
230
-0.0000000000000002
  0
LINE
  5
EE0
  8
0
  6
VERDECKT
 62
     1
 10
25.5697516908426685
 20
-41.4999999999997584
 30
0.0000000000000092
 11
26.8122407803288603
 21
-42.9999999999997797
 31
0.0000000000000095
210
0.0
220
1.0
230
-0.0000000000000002
  0
LINE
  5
EE1
  8
0
  6
VERDECKT
 62
     1
 10
-19.2302483091573784
 20
-41.4999999999997584
 30
0.0000000000000092
 11
-20.4727373986435701
 21
-42.9999999999997797
 31
0.0000000000000095
210
0.0
220
1.0
230
-0.0000000000000002
  0
LINE
  5
EE2
  8
0
  6
VERDECKT
 62
     1
 10
-19.230248309157389
 20
-41.4999999999997513
 30
0.0000000000000092
 11
-20.730248309157389
 21
-39.9999999999997513
 31
0.0000000000000089
210
0.0
220
1.0
230
-0.0000000000000002
  0
LINE
  5
EE3
  8
0
  6
VERDECKT
 62
     1
 10
25.5697516908426792
 20
-41.4999999999997513
 30
0.0000000000000092
 11
27.0697516908426792
 21
-39.9999999999997513
 31
0.0000000000000089
210
0.0
220
1.0
230
-0.0000000000000002
  0
LINE
  5
EE4
  8
0
  6
VERDECKT
 62
     1
 10
25.5697516908426792
 20
-38.4999999999997513
 30
0.0000000000000085
 11
27.0697516908426792
 21
-39.9999999999997513
 31
0.0000000000000089
210
0.0
220
1.0
230
-0.0000000000000002
  0
LINE
  5
EE5
  8
0
  6
VERDECKT
 62
     1
 10
-19.230248309157389
 20
-38.4999999999997513
 30
0.0000000000000085
 11
-20.730248309157389
 21
-39.9999999999997513
 31
0.0000000000000089
210
0.0
220
1.0
230
-0.0000000000000002
  0
LINE
  5
EE6
  8
0
  6
VERDECKT
 62
     1
 10
-19.230248309157389
 20
-38.4999999999997584
 30
0.0000000000000085
 11
-20.730248309157389
 21
-36.9999999999997868
 31
0.0000000000000082
210
0.0
220
1.0
230
-0.0000000000000002
  0
LINE
  5
EE7
  8
0
  6
VERDECKT
 62
     1
 10
25.5697516908426898
 20
-38.4999999999997584
 30
0.0000000000000085
 11
27.0697516908426898
 21
-36.9999999999997868
 31
0.0000000000000082
210
0.0
220
1.0
230
-0.0000000000000002
  0
LINE
  5
EE8
  8
0
  6
VERDECKT
 62
     1
 10
25.5697516908426685
 20
-35.4999999999997584
 30
0.0000000000000079
 11
27.0697516908426685
 21
-36.9999999999997868
 31
0.0000000000000082
210
0.0
220
1.0
230
-0.0000000000000002
  0
LINE
  5
EE9
  8
0
  6
VERDECKT
 62
     1
 10
-19.2302483091573784
 20
-35.4999999999997584
 30
0.0000000000000079
 11
-20.7302483091573784
 21
-36.9999999999997868
 31
0.0000000000000082
210
0.0
220
1.0
230
-0.0000000000000002
  0
LINE
  5
EEA
  8
0
  6
VERDECKT
 62
     1
 10
-19.230248309157389
 20
-35.4999999999997513
 30
0.0000000000000079
 11
-20.730248309157389
 21
-33.9999999999997513
 31
0.0000000000000075
210
0.0
220
1.0
230
-0.0000000000000002
  0
LINE
  5
EEB
  8
0
  6
VERDECKT
 62
     1
 10
25.5697516908426792
 20
-35.4999999999997513
 30
0.0000000000000079
 11
27.0697516908426792
 21
-33.9999999999997513
 31
0.0000000000000075
210
0.0
220
1.0
230
-0.0000000000000002
  0
LINE
  5
EEC
  8
0
  6
VERDECKT
 62
     1
 10
25.5697516908426792
 20
-32.4999999999997513
 30
0.0000000000000072
 11
27.0697516908426792
 21
-33.9999999999997513
 31
0.0000000000000075
210
0.0
220
1.0
230
-0.0000000000000002
  0
LINE
  5
EED
  8
0
  6
VERDECKT
 62
     1
 10
-19.230248309157389
 20
-32.4999999999997513
 30
0.0000000000000072
 11
-20.730248309157389
 21
-33.9999999999997513
 31
0.0000000000000075
210
0.0
220
1.0
230
-0.0000000000000002
  0
LINE
  5
EEE
  8
0
  6
VERDECKT
 62
     1
 10
-19.230248309157389
 20
-32.4999999999997513
 30
0.0000000000000072
 11
-20.730248309157389
 21
-30.9999999999997513
 31
0.0000000000000069
210
0.0
220
1.0
230
-0.0000000000000002
  0
LINE
  5
EEF
  8
0
  6
VERDECKT
 62
     1
 10
25.5697516908426792
 20
-32.4999999999997513
 30
0.0000000000000072
 11
27.0697516908426792
 21
-30.9999999999997513
 31
0.0000000000000069
210
0.0
220
1.0
230
-0.0000000000000002
  0
LINE
  5
EF0
  8
0
  6
VERDECKT
 62
     1
 10
25.5697516908426792
 20
-29.4999999999997513
 30
0.0000000000000066
 11
27.0697516908426792
 21
-30.9999999999997513
 31
0.0000000000000069
210
0.0
220
1.0
230
-0.0000000000000002
  0
LINE
  5
EF1
  8
0
  6
VERDECKT
 62
     1
 10
-19.230248309157389
 20
-29.4999999999997513
 30
0.0000000000000066
 11
-20.730248309157389
 21
-30.9999999999997513
 31
0.0000000000000069
210
0.0
220
1.0
230
-0.0000000000000002
  0
LINE
  5
EF2
  8
0
  6
VERDECKT
 62
     1
 10
-19.230248309157389
 20
-29.4999999999997513
 30
0.0000000000000066
 11
-20.730248309157389
 21
-27.9999999999997513
 31
0.0000000000000062
210
0.0
220
1.0
230
-0.0000000000000002
  0
LINE
  5
EF3
  8
0
  6
VERDECKT
 62
     1
 10
25.5697516908426792
 20
-29.4999999999997513
 30
0.0000000000000066
 11
27.0697516908426792
 21
-27.9999999999997513
 31
0.0000000000000062
210
0.0
220
1.0
230
-0.0000000000000002
  0
LINE
  5
EF4
  8
0
  6
VERDECKT
 62
     1
 10
25.5697516908426792
 20
-26.4999999999997513
 30
0.0000000000000059
 11
27.0697516908426792
 21
-27.9999999999997513
 31
0.0000000000000062
210
0.0
220
1.0
230
-0.0000000000000002
  0
LINE
  5
EF5
  8
0
  6
VERDECKT
 62
     1
 10
-19.230248309157389
 20
-26.4999999999997513
 30
0.0000000000000059
 11
-20.730248309157389
 21
-27.9999999999997513
 31
0.0000000000000062
210
0.0
220
1.0
230
-0.0000000000000002
  0
LINE
  5
EF6
  8
0
  6
VERDECKT
 62
     1
 10
-19.230248309157389
 20
-26.4999999999997513
 30
0.0000000000000059
 11
-20.730248309157389
 21
-24.9999999999997513
 31
0.0000000000000056
210
0.0
220
1.0
230
-0.0000000000000002
  0
LINE
  5
EF7
  8
0
  6
VERDECKT
 62
     1
 10
25.5697516908426792
 20
-26.4999999999997513
 30
0.0000000000000059
 11
27.0697516908426792
 21
-24.9999999999997513
 31
0.0000000000000056
210
0.0
220
1.0
230
-0.0000000000000002
  0
LINE
  5
EF8
  8
0
  6
VERDECKT
 62
     1
 10
25.5697516908426792
 20
-23.4999999999997513
 30
0.0000000000000052
 11
27.0697516908426792
 21
-24.9999999999997513
 31
0.0000000000000056
210
0.0
220
1.0
230
-0.0000000000000002
  0
LINE
  5
EF9
  8
0
  6
VERDECKT
 62
     1
 10
-19.230248309157389
 20
-23.4999999999997513
 30
0.0000000000000052
 11
-20.730248309157389
 21
-24.9999999999997513
 31
0.0000000000000056
210
0.0
220
1.0
230
-0.0000000000000002
  0
LINE
  5
EFA
  8
0
  6
VERDECKT
 62
     1
 10
-19.230248309157389
 20
-23.4999999999997584
 30
0.0000000000000052
 11
-20.730248309157389
 21
-21.9999999999997797
 31
0.0000000000000049
210
0.0
220
1.0
230
-0.0000000000000002
  0
LINE
  5
EFB
  8
0
  6
VERDECKT
 62
     1
 10
25.5697516908426898
 20
-23.4999999999997584
 30
0.0000000000000052
 11
27.0697516908426898
 21
-21.9999999999997797
 31
0.0000000000000049
210
0.0
220
1.0
230
-0.0000000000000002
  0
LINE
  5
EFC
  8
0
  6
VERDECKT
 62
     1
 10
25.5697516908426685
 20
-20.4999999999997513
 30
0.0000000000000046
 11
27.0697516908426685
 21
-21.9999999999997797
 31
0.0000000000000049
210
0.0
220
1.0
230
-0.0000000000000002
  0
LINE
  5
EFD
  8
0
  6
VERDECKT
 62
     1
 10
-19.2302483091573784
 20
-20.4999999999997513
 30
0.0000000000000046
 11
-20.7302483091573784
 21
-21.9999999999997797
 31
0.0000000000000049
210
0.0
220
1.0
230
-0.0000000000000002
  0
LINE
  5
EFE
  8
0
  6
VERDECKT
 62
     1
 10
-19.230248309157389
 20
-20.4999999999997513
 30
0.0000000000000046
 11
-20.730248309157389
 21
-18.9999999999997513
 31
0.0000000000000042
210
0.0
220
1.0
230
-0.0000000000000002
  0
LINE
  5
EFF
  8
0
  6
VERDECKT
 62
     1
 10
25.5697516908426792
 20
-20.4999999999997513
 30
0.0000000000000046
 11
27.0697516908426792
 21
-18.9999999999997513
 31
0.0000000000000042
210
0.0
220
1.0
230
-0.0000000000000002
  0
LINE
  5
F00
  8
0
  6
VERDECKT
 62
     1
 10
25.5697516908426792
 20
-17.4999999999997513
 30
0.0000000000000039
 11
27.0697516908426792
 21
-18.9999999999997513
 31
0.0000000000000042
210
0.0
220
1.0
230
-0.0000000000000002
  0
LINE
  5
F01
  8
0
  6
VERDECKT
 62
     1
 10
-19.230248309157389
 20
-17.4999999999997513
 30
0.0000000000000039
 11
-20.730248309157389
 21
-18.9999999999997513
 31
0.0000000000000042
210
0.0
220
1.0
230
-0.0000000000000002
  0
LINE
  5
F02
  8
0
  6
VERDECKT
 62
     1
 10
-19.230248309157389
 20
-17.4999999999997513
 30
0.0000000000000039
 11
-20.730248309157389
 21
-15.9999999999997797
 31
0.0000000000000036
210
0.0
220
1.0
230
-0.0000000000000002
  0
LINE
  5
F03
  8
0
  6
VERDECKT
 62
     1
 10
25.5697516908426898
 20
-17.4999999999997513
 30
0.0000000000000039
 11
27.0697516908426898
 21
-15.9999999999997797
 31
0.0000000000000036
210
0.0
220
1.0
230
-0.0000000000000002
  0
LINE
  5
F04
  8
0
  6
VERDECKT
 62
     1
 10
25.5697516908426685
 20
-14.4999999999997495
 30
0.0000000000000032
 11
27.0697516908426685
 21
-15.9999999999997797
 31
0.0000000000000036
210
0.0
220
1.0
230
-0.0000000000000002
  0
LINE
  5
F05
  8
0
  6
VERDECKT
 62
     1
 10
-19.2302483091573784
 20
-14.4999999999997495
 30
0.0000000000000032
 11
-20.7302483091573784
 21
-15.9999999999997797
 31
0.0000000000000036
210
0.0
220
1.0
230
-0.0000000000000002
  0
LINE
  5
F06
  8
0
  6
VERDECKT
 62
     1
 10
-19.230248309157389
 20
-14.4999999999997495
 30
0.0000000000000032
 11
-20.730248309157389
 21
-12.9999999999997495
 31
0.0000000000000029
210
0.0
220
1.0
230
-0.0000000000000002
  0
LINE
  5
F07
  8
0
  6
VERDECKT
 62
     1
 10
25.5697516908426792
 20
-14.4999999999997495
 30
0.0000000000000032
 11
27.0697516908426792
 21
-12.9999999999997495
 31
0.0000000000000029
210
0.0
220
1.0
230
-0.0000000000000002
  0
LINE
  5
F08
  8
0
  6
VERDECKT
 62
     1
 10
25.8556353312541809
 20
-11.4999999999997407
 30
0.0000000000000026
 11
27.0697516908426792
 21
-12.9999999999997495
 31
0.0000000000000029
210
0.0
220
1.0
230
-0.0000000000000002
  0
LINE
  5
F09
  8
0
  6
VERDECKT
 62
     1
 10
-19.5161319495688907
 20
-11.4999999999997407
 30
0.0000000000000026
 11
-20.730248309157389
 21
-12.9999999999997495
 31
0.0000000000000029
210
0.0
220
1.0
230
-0.0000000000000002
  0
LINE
  5
F0A
  8
0
  6
VERDECKT
 62
     1
 10
-19.5161319495688907
 20
-11.4999999999997407
 30
0.0000000000000026
 11
-20.730248309157389
 21
-10.9999999999999094
 31
0.0000000000000024
210
0.0
220
1.0
230
-0.0000000000000002
  0
LINE
  5
F0B
  8
0
  6
VERDECKT
 62
     1
 10
25.8556353312541809
 20
-11.4999999999997407
 30
0.0000000000000026
 11
27.0697516908426792
 21
-10.9999999999999094
 31
0.0000000000000024
210
0.0
220
1.0
230
-0.0000000000000002
  0
ENDBLK
  5
F0D
  8
0
  0
ENDSEC
  0
SECTION
  2
ENTITIES
  0
TEXT
  5
9A
  8
VOLL
 10
78.076754716981128
 20
31.025947764705851
 30
0.0
 40
1.8
  1

  7
GREEKS
  0
TEXT
  5
A2
  8
VOLL
 10
374.5313728989685274
 20
41.9117837468155372
 30
0.0
 40
1.8
  1

  7
GREEKS
  0
TEXT
  5
A3
  8
VOLL
 10
749.8169018025256491
 20
61.0071402015720707
 30
0.0
 40
1.8
  1

  7
GREEKS
  0
TEXT
  5
A4
  8
TEXT
 10
1081.6491700061180836
 20
66.5653757347976125
 30
0.0
 40
2.5
  1
  
  7
GREEKS
 72
     1
 11
1083.9110747680228997
 21
66.5653757347976125
 31
0.0
  0
TEXT
  5
A5
  8
BEM
 10
1325.7688873186009459
 20
202.1242577651998999
 30
0.0
 40
2.5
  1
 
 72
     4
 11
1326.8998396995530129
 21
202.1242577651998999
 31
0.0
  0
TEXT
  5
A6
  8
BEM
 10
904.9565039593214806
 20
81.3405510912486278
 30
0.0
 40
2.5
  1

  7
GREEKS
  0
TEXT
  5
A7
  8
VOLL
 10
890.8903109396002264
 20
61.1572904342135004
 30
0.0
 40
1.8
  1

  7
GREEKS
  0
TEXT
  5
A8
  8
BEM
 10
925.3783757788846742
 20
65.8830147574341112
 30
0.0
 40
2.5
  1

 41
0.8
  7
GREEKS
  0
TEXT
  5
A9
  8
BEM
 10
925.3783757788846742
 20
61.1892462033819484
 30
0.0
 40
2.5
  1

 41
0.8
  7
GREEKS
  0
TEXT
  5
AA
  8
BEM
 10
925.3783757788846742
 20
55.9514023847184632
 30
0.0
 40
2.5
  1

 41
0.8
  7
GREEKS
  0
TEXT
  5
AB
  8
BEM
 10
925.3054313015102252
 20
51.4462134346208302
 30
0.0
 40
1.8
  1

 41
0.8
  7
GREEKS
  0
TEXT
  5
AC
  8
BEM
 10
912.6218604218991004
 20
77.0378025308461218
 30
0.0
 40
2.0
  1

 41
0.8
  7
GREEKS
 72
     1
 11
912.6218604218991004
 21
77.0378025308461218
 31
0.0
  0
TEXT
  5
AD
  8
TEXT
 10
1222.7225791431928883
 20
66.7155259674390635
 30
0.0
 40
2.5
  1
  
  7
GREEKS
 72
     1
 11
1224.9844839050979317
 21
66.7155259674390635
 31
0.0
  0
TEXT
  5
AE
  8
BEM
 10
1466.8422964556750685
 20
202.2744079978413083
 30
0.0
 40
2.5
  1
 
 72
     4
 11
1467.9732488366269081
 21
202.2744079978413083
 31
0.0
  0
TEXT
  5
AF
  8
VOLL
 10
1219.7168335256828868
 20
64.7699255158756557
 30
0.0
 40
1.8
  1

  7
GREEKS
  0
TEXT
  5
B0
  8
VOLL
 10
1787.5270597093499418
 20
41.914206143410432
 30
0.0
 40
1.8
  1

  7
GREEKS
  0
TEXT
  5
B1
  8
TEXT
 10
2119.3593279129440816
 20
47.4724416766359667
 30
0.0
 40
2.5
  1
  
  7
GREEKS
 72
     1
 11
2121.6212326748482155
 21
47.4724416766359667
 31
0.0
  0
TEXT
  5
B2
  8
BEM
 10
2363.479045225425125
 20
183.0313237070382115
 30
0.0
 40
2.5
  1
 
 72
     4
 11
2364.6099976063769645
 21
183.0313237070382115
 31
0.0
  0
TEXT
  5
B3
  8
BEM
 10
1942.666661866145887
 20
62.2476170330870033
 30
0.0
 40
2.5
  1

  7
GREEKS
  0
TEXT
  5
B4
  8
VOLL
 10
1928.6004688464249739
 20
42.064356376051883
 30
0.0
 40
1.8
  1

  7
GREEKS
  0
TEXT
  5
B5
  8
BEM
 10
1963.0885336857090806
 20
46.7900806992724796
 30
0.0
 40
2.5
  1

 41
0.8
  7
GREEKS
  0
TEXT
  5
B6
  8
BEM
 10
1963.0885336857090806
 20
42.0963121452203168
 30
0.0
 40
2.5
  1

 41
0.8
  7
GREEKS
  0
TEXT
  5
B7
  8
BEM
 10
1963.0885336857090806
 20
36.8584683265568316
 30
0.0
 40
2.5
  1

 41
0.8
  7
GREEKS
  0
TEXT
  5
B8
  8
BEM
 10
1963.0155892083350864
 20
32.3532793764591986
 30
0.0
 40
1.8
  1

 41
0.8
  7
GREEKS
  0
TEXT
  5
B9
  8
BEM
 10
1950.3320183287239615
 20
57.9448684726844903
 30
0.0
 40
2.0
  1

 41
0.8
  7
GREEKS
 72
     1
 11
1950.3320183287239615
 21
57.9448684726844903
 31
0.0
  0
TEXT
  5
BA
  8
TEXT
 10
2260.4327370500182042
 20
47.6225919092774319
 30
0.0
 40
2.5
  1
  
  7
GREEKS
 72
     1
 11
2262.6946418119218833
 21
47.6225919092774319
 31
0.0
  0
TEXT
  5
BB
  8
BEM
 10
2504.552454362500157
 20
183.1814739396795915
 30
0.0
 40
2.5
  1
 
 72
     4
 11
2505.6834067434529061
 21
183.1814739396795915
 31
0.0
  0
TEXT
  5
CA
  8
VOLL
 10
1506.4677879384169046
 20
40.7364321320704903
 30
0.0
 40
1.8
  1

  7
GREEKS
  0
TEXT
  5
12E
  8
VOLL
 10
416.704720304656405
 20
33.8819463953942304
 30
0.0
 40
1.8
  1

  7
GREEKS
  0
TEXT
  5
12F
  8
VOLL
 10
791.9902492082136405
 20
52.9773028501507426
 30
0.0
 40
1.8
  1

  7
GREEKS
  0
TEXT
  5
130
  8
TEXT
 10
1123.822517411806075
 20
58.5355383833762772
 30
0.0
 40
2.5
  1
  
  7
GREEKS
 72
     1
 11
1126.084422173710891
 21
58.5355383833762772
 31
0.0
  0
TEXT
  5
131
  8
BEM
 10
1367.9422347242889373
 20
194.0944204137784936
 30
0.0
 40
2.5
  1
 
 72
     4
 11
1369.0731871052410042
 21
194.0944204137784936
 31
0.0
  0
TEXT
  5
132
  8
BEM
 10
947.1298513650094719
 20
73.3107137398272926
 30
0.0
 40
2.5
  1

  7
GREEKS
  0
TEXT
  5
133
  8
VOLL
 10
933.0636583452879904
 20
53.1274530827921723
 30
0.0
 40
1.8
  1

  7
GREEKS
  0
TEXT
  5
134
  8
BEM
 10
967.5517231845726656
 20
57.853177406012783
 30
0.0
 40
2.5
  1

 41
0.8
  7
GREEKS
  0
TEXT
  5
135
  8
BEM
 10
967.5517231845726656
 20
53.1594088519606203
 30
0.0
 40
2.5
  1

 41
0.8
  7
GREEKS
  0
TEXT
  5
136
  8
BEM
 10
967.5517231845726656
 20
47.9215650332971279
 30
0.0
 40
2.5
  1

 41
0.8
  7
GREEKS
  0
TEXT
  5
137
  8
BEM
 10
967.4787787071982166
 20
43.4163760831994878
 30
0.0
 40
1.8
  1

 41
0.8
  7
GREEKS
  0
TEXT
  5
138
  8
BEM
 10
954.7952078275870917
 20
69.0079651794247866
 30
0.0
 40
2.0
  1

 41
0.8
  7
GREEKS
 72
     1
 11
954.7952078275870917
 21
69.0079651794247866
 31
0.0
  0
TEXT
  5
139
  8
TEXT
 10
1264.895926548881107
 20
58.6856886160177211
 30
0.0
 40
2.5
  1
  
  7
GREEKS
 72
     1
 11
1267.1578313107859231
 21
58.6856886160177211
 31
0.0
  0
TEXT
  5
13A
  8
BEM
 10
1509.0156438613630598
 20
194.244570646419902
 30
0.0
 40
2.5
  1
 
 72
     4
 11
1510.1465962423148994
 21
194.244570646419902
 31
0.0
  0
TEXT
  5
13B
  8
VOLL
 10
1261.8901809313711055
 20
56.7400881644543205
 30
0.0
 40
1.8
  1

  7
GREEKS
  0
TEXT
  5
13C
  8
VOLL
 10
1829.7004071150379332
 20
33.884368791989111
 30
0.0
 40
1.8
  1

  7
GREEKS
  0
TEXT
  5
13D
  8
TEXT
 10
2161.5326753186309361
 20
39.4426043252146528
 30
0.0
 40
2.5
  1
  
  7
GREEKS
 72
     1
 11
2163.7945800805359795
 21
39.4426043252146528
 31
0.0
  0
TEXT
  5
13E
  8
BEM
 10
2405.6523926311128889
 20
175.0014863556168905
 30
0.0
 40
2.5
  1
 
 72
     4
 11
2406.7833450120651833
 21
175.0014863556168905
 31
0.0
  0
TEXT
  5
13F
  8
BEM
 10
1984.8400092718341057
 20
54.217779681665661
 30
0.0
 40
2.5
  1

  7
GREEKS
  0
TEXT
  5
140
  8
VOLL
 10
1970.7738162521129652
 20
34.0345190246305478
 30
0.0
 40
1.8
  1

  7
GREEKS
  0
TEXT
  5
141
  8
BEM
 10
2005.2618810913979814
 20
38.7602433478511372
 30
0.0
 40
2.5
  1

 41
0.8
  7
GREEKS
  0
TEXT
  5
142
  8
BEM
 10
2005.2618810913979814
 20
34.0664747937989887
 30
0.0
 40
2.5
  1

 41
0.8
  7
GREEKS
  0
TEXT
  5
143
  8
BEM
 10
2005.2618810913979814
 20
28.8286309751354999
 30
0.0
 40
2.5
  1

 41
0.8
  7
GREEKS
  0
TEXT
  5
144
  8
BEM
 10
2005.1889366140230777
 20
24.3234420250378705
 30
0.0
 40
1.8
  1

 41
0.8
  7
GREEKS
  0
TEXT
  5
145
  8
BEM
 10
1992.5053657344110434
 20
49.9150311212631621
 30
0.0
 40
2.0
  1

 41
0.8
  7
GREEKS
 72
     1
 11
1992.5053657344110434
 21
49.9150311212631621
 31
0.0
  0
TEXT
  5
146
  8
TEXT
 10
2302.6060844557059681
 20
39.5927545578560967
 30
0.0
 40
2.5
  1
  
  7
GREEKS
 72
     1
 11
2304.8679892176110116
 21
39.5927545578560967
 31
0.0
  0
TEXT
  5
147
  8
BEM
 10
2546.725801768187921
 20
175.1516365882582988
 30
0.0
 40
2.5
  1
 
 72
     4
 11
2547.8567541491402153
 21
175.1516365882582988
 31
0.0
  0
TEXT
  5
148
  8
VOLL
 10
1548.6411353441048959
 20
32.7065947806491621
 30
0.0
 40
1.8
  1

  7
GREEKS
  0
TEXT
  5
217
  8
VOLL
 10
78.076754716981128
 20
31.025947764705851
 30
0.0
 40
1.8
  1

  7
GREEKS
  0
TEXT
  5
226
  8
TEXT35
 10
253.0700146553600121
 20
252.5107486555118896
 30
0.0
 40
3.5
  1

 41
0.8
  0
INSERT
  5
619
  8
ADSK_ASSOC_ENTITY_BACKUPS
  2
*S2
 10
0.0
 20
0.0
 30
0.0
  0
INSERT
  5
E8F
  8
VOLL
  2
A$C07AA6E70
 10
-375.3597181251781194
 20
-199.4834299670534961
 30
0.0000000000000639
  0
INSERT
  5
F0E
  8
VOLL
  2
A$C4588586B
 10
-3.1697516908425878
 20
93.8633011247656839
 30
-0.0000000000000142
  0
VIEWPORT
  5
5F6
 67
     1
  8
0
 10
392.1245777972249016
 20
289.5828107999191161
 30
0.0
 40
1437.7304859796679466
 41
763.6751454043195508
 68
     1
 69
     1
1001
ACAD
1000
MVIEW
1002
{
1070
    16
1010
0.0
1020
0.0
1030
0.0
1010
0.0
1020
0.0
1030
1.0
1040
0.0
1040
763.6751454043195508
1040
392.1245777972249016
1040
289.5828107999191161
1040
50.0
1040
0.0
1040
0.0
1070
     0
1070
  1500
1070
     1
1070
     1
1070
     0
1070
     0
1070
     0
1070
     0
1040
0.0
1040
0.0
1040
0.0
1040
10.0
1040
10.0
1040
10.0
1040
10.0
1070
     0
1002
{
1002
}
1002
}
  0
TEXT
  5
8D1
 67
     1
  8
VOLL
 10
219.2551068451807055
 20
282.7949979247374017
 30
0.0
 40
1.8
  1

  7
GREEKS
  0
ENDSEC
  0
EOF
