  0
SECTION
  2
HEADER
  9
$ACADVER
  1
AC1009
  9
$INSBASE
 10
0.0
 20
0.0
 30
0.0
  9
$EXTMIN
 10
-57.0881500129307824
 20
-210.0205071734037858
 30
-0.0040280129808821
  9
$EXTMAX
 10
55.0034544208966665
 20
132.0107428149912039
 30
0.0060426341438529
  9
$LIMMIN
 10
0.0
 20
0.0
  9
$LIMMAX
 10
210.0
 20
297.0
  9
$ORTHOMODE
 70
     1
  9
$REGENMODE
 70
     1
  9
$FILLMODE
 70
     1
  9
$QTEXTMODE
 70
     0
  9
$MIRRTEXT
 70
     1
  9
$DRAGMODE
 70
     2
  9
$LTSCALE
 40
10.0
  9
$OSMODE
 70
  2559
  9
$ATTMODE
 70
     1
  9
$TEXTSIZE
 40
3.5
  9
$TRACEWID
 40
0.5
  9
$TEXTSTYLE
  7
STANDARD
  9
$CLAYER
  8
STEMPEL
  9
$CELTYPE
  6
BYLAYER
  9
$CECOLOR
 62
   256
  9
$DIMSCALE
 40
1.0
  9
$DIMASZ
 40
3.5
  9
$DIMEXO
 40
1.0
  9
$DIMDLI
 40
7.0
  9
$DIMRND
 40
0.0
  9
$DIMDLE
 40
0.0
  9
$DIMEXE
 40
1.0
  9
$DIMTP
 40
0.0
  9
$DIMTM
 40
0.0
  9
$DIMTXT
 40
3.5
  9
$DIMCEN
 40
1.5
  9
$DIMTSZ
 40
0.0
  9
$DIMTOL
 70
     0
  9
$DIMLIM
 70
     0
  9
$DIMTIH
 70
     0
  9
$DIMTOH
 70
     0
  9
$DIMSE1
 70
     0
  9
$DIMSE2
 70
     0
  9
$DIMTAD
 70
     1
  9
$DIMZIN
 70
     8
  9
$DIMBLK
  1

  9
$DIMASO
 70
     1
  9
$DIMSHO
 70
     0
  9
$DIMPOST
  1

  9
$DIMAPOST
  1

  9
$DIMALT
 70
     0
  9
$DIMALTD
 70
     2
  9
$DIMALTF
 40
25.3999999999999986
  9
$DIMLFAC
 40
1.0
  9
$DIMTOFL
 70
     1
  9
$DIMTVP
 40
0.0
  9
$DIMTIX
 70
     0
  9
$DIMSOXD
 70
     0
  9
$DIMSAH
 70
     0
  9
$DIMBLK1
  1

  9
$DIMBLK2
  1

  9
$DIMSTYLE
  2
STANDARD
  9
$DIMCLRD
 70
     0
  9
$DIMCLRE
 70
     0
  9
$DIMCLRT
 70
     1
  9
$DIMTFAC
 40
0.5142857142857143
  9
$DIMGAP
 40
1.5
  9
$LUNITS
 70
     2
  9
$LUPREC
 70
     2
  9
$SKETCHINC
 40
1.0
  9
$FILLETRAD
 40
0.0
  9
$AUNITS
 70
     0
  9
$AUPREC
 70
     0
  9
$MENU
  1
ACAD
  9
$ELEVATION
 40
0.0
  9
$PELEVATION
 40
0.0
  9
$THICKNESS
 40
0.0
  9
$LIMCHECK
 70
     0
  9
$BLIPMODE
 70
     0
  9
$CHAMFERA
 40
0.0
  9
$CHAMFERB
 40
0.0
  9
$SKPOLY
 70
     0
  9
$TDCREATE
 40
2455397.8646990740671754
  9
$TDUPDATE
 40
2458376.5800810190849006
  9
$TDINDWG
 40
0.0528833218
  9
$TDUSRTIMER
 40
0.0528833218
  9
$USRTIMER
 70
     1
  9
$ANGBASE
 50
0.0
  9
$ANGDIR
 70
     0
  9
$PDMODE
 70
     0
  9
$PDSIZE
 40
0.0
  9
$PLINEWID
 40
0.0
  9
$COORDS
 70
     1
  9
$SPLFRAME
 70
     0
  9
$SPLINETYPE
 70
     6
  9
$SPLINESEGS
 70
     8
  9
$ATTDIA
 70
     1
  9
$ATTREQ
 70
     1
  9
$HANDLING
 70
     1
  9
$HANDSEED
  5
97C
  9
$SURFTAB1
 70
     6
  9
$SURFTAB2
 70
     6
  9
$SURFTYPE
 70
     6
  9
$SURFU
 70
     6
  9
$SURFV
 70
     6
  9
$UCSNAME
  2

  9
$UCSORG
 10
0.0
 20
0.0
 30
0.0
  9
$UCSXDIR
 10
1.0
 20
0.0
 30
0.0
  9
$UCSYDIR
 10
0.0
 20
1.0
 30
0.0
  9
$PUCSNAME
  2

  9
$PUCSORG
 10
0.0
 20
0.0
 30
0.0
  9
$PUCSXDIR
 10
1.0
 20
0.0
 30
0.0
  9
$PUCSYDIR
 10
0.0
 20
1.0
 30
0.0
  9
$USERI1
 70
     0
  9
$USERI2
 70
     0
  9
$USERI3
 70
     0
  9
$USERI4
 70
     0
  9
$USERI5
 70
     0
  9
$USERR1
 40
0.0
  9
$USERR2
 40
0.0
  9
$USERR3
 40
0.0
  9
$USERR4
 40
0.0
  9
$USERR5
 40
0.0
  9
$WORLDVIEW
 70
     1
  9
$SHADEDGE
 70
     3
  9
$SHADEDIF
 70
    70
  9
$TILEMODE
 70
     1
  9
$MAXACTVP
 70
    16
  9
$PLIMCHECK
 70
     0
  9
$PEXTMIN
 10
-0.227235898459746
 20
-0.2321049772969985
 30
-0.0000000349181948
  9
$PEXTMAX
 10
15.7922254494358896
 20
21.878308997951379
 30
0.0000000814935746
  9
$PLIMMIN
 10
-0.2500002402958907
 20
-0.2499999962453767
  9
$PLIMMAX
 10
10.7499995194082203
 20
8.2499997634587334
  9
$UNITMODE
 70
     0
  9
$VISRETAIN
 70
     0
  9
$PLINEGEN
 70
     0
  9
$PSLTSCALE
 70
     0
  0
ENDSEC
  0
SECTION
  2
TABLES
  0
TABLE
  2
VPORT
 70
     1
  0
VPORT
  2
*ACTIVE
 70
     0
 10
0.0
 20
0.0
 11
1.0
 21
1.0
 12
-1.042347796017054
 22
-77.5068009719308861
 13
0.0
 23
0.0
 14
1.0
 24
1.0
 15
10.0
 25
10.0
 16
-0.0000000000001239
 26
0.0
 36
557.9304383189239616
 17
0.0
 27
38.5019187927246094
 37
-0.0000000000000147
 40
343.7748247546909965
 41
1.868197278911564
 42
50.0
 43
0.0
 44
0.0
 50
0.0
 51
0.0
 71
     0
 72
  1500
 73
     1
 74
     0
 75
     0
 76
     0
 77
     0
 78
     0
  0
ENDTAB
  0
TABLE
  2
LTYPE
 70
     4
  0
LTYPE
  2
CONTINUOUS
 70
     0
  3
Solid line
 72
    65
 73
     0
 40
0.0
  0
LTYPE
  2
AUSGEZOGEN
 70
     0
  3
Ausgezogene Linie
 72
    65
 73
     0
 40
0.0
  0
LTYPE
  2
VERDECKT
 70
     0
  3
_ _ _ _ _ _ _ _ _ _ _ _ _ _ _ _ _ _ _ _ _ _ _
 72
    65
 73
     2
 40
0.375
 49
0.25
 49
-0.125
  0
ENDTAB
  0
TABLE
  2
LAYER
 70
    10
  0
LAYER
  2
0
 70
     0
 62
     7
  6
CONTINUOUS
  0
LAYER
  2
VOLL
 70
     0
 62
     1
  6
CONTINUOUS
  0
LAYER
  2
STEMPEL
 70
     0
 62
     3
  6
CONTINUOUS
  0
LAYER
  2
DEFPOINTS
 70
     0
 62
     7
  6
AUSGEZOGEN
  0
ENDTAB
  0
TABLE
  2
STYLE
 70
     2
  0
STYLE
  2
STANDARD
 70
     0
 40
0.0
 41
0.8
 50
0.0
 71
     0
 42
3.5
  3
simplex.shx
  4

  0
STYLE
  2
GREEKS
 70
     0
 40
0.0
 41
0.8
 50
0.0
 71
     0
 42
2.5
  3
SIMPLEX.shx
  4

  0
ENDTAB
  0
TABLE
  2
VIEW
 70
     1
  0
ENDTAB
  0
TABLE
  2
UCS
 70
     0
  0
ENDTAB
  0
TABLE
  2
APPID
 70
     8
  0
APPID
  2
ACAD
 70
     0
  0
APPID
  2
ACAECLAYERSTANDARD
 70
     0
  0
APPID
  2
ACCMTRANSPARENCY
 70
     0
  0
APPID
  2
ACAD_NAV_VCDISPLAY
 70
     0
  0
APPID
  2
ACAD_PSEXT
 70
     0
  0
APPID
  2
ACAD_MLEADERVER
 70
     0
  0
APPID
  2
ACAD_OBJECT_CHANGE_GUID
 70
     0
  0
APPID
  2
ACAD_EXEMPT_FROM_CAD_STANDARDS
 70
     0
  0
ENDTAB
  0
TABLE
  2
DIMSTYLE
 70
     1
  0
DIMSTYLE
  2
STANDARD
 70
     0
  3

  4

  5

  6

  7

 40
1.0
 41
0.18
 42
0.0625
 43
0.38
 44
0.18
 45
0.0
 46
0.0
 47
0.0
 48
0.0
140
0.18
141
0.09
142
0.0
143
25.3999999999999986
144
1.0
145
0.0
146
1.0
147
0.09
 71
     0
 72
     0
 73
     1
 74
     1
 75
     0
 76
     0
 77
     0
 78
     0
170
     0
171
     2
172
     0
173
     0
174
     0
175
     0
176
     0
177
     0
178
     0
  0
ENDTAB
  0
ENDSEC
  0
SECTION
  2
BLOCKS
  0
BLOCK
  8
0
  2
$MODEL_SPACE
 70
     0
 10
0.0
 20
0.0
 30
0.0
  3
$MODEL_SPACE
  1

  0
ENDBLK
  5
36
  8
0
  0
BLOCK
 67
     1
  8
0
  2
$PAPER_SPACE
 70
     0
 10
0.0
 20
0.0
 30
0.0
  3
$PAPER_SPACE
  1

  0
ENDBLK
  5
34
 67
     1
  8
0
  0
BLOCK
  8
0
  2
A$C6018485E
 70
     0
 10
0.0
 20
0.0
 30
0.0
  3
A$C6018485E
  1

  0
LINE
  5
906
  8
0
  6
CONTINUOUS
 62
     3
 10
-49.9501360376888783
 20
0.0000000000001705
 30
0.0
 11
49.9501360376888783
 21
-0.0000000000001705
 31
0.0
210
0.0
220
1.0
230
-0.0000000000000002
  0
LINE
  5
907
  8
0
  6
CONTINUOUS
 62
     3
 10
-50.9999999999999432
 20
6.513491704517663
 30
-0.0000000000000014
 11
51.0000000000000497
 21
6.513491704517322
 31
-0.0000000000000014
210
0.0
220
1.0
230
-0.0000000000000002
  0
LINE
  5
908
  8
0
  6
CONTINUOUS
 62
     3
 10
-54.9999999999995381
 20
132.000000000000199
 30
-0.0000000000000293
 11
55.0000000000004619
 21
131.999999999999801
 31
-0.0000000000000293
210
0.0
220
1.0
230
-0.0000000000000002
  0
LINE
  5
909
  8
0
  6
CONTINUOUS
 62
     3
 10
-49.9501360376888783
 20
0.0000000000001714
 30
0.0
 11
-50.9999999999999432
 21
6.5134917045176621
 31
-0.0000000000000014
210
0.0
220
1.0
230
-0.0000000000000002
  0
LINE
  5
90A
  8
0
  6
CONTINUOUS
 62
     3
 10
49.9501360376889707
 20
-0.0000000000001692
 30
0.0
 11
51.0000000000000782
 21
6.513491704517322
 31
-0.0000000000000014
210
0.0
220
1.0
230
-0.0000000000000002
  0
LINE
  5
90B
  8
0
  6
CONTINUOUS
 62
     3
 10
55.0000000000004619
 20
131.999999999999801
 30
-0.0000000000000293
 11
55.0000000000003268
 21
91.9999999999998437
 31
-0.0000000000000204
210
0.0
220
1.0
230
-0.0000000000000002
  0
LINE
  5
90C
  8
0
  6
CONTINUOUS
 62
     3
 10
-54.999999999999531
 20
132.0000000000001137
 30
-0.0000000000000293
 11
-54.9999999999996732
 21
92.0000000000001847
 31
-0.0000000000000204
210
0.0
220
1.0
230
-0.0000000000000002
  0
ARC
  5
90D
  8
0
  6
CONTINUOUS
 62
     3
 10
36.9999999999997016
 20
92.0000000000001563
 30
0.0
 40
17.9999999999999396
210
0.0
220
-0.0000000000000002
230
-1.0
 50
330.0735651333852729
 51
0.0000000000000877
  0
ARC
  5
90E
  8
0
  6
CONTINUOUS
 62
     3
 10
-37.0000000000003695
 20
91.9999999999999147
 30
0.0
 40
17.9999999999999503
210
0.0
220
-0.0000000000000002
230
-1.0
 50
180.0000000000001137
 51
209.9264348666150113
  0
ARC
  5
90F
  8
0
  6
CONTINUOUS
 62
     3
 10
63.0000000000000782
 20
77.0333704529043928
 30
0.0
 40
12.0000000000003695
210
0.0
220
-0.0000000000000002
230
-1.0
 50
150.0735651333872909
 51
179.999999999999801
  0
ARC
  5
910
  8
0
  6
CONTINUOUS
 62
     3
 10
-63.0000000000006395
 20
77.0333704529040091
 30
0.0
 40
12.0000000000003695
210
0.0
220
-0.0000000000000002
230
-1.0
 50
0.0
 51
29.9264348666124818
  0
LINE
  5
911
  8
0
  6
CONTINUOUS
 62
     3
 10
51.0000000000002771
 20
77.0333704529040943
 30
-0.0000000000000171
 11
51.0000000000000497
 21
6.5134917045173371
 31
-0.0000000000000014
210
0.0
220
1.0
230
-0.0000000000000002
  0
LINE
  5
912
  8
0
  6
CONTINUOUS
 62
     3
 10
-50.9999999999997229
 20
77.0333704529044354
 30
-0.0000000000000171
 11
-50.9999999999999432
 21
6.513491704517663
 31
-0.0000000000000014
210
0.0
220
1.0
230
-0.0000000000000002
  0
LINE
  5
913
  8
0
  6
VERDECKT
 62
     1
 10
-48.9999999999999432
 20
6.6736411788995174
 30
-0.0000000000000015
 11
49.0000000000000497
 21
6.6736411788991763
 31
-0.0000000000000015
210
0.0
220
1.0
230
-0.0000000000000002
  0
LINE
  5
914
  8
0
  6
VERDECKT
 62
     1
 10
-47.9243226691665072
 20
0.0000000000001377
 30
0.0
 11
-48.9999999999999716
 21
6.6736411788994827
 31
-0.0000000000000015
210
0.0
220
1.0
230
-0.0000000000000002
  0
LINE
  5
915
  8
0
  6
VERDECKT
 62
     1
 10
47.9243226691666067
 20
-0.0000000000001692
 30
0.0
 11
49.0000000000001066
 21
6.6736411788991781
 31
-0.0000000000000015
210
0.0
220
1.0
230
-0.0000000000000002
  0
LINE
  5
916
  8
0
  6
VERDECKT
 62
     1
 10
49.0000000000002771
 20
77.0333704529040943
 30
-0.0000000000000171
 11
49.0000000000000497
 21
6.6736411788991896
 31
-0.0000000000000015
210
0.0
220
1.0
230
-0.0000000000000002
  0
LINE
  5
917
  8
0
  6
VERDECKT
 62
     1
 10
-48.9999999999997087
 20
77.0333704529044354
 30
-0.0000000000000171
 11
-48.9999999999999503
 21
6.673641178899488
 31
-0.0000000000000015
210
0.0
220
1.0
230
-0.0000000000000002
  0
ARC
  5
918
  8
0
  6
VERDECKT
 62
     1
 10
63.0000000000007532
 20
77.0333704529041654
 30
0.0
 40
14.0000000000010498
210
0.0
220
-0.0000000000000002
230
-1.0
 50
150.0735651333864098
 51
179.9999999999990052
  0
ARC
  5
919
  8
0
  6
VERDECKT
 62
     1
 10
-63.0000000000012221
 20
77.0333704529037959
 30
0.0
 40
14.0000000000009504
210
0.0
220
-0.0000000000000002
230
-1.0
 50
0.0
 51
29.9264348666127589
  0
ARC
  5
91A
  8
0
  6
VERDECKT
 62
     1
 10
37.0000000000001634
 20
91.9999999999999716
 30
0.0
 40
15.9999999999994902
210
0.0
220
-0.0000000000000002
230
-1.0
 50
330.0735651333861824
 51
0.0000000000007761
  0
ARC
  5
91B
  8
0
  6
VERDECKT
 62
     1
 10
-37.00000000000081
 20
91.9999999999997584
 30
0.0
 40
15.9999999999995097
210
0.0
220
-0.0000000000000002
230
-1.0
 50
179.9999999999996874
 51
209.9264348666143007
  0
LINE
  5
91C
  8
0
  6
VERDECKT
 62
     1
 10
53.0000000000004619
 20
131.999999999999801
 30
-0.0000000000000293
 11
53.0000000000003268
 21
91.9999999999998437
 31
-0.0000000000000204
210
0.0
220
1.0
230
-0.0000000000000002
  0
LINE
  5
91D
  8
0
  6
VERDECKT
 62
     1
 10
-52.9999999999995381
 20
132.0000000000001137
 30
-0.0000000000000293
 11
-52.9999999999996589
 21
92.0000000000001847
 31
-0.0000000000000204
210
0.0
220
1.0
230
-0.0000000000000002
  0
ENDBLK
  5
91F
  8
0
  0
BLOCK
  8
0
  2
A$C225F72BF
 70
     0
 10
0.0
 20
0.0
 30
0.0
  3
A$C225F72BF
  1

  0
CIRCLE
  5
923
  8
0
  6
CONTINUOUS
 62
     3
 10
0.0
 20
0.0000000000000083
 30
0.0
 40
47.9243226691665072
  0
CIRCLE
  5
924
  8
0
  6
CONTINUOUS
 62
     3
 10
0.0000000000003013
 20
0.000000000000013
 30
0.0
 40
48.9999999999999787
  0
CIRCLE
  5
925
  8
0
  6
CONTINUOUS
 62
     3
 10
0.0000000000004841
 20
0.0000000000000164
 30
0.0
 40
52.9999999999999929
  0
CIRCLE
  5
926
  8
0
  6
CONTINUOUS
 62
     3
 10
0.0000000000004841
 20
0.0000000000000164
 30
0.0
 40
55.0
  0
CIRCLE
  5
927
  8
0
  6
VERDECKT
 62
     1
 10
0.0
 20
0.0000000000000083
 30
0.0
 40
49.9501360376888996
  0
CIRCLE
  5
928
  8
0
  6
VERDECKT
 62
     1
 10
0.0000000000003013
 20
0.000000000000013
 30
0.0
 40
50.9999999999999787
  0
ENDBLK
  5
92A
  8
0
  0
ENDSEC
  0
SECTION
  2
ENTITIES
  0
TEXT
  5
8F
  8
VOLL
 10
78.076754716981128
 20
31.025947764705851
 30
0.0
 40
1.8
  1

  7
GREEKS
  0
INSERT
  5
920
  8
STEMPEL
  2
A$C6018485E
 10
0.0
 20
0.0
 30
0.0
  0
INSERT
  5
92B
  8
STEMPEL
  2
A$C225F72BF
 10
-0.0000000000001878
 20
-155.0
 30
0.0
  0
VIEWPORT
  5
782
 67
     1
  8
0
 10
7.7819804022559662
 20
10.8235926737982702
 30
0.0
 40
43.751259073827562
 41
22.2823477487554698
 68
     1
 69
     1
1001
ACAD
1000
MVIEW
1002
{
1070
    16
1010
0.0
1020
0.0
1030
0.0
1010
0.0
1020
0.0
1030
1.0
1040
0.0
1040
22.2823477487554698
1040
7.7819804022559662
1040
10.8235926737982702
1040
50.0
1040
0.0
1040
0.0
1070
     0
1070
  1500
1070
     1
1070
     1
1070
     0
1070
     0
1070
     0
1070
     0
1040
0.0
1040
0.0
1040
0.0
1040
10.0
1040
10.0
1040
10.0
1040
10.0
1070
     0
1002
{
1002
}
1002
}
  0
VIEWPORT
  5
787
 67
     1
  8
DEFPOINTS
 10
7.7819618405559901
 20
10.8230940222019907
 30
0.0
 40
16.01825633037922
 41
22.1070838901272495
 68
     2
 69
     2
1001
ACAD
1000
MVIEW
1002
{
1070
    16
1010
447.4063494413255739
1020
197.3227216634076058
1030
-19.6753764708010088
1010
0.0
1020
0.0
1030
1.0
1040
0.0
1040
306.203509958892198
1040
-339.4315613276369277
1040
-47.1936602300995531
1040
50.0
1040
0.0
1040
0.0
1070
     0
1070
  1500
1070
     1
1070
     0
1070
     0
1070
     0
1070
     0
1070
     0
1040
0.0
1040
0.0
1040
0.0
1040
1.0
1040
1.0
1040
10.0
1040
10.0
1070
     0
1002
{
1002
}
1002
}
  0
VIEWPORT
  5
78B
 67
     1
  8
DEFPOINTS
 10
12.9114778362263092
 20
8.7968632055978322
 30
0.0
 40
3.280390894141362
 41
4.7868909261686587
 68
     3
 69
     3
1001
ACAD
1000
MVIEW
1002
{
1070
    16
1010
413.6826971899791943
1020
197.032528899985607
1030
-19.1722708341061612
1010
0.0
1020
51.4857242055362576
1030
244.9925346088652134
1040
3.1415926535897931
1040
173.4659944659420887
1040
0.0
1040
0.0
1040
50.0
1040
0.0
1040
0.0
1070
     0
1070
  1500
1070
     1
1070
     0
1070
     0
1070
     0
1070
     0
1070
     0
1040
0.0
1040
0.0
1040
0.0
1040
1.0
1040
1.0
1040
10.0
1040
10.0
1070
     0
1002
{
1002
}
1002
}
  0
ENDSEC
  0
EOF
