  0
SECTION
  2
HEADER
  9
$ACADVER
  1
AC1009
  9
$INSBASE
 10
0.0
 20
0.0
 30
0.0
  9
$EXTMIN
 10
-44.5072046712813787
 20
-189.0001797093364075
 30
-0.0041195587303946
  9
$EXTMAX
 10
44.7362881089115874
 20
135.0242744844406104
 30
0.0061799667381024
  9
$LIMMIN
 10
0.0
 20
0.0
  9
$LIMMAX
 10
210.0
 20
297.0
  9
$ORTHOMODE
 70
     1
  9
$REGENMODE
 70
     1
  9
$FILLMODE
 70
     1
  9
$QTEXTMODE
 70
     0
  9
$MIRRTEXT
 70
     1
  9
$DRAGMODE
 70
     2
  9
$LTSCALE
 40
10.0
  9
$OSMODE
 70
  2559
  9
$ATTMODE
 70
     1
  9
$TEXTSIZE
 40
3.5
  9
$TRACEWID
 40
0.5
  9
$TEXTSTYLE
  7
STANDARD
  9
$CLAYER
  8
STEMPEL
  9
$CELTYPE
  6
BYLAYER
  9
$CECOLOR
 62
   256
  9
$DIMSCALE
 40
1.0
  9
$DIMASZ
 40
3.5
  9
$DIMEXO
 40
1.0
  9
$DIMDLI
 40
7.0
  9
$DIMRND
 40
0.0
  9
$DIMDLE
 40
0.0
  9
$DIMEXE
 40
1.0
  9
$DIMTP
 40
0.0
  9
$DIMTM
 40
0.0
  9
$DIMTXT
 40
3.5
  9
$DIMCEN
 40
1.5
  9
$DIMTSZ
 40
0.0
  9
$DIMTOL
 70
     0
  9
$DIMLIM
 70
     0
  9
$DIMTIH
 70
     0
  9
$DIMTOH
 70
     0
  9
$DIMSE1
 70
     0
  9
$DIMSE2
 70
     0
  9
$DIMTAD
 70
     1
  9
$DIMZIN
 70
     8
  9
$DIMBLK
  1

  9
$DIMASO
 70
     1
  9
$DIMSHO
 70
     0
  9
$DIMPOST
  1

  9
$DIMAPOST
  1

  9
$DIMALT
 70
     0
  9
$DIMALTD
 70
     2
  9
$DIMALTF
 40
25.3999999999999986
  9
$DIMLFAC
 40
1.0
  9
$DIMTOFL
 70
     1
  9
$DIMTVP
 40
0.0
  9
$DIMTIX
 70
     0
  9
$DIMSOXD
 70
     0
  9
$DIMSAH
 70
     0
  9
$DIMBLK1
  1

  9
$DIMBLK2
  1

  9
$DIMSTYLE
  2
STANDARD
  9
$DIMCLRD
 70
     0
  9
$DIMCLRE
 70
     0
  9
$DIMCLRT
 70
     1
  9
$DIMTFAC
 40
0.5
  9
$DIMGAP
 40
1.5
  9
$LUNITS
 70
     2
  9
$LUPREC
 70
     2
  9
$SKETCHINC
 40
1.0
  9
$FILLETRAD
 40
8.0
  9
$AUNITS
 70
     0
  9
$AUPREC
 70
     0
  9
$MENU
  1
ACAD
  9
$ELEVATION
 40
0.0
  9
$PELEVATION
 40
0.0
  9
$THICKNESS
 40
0.0
  9
$LIMCHECK
 70
     0
  9
$BLIPMODE
 70
     0
  9
$CHAMFERA
 40
0.0
  9
$CHAMFERB
 40
0.0
  9
$SKPOLY
 70
     0
  9
$TDCREATE
 40
2455397.8646990740671754
  9
$TDUPDATE
 40
2458376.5784375001676381
  9
$TDINDWG
 40
0.0975037847
  9
$TDUSRTIMER
 40
0.0975037847
  9
$USRTIMER
 70
     1
  9
$ANGBASE
 50
0.0
  9
$ANGDIR
 70
     0
  9
$PDMODE
 70
     0
  9
$PDSIZE
 40
0.0
  9
$PLINEWID
 40
0.0
  9
$COORDS
 70
     1
  9
$SPLFRAME
 70
     0
  9
$SPLINETYPE
 70
     6
  9
$SPLINESEGS
 70
     8
  9
$ATTDIA
 70
     1
  9
$ATTREQ
 70
     1
  9
$HANDLING
 70
     1
  9
$HANDSEED
  5
ABA
  9
$SURFTAB1
 70
     6
  9
$SURFTAB2
 70
     6
  9
$SURFTYPE
 70
     6
  9
$SURFU
 70
     6
  9
$SURFV
 70
     6
  9
$UCSNAME
  2

  9
$UCSORG
 10
0.0
 20
0.0
 30
0.0
  9
$UCSXDIR
 10
1.0
 20
0.0
 30
0.0
  9
$UCSYDIR
 10
0.0
 20
1.0
 30
0.0
  9
$PUCSNAME
  2

  9
$PUCSORG
 10
0.0
 20
0.0
 30
0.0
  9
$PUCSXDIR
 10
1.0
 20
0.0
 30
0.0
  9
$PUCSYDIR
 10
0.0
 20
1.0
 30
0.0
  9
$USERI1
 70
     0
  9
$USERI2
 70
     0
  9
$USERI3
 70
     0
  9
$USERI4
 70
     0
  9
$USERI5
 70
     0
  9
$USERR1
 40
0.0
  9
$USERR2
 40
0.0
  9
$USERR3
 40
0.0
  9
$USERR4
 40
0.0
  9
$USERR5
 40
0.0
  9
$WORLDVIEW
 70
     1
  9
$SHADEDGE
 70
     3
  9
$SHADEDIF
 70
    70
  9
$TILEMODE
 70
     1
  9
$MAXACTVP
 70
    16
  9
$PLIMCHECK
 70
     0
  9
$PEXTMIN
 10
-0.2279385747440514
 20
-0.2550891975147351
 30
-0.0000000349181948
  9
$PEXTMAX
 10
17.1701778381599901
 20
23.9303632719712702
 30
0.0000000814935746
  9
$PLIMMIN
 10
-0.2500002402958907
 20
-0.2499999962453767
  9
$PLIMMAX
 10
10.7499995194082203
 20
8.2499997634587334
  9
$UNITMODE
 70
     0
  9
$VISRETAIN
 70
     0
  9
$PLINEGEN
 70
     0
  9
$PSLTSCALE
 70
     0
  0
ENDSEC
  0
SECTION
  2
TABLES
  0
TABLE
  2
VPORT
 70
     1
  0
VPORT
  2
*ACTIVE
 70
     0
 10
0.0
 20
0.0
 11
1.0
 21
1.0
 12
0.1145417188150191
 22
-72.2396539674283531
 13
0.0
 23
0.0
 14
1.0
 24
1.0
 15
10.0
 25
10.0
 16
-0.0000000000001144
 26
0.0
 36
515.2381697507529452
 17
0.0
 27
45.2517013549804616
 37
-0.000000000000015
 40
325.6762356085287138
 41
1.868197278911564
 42
50.0
 43
0.0
 44
0.0
 50
0.0
 51
0.0
 71
     0
 72
  1500
 73
     1
 74
     0
 75
     0
 76
     0
 77
     0
 78
     0
  0
ENDTAB
  0
TABLE
  2
LTYPE
 70
     3
  0
LTYPE
  2
CONTINUOUS
 70
     0
  3
Solid line
 72
    65
 73
     0
 40
0.0
  0
LTYPE
  2
VERDECKT
 70
     0
  3
_ _ _ _ _ _ _ _ _ _ _ _ _ _ _ _ _ _ _ _ _ _ _
 72
    65
 73
     2
 40
0.375
 49
0.25
 49
-0.125
  0
ENDTAB
  0
TABLE
  2
LAYER
 70
    10
  0
LAYER
  2
0
 70
     0
 62
     7
  6
CONTINUOUS
  0
LAYER
  2
VOLL
 70
     0
 62
     1
  6
CONTINUOUS
  0
LAYER
  2
BEM
 70
     0
 62
     7
  6
CONTINUOUS
  0
LAYER
  2
STEMPEL
 70
     0
 62
     3
  6
CONTINUOUS
  0
LAYER
  2
TEXT
 70
     0
 62
     7
  6
CONTINUOUS
  0
LAYER
  2
DEFPOINTS
 70
     0
 62
     7
  6
CONTINUOUS
  0
ENDTAB
  0
TABLE
  2
STYLE
 70
     2
  0
STYLE
  2
STANDARD
 70
     0
 40
0.0
 41
0.8
 50
0.0
 71
     0
 42
3.5
  3
simplex.shx
  4

  0
STYLE
  2
GREEKS
 70
     0
 40
0.0
 41
0.8
 50
0.0
 71
     0
 42
2.5
  3
SIMPLEX.shx
  4

  0
ENDTAB
  0
TABLE
  2
VIEW
 70
     1
  0
ENDTAB
  0
TABLE
  2
UCS
 70
     0
  0
ENDTAB
  0
TABLE
  2
APPID
 70
    15
  0
APPID
  2
ACAD
 70
     0
  0
APPID
  2
MCAD_NO_VIS
 70
     0
  0
APPID
  2
ACAD_TEMP_GRAPHIC
 70
     0
  0
APPID
  2
AD_DRAW
 70
     0
  0
APPID
  2
ACATTRIBSERVICES
 70
     0
  0
APPID
  2
DESIGNERASSEMBLIES
 70
     0
  0
APPID
  2
ACADM_DIM_EDIT
 70
     0
  0
APPID
  2
AMDT_DM_ADJ
 70
     0
  0
APPID
  2
ACAECLAYERSTANDARD
 70
     0
  0
APPID
  2
ACCMTRANSPARENCY
 70
     0
  0
APPID
  2
ACAD_NAV_VCDISPLAY
 70
     0
  0
APPID
  2
ACAD_PSEXT
 70
     0
  0
APPID
  2
ACAD_MLEADERVER
 70
     0
  0
APPID
  2
ACAD_OBJECT_CHANGE_GUID
 70
     0
  0
APPID
  2
ACAD_EXEMPT_FROM_CAD_STANDARDS
 70
     0
  0
ENDTAB
  0
TABLE
  2
DIMSTYLE
 70
     1
  0
DIMSTYLE
  2
STANDARD
 70
     0
  3

  4

  5

  6

  7

 40
1.0
 41
0.18
 42
0.0625
 43
0.38
 44
0.18
 45
0.0
 46
0.0
 47
0.0
 48
0.0
140
0.18
141
0.09
142
0.0
143
25.3999999999999986
144
1.0
145
0.0
146
1.0
147
0.09
 71
     0
 72
     0
 73
     1
 74
     1
 75
     0
 76
     0
 77
     0
 78
     0
170
     0
171
     2
172
     0
173
     0
174
     0
175
     0
176
     0
177
     0
178
     0
  0
ENDTAB
  0
ENDSEC
  0
SECTION
  2
BLOCKS
  0
BLOCK
  8
0
  2
$MODEL_SPACE
 70
     0
 10
0.0
 20
0.0
 30
0.0
  3
$MODEL_SPACE
  1

  0
ENDBLK
  5
36
  8
0
  0
BLOCK
 67
     1
  8
0
  2
$PAPER_SPACE
 70
     0
 10
0.0
 20
0.0
 30
0.0
  3
$PAPER_SPACE
  1

  0
ENDBLK
  5
34
 67
     1
  8
0
  0
BLOCK
  8
0
  2
A$C49647789
 70
     0
 10
0.0
 20
0.0
 30
0.0
  3
A$C49647789
  1

  0
LINE
  5
A3D
  8
0
  6
CONTINUOUS
 62
     3
 10
-41.0625566823702783
 20
135.0
 30
-0.00000000000003
 11
41.0625566823704631
 21
135.0
 31
-0.00000000000003
210
0.0000000000000002
220
1.0
230
-0.0000000000000002
  0
LINE
  5
A3E
  8
0
  6
CONTINUOUS
 62
     3
 10
-44.0625566823703068
 20
0.000000000000095
 30
0.0
 11
44.0625566823703068
 21
-0.0000000000000382
 31
0.0
210
0.0000000000000002
220
1.0
230
-0.0000000000000002
  0
LINE
  5
A3F
  8
0
  6
CONTINUOUS
 62
     3
 10
41.0625566823704631
 20
135.0
 30
-0.00000000000003
 11
41.5000000000000284
 21
130.0000000000003979
 31
-0.0000000000000289
210
0.0000000000000002
220
1.0
230
-0.0000000000000002
  0
LINE
  5
A40
  8
0
  6
CONTINUOUS
 62
     3
 10
-41.0625566823702783
 20
135.0
 30
-0.00000000000003
 11
-41.4999999999998579
 21
130.0000000000003979
 31
-0.0000000000000289
210
0.0000000000000002
220
1.0
230
-0.0000000000000002
  0
LINE
  5
A41
  8
0
  6
CONTINUOUS
 62
     3
 10
41.4999999999999716
 20
130.0000000000003979
 30
-0.0000000000000289
 11
41.4999999999999503
 21
82.9613008971524124
 31
-0.0000000000000184
210
0.0000000000000002
220
1.0
230
-0.0000000000000002
  0
LINE
  5
A42
  8
0
  6
CONTINUOUS
 62
     3
 10
-41.4999999999997868
 20
130.0000000000003979
 30
-0.0000000000000289
 11
-41.4999999999998082
 21
82.9613008971524835
 31
-0.0000000000000184
210
0.0000000000000002
220
1.0
230
-0.0000000000000002
  0
ARC
  5
A43
  8
0
  6
CONTINUOUS
 62
     3
 10
49.5000000000029132
 20
82.9613008971528529
 30
0.0
 40
8.0000000000032312
210
0.0
220
-0.0000000000000002
230
-1.0
 50
180.0000000000025864
 51
194.0650450648880962
  0
ARC
  5
A44
  8
0
  6
CONTINUOUS
 62
     3
 10
-49.5000000000031832
 20
82.9613008971527961
 30
0.0
 40
8.0000000000033413
210
0.0
220
-0.0000000000000002
230
-1.0
 50
345.9349549351122164
 51
359.9999999999973284
  0
LINE
  5
A45
  8
0
  6
CONTINUOUS
 62
     3
 10
41.7398363270735899
 20
81.0171147513847529
 30
-0.000000000000018
 11
44.260163672926339
 21
70.9572998742209791
 31
-0.0000000000000158
210
0.0000000000000002
220
1.0
230
-0.0000000000000002
  0
LINE
  5
A46
  8
0
  6
CONTINUOUS
 62
     3
 10
-41.7398363270734265
 20
81.0171147513847956
 30
-0.000000000000018
 11
-44.2601636729261969
 21
70.9572998742210501
 31
-0.0000000000000158
210
0.0000000000000002
220
1.0
230
-0.0000000000000002
  0
ARC
  5
A47
  8
0
  6
CONTINUOUS
 62
     3
 10
36.499999999996021
 20
69.0131137284528933
 30
0.0
 40
8.0000000000038227
210
0.0
220
-0.0000000000000002
230
-1.0
 50
0.0000000000033714
 51
14.0650450648876095
  0
ARC
  5
A48
  8
0
  6
CONTINUOUS
 62
     3
 10
-36.4999999999966533
 20
69.0131137284529075
 30
0.0
 40
8.0000000000033413
210
0.0
220
-0.0000000000000002
230
-1.0
 50
165.934954935112188
 51
179.9999999999972999
  0
LINE
  5
A49
  8
0
  6
CONTINUOUS
 62
     3
 10
44.4999999999999716
 20
69.0131137284532912
 30
-0.0000000000000153
 11
44.4999999999999289
 21
5.0000000000000053
 31
-0.0000000000000011
210
0.0000000000000002
220
1.0
230
-0.0000000000000002
  0
LINE
  5
A4A
  8
0
  6
CONTINUOUS
 62
     3
 10
-44.4999999999999076
 20
69.0131137284533622
 30
-0.0000000000000153
 11
-44.4999999999999503
 21
5.0000000000000666
 31
-0.0000000000000011
210
0.0000000000000002
220
1.0
230
-0.0000000000000002
  0
LINE
  5
A4B
  8
0
  6
CONTINUOUS
 62
     3
 10
-44.0625566823702925
 20
0.0000000000000409
 30
0.0
 11
-44.4999999999999076
 21
5.0000000000000693
 31
-0.0000000000000011
210
0.0000000000000002
220
1.0
230
-0.0000000000000002
  0
LINE
  5
A4C
  8
0
  6
CONTINUOUS
 62
     3
 10
44.0625566823702925
 20
-0.000000000000024
 30
0.0
 11
44.4999999999999076
 21
5.0000000000000053
 31
-0.0000000000000011
210
0.0000000000000002
220
1.0
230
-0.0000000000000002
  0
LINE
  5
A4D
  8
0
  6
VERDECKT
 62
     1
 10
-42.4564449423009407
 20
0.0000000000000378
 30
0.0
 11
-42.8999999999999204
 21
5.0698575086532394
 31
-0.0000000000000011
210
0.0000000000000002
220
1.0
230
-0.0000000000000002
  0
LINE
  5
A4E
  8
0
  6
VERDECKT
 62
     1
 10
42.4564449423009407
 20
-0.0000000000000254
 30
0.0
 11
42.8999999999999204
 21
5.0698575086531754
 31
-0.0000000000000011
210
0.0000000000000002
220
1.0
230
-0.0000000000000002
  0
LINE
  5
A4F
  8
0
  6
VERDECKT
 62
     1
 10
42.8999999999999417
 20
69.0131137284532912
 30
-0.0000000000000153
 11
42.8999999999999133
 21
5.0698575086531772
 31
-0.0000000000000011
210
0.0000000000000002
220
1.0
230
-0.0000000000000002
  0
LINE
  5
A50
  8
0
  6
VERDECKT
 62
     1
 10
-42.899999999999892
 20
69.0131137284533622
 30
-0.0000000000000153
 11
-42.8999999999999275
 21
5.0698575086532394
 31
-0.0000000000000011
210
0.0000000000000002
220
1.0
230
-0.0000000000000002
  0
ARC
  5
A51
  8
0
  6
VERDECKT
 62
     1
 10
36.5000000000012079
 20
69.0131137284532485
 30
0.0
 40
6.399999999998669
210
0.0
220
-0.0000000000000002
230
-1.0
 50
0.0000000000010305
 51
14.0650450648947505
  0
ARC
  5
A52
  8
0
  6
VERDECKT
 62
     1
 10
-36.5000000000014211
 20
69.0131137284531917
 30
0.0
 40
6.3999999999986068
210
0.0
220
-0.0000000000000002
230
-1.0
 50
165.9349549351047983
 51
179.9999999999990905
  0
LINE
  5
A53
  8
0
  6
VERDECKT
 62
     1
 10
40.1878035924882866
 20
80.6282775222312296
 30
-0.0000000000000179
 11
42.7081309383410428
 21
70.5684626450674557
 31
-0.0000000000000157
210
0.0000000000000002
220
1.0
230
-0.0000000000000002
  0
LINE
  5
A54
  8
0
  6
VERDECKT
 62
     1
 10
-40.1878035924881374
 20
80.628277522231258
 30
-0.0000000000000179
 11
-42.7081309383409078
 21
70.5684626450674841
 31
-0.0000000000000157
210
0.0000000000000002
220
1.0
230
-0.0000000000000002
  0
ARC
  5
A55
  8
0
  6
VERDECKT
 62
     1
 10
49.5000000000038582
 20
82.9613008971530093
 30
0.0
 40
9.6000000000042132
210
0.0
220
-0.0000000000000002
230
-1.0
 50
180.000000000003098
 51
194.065045064888011
  0
ARC
  5
A56
  8
0
  6
VERDECKT
 62
     1
 10
-49.500000000004249
 20
82.9613008971529666
 30
0.0
 40
9.6000000000044423
210
0.0
220
-0.0000000000000002
230
-1.0
 50
345.9349549351122732
 51
359.9999999999967031
  0
LINE
  5
A57
  8
0
  6
VERDECKT
 62
     1
 10
39.8999999999999631
 20
129.9301424913467997
 30
-0.0000000000000289
 11
39.8999999999999275
 21
82.9613008971524124
 31
-0.0000000000000184
210
0.0000000000000002
220
1.0
230
-0.0000000000000002
  0
LINE
  5
A58
  8
0
  6
VERDECKT
 62
     1
 10
-39.8999999999997712
 20
129.9301424913467997
 30
-0.0000000000000289
 11
-39.8999999999997925
 21
82.9613008971524835
 31
-0.0000000000000184
210
0.0000000000000002
220
1.0
230
-0.0000000000000002
  0
LINE
  5
A59
  8
0
  6
VERDECKT
 62
     1
 10
39.4564449423010899
 20
135.0
 30
-0.00000000000003
 11
39.9000000000000483
 21
129.9301424913467997
 31
-0.0000000000000289
210
0.0000000000000002
220
1.0
230
-0.0000000000000002
  0
LINE
  5
A5A
  8
0
  6
VERDECKT
 62
     1
 10
-39.4564449423009194
 20
135.0
 30
-0.00000000000003
 11
-39.899999999999892
 21
129.9301424913467997
 31
-0.0000000000000289
210
0.0000000000000002
220
1.0
230
-0.0000000000000002
  0
ENDBLK
  5
A5C
  8
0
  0
BLOCK
  8
0
  2
A$C71B64691
 70
     0
 10
0.0
 20
0.0
 30
0.0
  3
A$C71B64691
  1

  0
CIRCLE
  5
A60
  8
0
  6
CONTINUOUS
 62
     3
 10
0.0000000000000868
 20
-0.0000000000000122
 30
0.0
 40
41.0625566823703707
  0
CIRCLE
  5
A61
  8
0
  6
CONTINUOUS
 62
     3
 10
0.0000000000000857
 20
-0.0000000000000125
 30
0.0
 40
41.4999999999999432
  0
CIRCLE
  5
A62
  8
0
  6
CONTINUOUS
 62
     3
 10
0.0000000000000722
 20
-0.0000000000000162
 30
0.0
 40
44.4999999999999076
  0
CIRCLE
  5
A63
  8
0
  6
CONTINUOUS
 62
     3
 10
0.0000000000000868
 20
-0.0000000000000122
 30
0.0
 40
39.4564449423009975
  0
CIRCLE
  5
A64
  8
0
  6
VERDECKT
 62
     1
 10
0.0
 20
-0.0000000000000204
 30
0.0
 40
44.062556682370321
  0
CIRCLE
  5
A65
  8
0
  6
VERDECKT
 62
     1
 10
0.0
 20
-0.0000000000000204
 30
0.0
 40
42.4564449423009478
  0
CIRCLE
  5
A66
  8
0
  6
VERDECKT
 62
     1
 10
0.0000000000000722
 20
-0.0000000000000162
 30
0.0
 40
42.8999999999999417
  0
CIRCLE
  5
A67
  8
0
  6
VERDECKT
 62
     1
 10
0.0000000000000857
 20
-0.0000000000000125
 30
0.0
 40
39.8999999999999773
  0
ENDBLK
  5
A69
  8
0
  0
ENDSEC
  0
SECTION
  2
ENTITIES
  0
TEXT
  5
8F
  8
VOLL
 10
78.076754716981128
 20
31.025947764705851
 30
0.0
 40
1.8
  1

  7
GREEKS
  0
TEXT
  5
4A0
  8
VOLL
 10
78.076754716981128
 20
31.025947764705851
 30
0.0
 40
1.8
  1

  7
GREEKS
  0
TEXT
  5
4AD
  8
VOLL
 10
99.7576245210598955
 20
198.1285396345072911
 30
0.0
 40
1.8
  1

  7
GREEKS
  0
TEXT
  5
4AE
  8
TEXT
 10
431.5898927246528842
 20
203.6867751677328044
 30
0.0
 40
2.5
  1
  
  7
GREEKS
 72
     1
 11
433.8517974865575866
 21
203.6867751677328044
 31
0.0
  0
TEXT
  5
4AF
  8
BEM
 10
675.7096100371347802
 20
339.2456571981351203
 30
0.0
 40
2.5
  1
 
 72
     4
 11
676.8405624180870745
 21
339.2456571981351203
 31
0.0
  0
TEXT
  5
4B0
  8
BEM
 10
265.1032376007099174
 20
238.2817703330929078
 30
0.0
 40
2.5
  1

  7
GREEKS
  0
TEXT
  5
4B1
  8
VOLL
 10
251.0370445809884075
 20
218.098509676057887
 30
0.0
 40
1.8
  1

  7
GREEKS
  0
TEXT
  5
4B2
  8
BEM
 10
285.5251094202729973
 20
222.8242339992783911
 30
0.0
 40
2.5
  1

 41
0.8
  7
GREEKS
  0
TEXT
  5
4B3
  8
BEM
 10
285.5251094202729973
 20
218.1304654452262071
 30
0.0
 40
2.5
  1

 41
0.8
  7
GREEKS
  0
TEXT
  5
4B4
  8
BEM
 10
285.5251094202729973
 20
212.8926216265628
 30
0.0
 40
2.5
  1

 41
0.8
  7
GREEKS
  0
TEXT
  5
4B5
  8
BEM
 10
285.4521649428986052
 20
208.3874326764652096
 30
0.0
 40
1.8
  1

 41
0.8
  7
GREEKS
  0
TEXT
  5
4B6
  8
BEM
 10
272.7685940632873098
 20
233.9790217726904018
 30
0.0
 40
2.0
  1

 41
0.8
  7
GREEKS
 72
     1
 11
272.7685940632873098
 21
233.9790217726904018
 31
0.0
  0
TEXT
  5
4B7
  8
TEXT
 10
582.8693127845812114
 20
223.6567452092834003
 30
0.0
 40
2.5
  1
  
  7
GREEKS
 72
     1
 11
585.1312175464860275
 21
223.6567452092834003
 31
0.0
  0
TEXT
  5
4B8
  8
BEM
 10
826.9890300970632779
 20
359.2156272396857162
 30
0.0
 40
2.5
  1
 
 72
     4
 11
828.1199824780155723
 21
359.2156272396857162
 31
0.0
  0
INSERT
  5
A5D
  8
STEMPEL
  2
A$C49647789
 10
0.0
 20
0.0
 30
0.0
  0
INSERT
  5
A6A
  8
STEMPEL
  2
A$C71B64691
 10
-0.0000000000000749
 20
-144.4999999999998863
 30
0.0
  0
VIEWPORT
  5
844
 67
     1
  8
0
 10
8.4708534720683595
 20
11.8376369809205695
 30
0.0
 40
47.8577337503485509
 41
24.373759486399301
 68
     1
 69
     1
1001
ACAD
1000
MVIEW
1002
{
1070
    16
1010
0.0
1020
0.0
1030
0.0
1010
0.0
1020
0.0
1030
1.0
1040
0.0
1040
24.373759486399301
1040
8.4708534720683595
1040
11.8376369809205695
1040
50.0
1040
0.0
1040
0.0
1070
     0
1070
  1500
1070
     1
1070
     1
1070
     0
1070
     0
1070
     0
1070
     0
1040
0.0
1040
0.0
1040
0.0
1040
10.0
1040
10.0
1040
10.0
1040
10.0
1070
     0
1002
{
1002
}
1002
}
  0
VIEWPORT
  5
849
 67
     1
  8
DEFPOINTS
 10
8.4709741394683
 20
11.8373884853201794
 30
0.0
 40
17.3962808459147489
 41
24.1825113942439991
 68
     2
 69
     2
1001
ACAD
1000
MVIEW
1002
{
1070
    16
1010
368.7949751065866053
1020
139.9482652377533896
1030
43.5692170703675288
1010
0.0
1020
0.0
1030
1.0
1040
0.0
1040
305.0542598846793112
1040
-261.3167220214822919
1040
10.2736087000596399
1040
50.0
1040
0.0
1040
0.0
1070
     0
1070
  1500
1070
     1
1070
     0
1070
     0
1070
     0
1070
     0
1070
     0
1040
0.0
1040
0.0
1040
0.0
1040
1.0
1040
1.0
1040
10.0
1040
10.0
1070
     0
1002
{
1002
}
1002
}
  0
VIEWPORT
  5
84D
 67
     1
  8
DEFPOINTS
 10
13.3186389644765004
 20
18.6790891705417792
 30
0.0
 40
5.017425018380095
 41
7.4895932907643887
 68
     3
 69
     3
1001
ACAD
1000
MVIEW
1002
{
1070
    16
1010
380.5389940645387128
1020
210.0165280030404062
1030
41.9239854646437422
1010
0.0
1020
91.4378214768248085
1030
312.4399126898774171
1040
3.141567867575719
1040
155.1731510071354023
1040
0.0
1040
0.0
1040
50.0
1040
0.0
1040
0.0
1070
     0
1070
  1500
1070
     1
1070
     0
1070
     0
1070
     0
1070
     0
1070
     0
1040
0.0
1040
0.0
1040
0.0
1040
1.0
1040
1.0
1040
10.0
1040
10.0
1070
     0
1002
{
1002
}
1002
}
  0
ENDSEC
  0
EOF
