  0
SECTION
  2
HEADER
  9
$ACADVER
  1
AC1009
  9
$INSBASE
 10
0.0
 20
0.0
 30
0.0
  9
$EXTMIN
 10
-40.3201383484790128
 20
-178.0019525045086084
 30
-0.0032956469843555
  9
$EXTMAX
 10
39.0101627372614601
 20
108.0051275154170014
 30
0.0049439733904535
  9
$LIMMIN
 10
0.0
 20
0.0
  9
$LIMMAX
 10
210.0
 20
297.0
  9
$ORTHOMODE
 70
     1
  9
$REGENMODE
 70
     1
  9
$FILLMODE
 70
     1
  9
$QTEXTMODE
 70
     0
  9
$MIRRTEXT
 70
     1
  9
$DRAGMODE
 70
     2
  9
$LTSCALE
 40
10.0
  9
$OSMODE
 70
  2559
  9
$ATTMODE
 70
     1
  9
$TEXTSIZE
 40
3.5
  9
$TRACEWID
 40
0.5
  9
$TEXTSTYLE
  7
STANDARD
  9
$CLAYER
  8
STEMPEL
  9
$CELTYPE
  6
BYLAYER
  9
$CECOLOR
 62
   256
  9
$DIMSCALE
 40
1.0
  9
$DIMASZ
 40
3.5
  9
$DIMEXO
 40
1.0
  9
$DIMDLI
 40
7.0
  9
$DIMRND
 40
0.0
  9
$DIMDLE
 40
0.0
  9
$DIMEXE
 40
1.0
  9
$DIMTP
 40
0.0
  9
$DIMTM
 40
0.0
  9
$DIMTXT
 40
3.5
  9
$DIMCEN
 40
1.5
  9
$DIMTSZ
 40
0.0
  9
$DIMTOL
 70
     0
  9
$DIMLIM
 70
     0
  9
$DIMTIH
 70
     0
  9
$DIMTOH
 70
     0
  9
$DIMSE1
 70
     0
  9
$DIMSE2
 70
     0
  9
$DIMTAD
 70
     1
  9
$DIMZIN
 70
     8
  9
$DIMBLK
  1

  9
$DIMASO
 70
     1
  9
$DIMSHO
 70
     0
  9
$DIMPOST
  1

  9
$DIMAPOST
  1

  9
$DIMALT
 70
     0
  9
$DIMALTD
 70
     2
  9
$DIMALTF
 40
25.3999999999999986
  9
$DIMLFAC
 40
1.0
  9
$DIMTOFL
 70
     1
  9
$DIMTVP
 40
0.0
  9
$DIMTIX
 70
     0
  9
$DIMSOXD
 70
     0
  9
$DIMSAH
 70
     0
  9
$DIMBLK1
  1

  9
$DIMBLK2
  1

  9
$DIMSTYLE
  2
STANDARD
  9
$DIMCLRD
 70
     0
  9
$DIMCLRE
 70
     0
  9
$DIMCLRT
 70
     1
  9
$DIMTFAC
 40
0.5142857142857143
  9
$DIMGAP
 40
1.5
  9
$LUNITS
 70
     2
  9
$LUPREC
 70
     2
  9
$SKETCHINC
 40
1.0
  9
$FILLETRAD
 40
0.0
  9
$AUNITS
 70
     0
  9
$AUPREC
 70
     0
  9
$MENU
  1
ACAD
  9
$ELEVATION
 40
0.0
  9
$PELEVATION
 40
0.0
  9
$THICKNESS
 40
0.0
  9
$LIMCHECK
 70
     0
  9
$BLIPMODE
 70
     0
  9
$CHAMFERA
 40
0.0
  9
$CHAMFERB
 40
0.0
  9
$SKPOLY
 70
     0
  9
$TDCREATE
 40
2455397.8646990740671754
  9
$TDUPDATE
 40
2458376.5766550931148231
  9
$TDINDWG
 40
0.0514495949
  9
$TDUSRTIMER
 40
0.0514495949
  9
$USRTIMER
 70
     1
  9
$ANGBASE
 50
0.0
  9
$ANGDIR
 70
     0
  9
$PDMODE
 70
     0
  9
$PDSIZE
 40
0.0
  9
$PLINEWID
 40
0.0
  9
$COORDS
 70
     1
  9
$SPLFRAME
 70
     0
  9
$SPLINETYPE
 70
     6
  9
$SPLINESEGS
 70
     8
  9
$ATTDIA
 70
     1
  9
$ATTREQ
 70
     1
  9
$HANDLING
 70
     1
  9
$HANDSEED
  5
909
  9
$SURFTAB1
 70
     6
  9
$SURFTAB2
 70
     6
  9
$SURFTYPE
 70
     6
  9
$SURFU
 70
     6
  9
$SURFV
 70
     6
  9
$UCSNAME
  2

  9
$UCSORG
 10
0.0
 20
0.0
 30
0.0
  9
$UCSXDIR
 10
1.0
 20
0.0
 30
0.0
  9
$UCSYDIR
 10
0.0
 20
1.0
 30
0.0
  9
$PUCSNAME
  2

  9
$PUCSORG
 10
0.0
 20
0.0
 30
0.0
  9
$PUCSXDIR
 10
1.0
 20
0.0
 30
0.0
  9
$PUCSYDIR
 10
0.0
 20
1.0
 30
0.0
  9
$USERI1
 70
     0
  9
$USERI2
 70
     0
  9
$USERI3
 70
     0
  9
$USERI4
 70
     0
  9
$USERI5
 70
     0
  9
$USERR1
 40
0.0
  9
$USERR2
 40
0.0
  9
$USERR3
 40
0.0
  9
$USERR4
 40
0.0
  9
$USERR5
 40
0.0
  9
$WORLDVIEW
 70
     1
  9
$SHADEDGE
 70
     3
  9
$SHADEDIF
 70
    70
  9
$TILEMODE
 70
     1
  9
$MAXACTVP
 70
    16
  9
$PLIMCHECK
 70
     0
  9
$PEXTMIN
 10
-0.2283556380656435
 20
-0.2318052660281324
 30
-0.0000000000112498
  9
$PEXTMAX
 10
17.9364249851988902
 20
24.5925508307030292
 30
0.0000000000002956
  9
$PLIMMIN
 10
-0.2500002402958907
 20
-0.2499999962453767
  9
$PLIMMAX
 10
10.7499995194082203
 20
8.2499997634587334
  9
$UNITMODE
 70
     0
  9
$VISRETAIN
 70
     0
  9
$PLINEGEN
 70
     0
  9
$PSLTSCALE
 70
     0
  0
ENDSEC
  0
SECTION
  2
TABLES
  0
TABLE
  2
VPORT
 70
     1
  0
VPORT
  2
*ACTIVE
 70
     0
 10
0.0
 20
0.0
 11
1.0
 21
1.0
 12
-0.6549878056088119
 22
-69.4998143957909065
 13
0.0
 23
0.0
 14
1.0
 24
1.0
 15
10.0
 25
10.0
 16
-0.000000000000095
 26
0.0
 36
427.9546307229850868
 17
0.0
 27
34.5014019012451172
 37
-0.000000000000012
 40
287.4650600370196116
 41
1.868197278911564
 42
50.0
 43
0.0
 44
0.0
 50
0.0
 51
0.0
 71
     0
 72
  1500
 73
     1
 74
     0
 75
     0
 76
     0
 77
     0
 78
     0
  0
ENDTAB
  0
TABLE
  2
LTYPE
 70
     4
  0
LTYPE
  2
CONTINUOUS
 70
     0
  3
Solid line
 72
    65
 73
     0
 40
0.0
  0
LTYPE
  2
AUSGEZOGEN
 70
     0
  3
Ausgezogene Linie
 72
    65
 73
     0
 40
0.0
  0
LTYPE
  2
VERDECKT
 70
     0
  3
_ _ _ _ _ _ _ _ _ _ _ _ _ _ _ _ _ _ _ _ _ _ _
 72
    65
 73
     2
 40
0.375
 49
0.25
 49
-0.125
  0
ENDTAB
  0
TABLE
  2
LAYER
 70
    10
  0
LAYER
  2
0
 70
     0
 62
     7
  6
CONTINUOUS
  0
LAYER
  2
VOLL
 70
     0
 62
     1
  6
CONTINUOUS
  0
LAYER
  2
STEMPEL
 70
     0
 62
     3
  6
CONTINUOUS
  0
LAYER
  2
DEFPOINTS
 70
     0
 62
     7
  6
AUSGEZOGEN
  0
ENDTAB
  0
TABLE
  2
STYLE
 70
     2
  0
STYLE
  2
STANDARD
 70
     0
 40
0.0
 41
0.8
 50
0.0
 71
     0
 42
3.5
  3
simplex.shx
  4

  0
STYLE
  2
GREEKS
 70
     0
 40
0.0
 41
0.8
 50
0.0
 71
     0
 42
2.5
  3
SIMPLEX.shx
  4

  0
ENDTAB
  0
TABLE
  2
VIEW
 70
     2
  0
ENDTAB
  0
TABLE
  2
UCS
 70
     0
  0
ENDTAB
  0
TABLE
  2
APPID
 70
     8
  0
APPID
  2
ACAD
 70
     0
  0
APPID
  2
ACAECLAYERSTANDARD
 70
     0
  0
APPID
  2
ACCMTRANSPARENCY
 70
     0
  0
APPID
  2
ACAD_NAV_VCDISPLAY
 70
     0
  0
APPID
  2
ACAD_PSEXT
 70
     0
  0
APPID
  2
ACAD_MLEADERVER
 70
     0
  0
APPID
  2
ACAD_OBJECT_CHANGE_GUID
 70
     0
  0
APPID
  2
ACAD_EXEMPT_FROM_CAD_STANDARDS
 70
     0
  0
ENDTAB
  0
TABLE
  2
DIMSTYLE
 70
     1
  0
DIMSTYLE
  2
STANDARD
 70
     0
  3

  4

  5

  6

  7

 40
1.0
 41
0.18
 42
0.0625
 43
0.38
 44
0.18
 45
0.0
 46
0.0
 47
0.0
 48
0.0
140
0.18
141
0.09
142
0.0
143
25.3999999999999986
144
1.0
145
0.0
146
1.0
147
0.09
 71
     0
 72
     0
 73
     1
 74
     1
 75
     0
 76
     0
 77
     0
 78
     0
170
     0
171
     2
172
     0
173
     0
174
     0
175
     0
176
     0
177
     0
178
     0
  0
ENDTAB
  0
ENDSEC
  0
SECTION
  2
BLOCKS
  0
BLOCK
  8
0
  2
$MODEL_SPACE
 70
     0
 10
0.0
 20
0.0
 30
0.0
  3
$MODEL_SPACE
  1

  0
ENDBLK
  5
36
  8
0
  0
BLOCK
 67
     1
  8
0
  2
$PAPER_SPACE
 70
     0
 10
0.0
 20
0.0
 30
0.0
  3
$PAPER_SPACE
  1

  0
ENDBLK
  5
34
 67
     1
  8
0
  0
BLOCK
  8
0
  2
A$C5A8B00DC
 70
     0
 10
0.0
 20
0.0
 30
0.0
  3
A$C5A8B00DC
  1

  0
LINE
  5
87A
  8
0
  6
CONTINUOUS
 62
     3
 10
-35.6251133647407414
 20
0.0000000000000711
 30
0.0
 11
35.6251133647407414
 21
-0.0000000000000995
 31
0.0
210
0.0
220
1.0
230
-0.0000000000000002
  0
LINE
  5
87B
  8
0
  6
CONTINUOUS
 62
     3
 10
-36.4999999999999503
 20
4.6433890690422581
 30
-0.000000000000001
 11
36.4999999999999503
 21
4.6433890690420592
 31
-0.000000000000001
210
0.0
220
1.0
230
-0.0000000000000002
  0
LINE
  5
87C
  8
0
  6
CONTINUOUS
 62
     3
 10
-38.9999999999996589
 20
108.0000000000000995
 30
-0.000000000000024
 11
39.0000000000003411
 21
107.999999999999801
 31
-0.000000000000024
210
0.0
220
1.0
230
-0.0000000000000002
  0
LINE
  5
87D
  8
0
  6
CONTINUOUS
 62
     3
 10
-35.625113364740713
 20
0.0000000000001044
 30
0.0
 11
-36.4999999999999076
 21
4.6433890690422768
 31
-0.000000000000001
210
0.0
220
1.0
230
-0.0000000000000002
  0
LINE
  5
87E
  8
0
  6
CONTINUOUS
 62
     3
 10
35.6251133647406988
 20
-0.0000000000000946
 30
0.0
 11
36.4999999999999289
 21
4.6433890690420592
 31
-0.000000000000001
210
0.0
220
1.0
230
-0.0000000000000002
  0
LINE
  5
87F
  8
0
  6
CONTINUOUS
 62
     3
 10
39.0000000000003411
 20
107.999999999999801
 30
-0.000000000000024
 11
39.0000000000002274
 21
72.9999999999998153
 31
-0.0000000000000162
210
0.0
220
1.0
230
-0.0000000000000002
  0
LINE
  5
880
  8
0
  6
CONTINUOUS
 62
     3
 10
-38.9999999999996589
 20
108.0000000000000995
 30
-0.000000000000024
 11
-38.9999999999997726
 21
73.0000000000000568
 31
-0.0000000000000162
210
0.0
220
1.0
230
-0.0000000000000002
  0
ARC
  5
881
  8
0
  6
CONTINUOUS
 62
     3
 10
26.9999999999999787
 20
72.9999999999999716
 30
0.0
 40
11.9999999999997797
210
0.0
220
-0.0000000000000002
230
-1.0
 50
331.0449756281394116
 51
0.0000000000004071
  0
ARC
  5
882
  8
0
  6
CONTINUOUS
 62
     3
 10
-27.0000000000004086
 20
72.9999999999998153
 30
0.0
 40
11.9999999999997993
210
0.0
220
-0.0000000000000002
230
-1.0
 50
180.0
 51
208.9550243718609863
  0
ARC
  5
883
  8
0
  6
CONTINUOUS
 62
     3
 10
44.4999999999995168
 20
63.3175416344815929
 30
0.0
 40
7.999999999999738
210
0.0
220
-0.0000000000000002
230
-1.0
 50
151.0449756281406053
 51
180.0000000000011084
  0
ARC
  5
884
  8
0
  6
CONTINUOUS
 62
     3
 10
-44.4999999999999432
 20
63.3175416344813087
 30
0.0
 40
7.9999999999998153
210
0.0
220
-0.0000000000000002
230
-1.0
 50
359.9999999999992042
 51
28.9550243718594906
  0
LINE
  5
885
  8
0
  6
CONTINUOUS
 62
     3
 10
36.500000000000199
 20
63.3175416344812021
 30
-0.0000000000000141
 11
36.5000000000000284
 21
4.6433890690420521
 31
-0.000000000000001
210
0.0
220
1.0
230
-0.0000000000000002
  0
LINE
  5
886
  8
0
  6
CONTINUOUS
 62
     3
 10
-36.499999999999801
 20
63.3175416344814224
 30
-0.0000000000000141
 11
-36.4999999999999716
 21
4.6433890690422723
 31
-0.000000000000001
210
0.0
220
1.0
230
-0.0000000000000002
  0
LINE
  5
887
  8
0
  6
VERDECKT
 62
     1
 10
-34.8999999999999204
 20
4.7928069625955922
 30
-0.0000000000000011
 11
34.8999999999999204
 21
4.792806962595364
 31
-0.0000000000000011
210
0.0
220
1.0
230
-0.0000000000000002
  0
LINE
  5
888
  8
0
  6
VERDECKT
 62
     1
 10
-33.996960712401183
 20
0.0000000000001137
 30
0.0
 11
-34.8999999999999204
 21
4.7928069625955629
 31
-0.0000000000000011
210
0.0
220
1.0
230
-0.0000000000000002
  0
LINE
  5
889
  8
0
  6
VERDECKT
 62
     1
 10
33.9969607124011617
 20
-0.0000000000000799
 30
0.0
 11
34.8999999999999275
 21
4.792806962595364
 31
-0.0000000000000011
210
0.0
220
1.0
230
-0.0000000000000002
  0
LINE
  5
88A
  8
0
  6
VERDECKT
 62
     1
 10
34.9000000000001833
 20
63.3175416344812021
 30
-0.0000000000000141
 11
34.9000000000000128
 21
4.792806962595364
 31
-0.0000000000000011
210
0.0
220
1.0
230
-0.0000000000000002
  0
LINE
  5
88B
  8
0
  6
VERDECKT
 62
     1
 10
-34.8999999999997783
 20
63.3175416344814224
 30
-0.0000000000000141
 11
-34.8999999999999488
 21
4.7928069625955629
 31
-0.0000000000000011
210
0.0
220
1.0
230
-0.0000000000000002
  0
ARC
  5
88C
  8
0
  6
VERDECKT
 62
     1
 10
44.5000000000008171
 20
63.3175416344811026
 30
0.0
 40
9.6000000000010601
210
0.0
220
-0.0000000000000002
230
-1.0
 50
151.0449756281406906
 51
179.9999999999980957
  0
ARC
  5
88D
  8
0
  6
VERDECKT
 62
     1
 10
-44.5000000000010871
 20
63.3175416344808468
 30
0.0
 40
9.6000000000009891
210
0.0
220
-0.0000000000000002
230
-1.0
 50
0.0
 51
28.9550243718579488
  0
ARC
  5
88E
  8
0
  6
VERDECKT
 62
     1
 10
26.9999999999993392
 20
72.9999999999999574
 30
0.0
 40
10.4000000000003894
210
0.0
220
-0.0000000000000002
230
-1.0
 50
331.0449756281421969
 51
0.0000000000005598
  0
ARC
  5
88F
  8
0
  6
VERDECKT
 62
     1
 10
-26.9999999999998899
 20
72.9999999999998153
 30
0.0
 40
10.4000000000003006
210
0.0
220
-0.0000000000000002
230
-1.0
 50
179.9999999999998863
 51
208.9550243718585136
  0
LINE
  5
890
  8
0
  6
VERDECKT
 62
     1
 10
37.4000000000003681
 20
107.999999999999801
 30
-0.000000000000024
 11
37.4000000000002686
 21
72.9999999999998153
 31
-0.0000000000000162
210
0.0
220
1.0
230
-0.0000000000000002
  0
LINE
  5
891
  8
0
  6
VERDECKT
 62
     1
 10
-37.3999999999997002
 20
108.0000000000000995
 30
-0.000000000000024
 11
-37.3999999999997996
 21
73.0000000000000568
 31
-0.0000000000000162
210
0.0
220
1.0
230
-0.0000000000000002
  0
ENDBLK
  5
893
  8
0
  0
BLOCK
  8
0
  2
A$C6E304820
 70
     0
 10
0.0
 20
0.0
 30
0.0
  3
A$C6E304820
  1

  0
CIRCLE
  5
897
  8
0
  6
CONTINUOUS
 62
     3
 10
0.0
 20
0.0000000000000073
 30
0.0
 40
33.996960712401183
  0
CIRCLE
  5
898
  8
0
  6
CONTINUOUS
 62
     3
 10
0.0000000000001846
 20
0.0000000000000111
 30
0.0
 40
34.8999999999999275
  0
CIRCLE
  5
899
  8
0
  6
CONTINUOUS
 62
     3
 10
0.000000000000365
 20
0.0000000000000139
 30
0.0
 40
37.4000000000000128
  0
CIRCLE
  5
89A
  8
0
  6
CONTINUOUS
 62
     3
 10
0.000000000000365
 20
0.0000000000000139
 30
0.0
 40
38.9999999999999787
  0
CIRCLE
  5
89B
  8
0
  6
VERDECKT
 62
     1
 10
0.0
 20
0.0000000000000073
 30
0.0
 40
35.6251133647407485
  0
CIRCLE
  5
89C
  8
0
  6
VERDECKT
 62
     1
 10
0.0000000000001846
 20
0.0000000000000111
 30
0.0
 40
36.4999999999999574
  0
ENDBLK
  5
89E
  8
0
  0
ENDSEC
  0
SECTION
  2
ENTITIES
  0
TEXT
  5
8F
  8
VOLL
 10
78.076754716981128
 20
31.025947764705851
 30
0.0
 40
1.8
  1

  7
GREEKS
  0
INSERT
  5
894
  8
STEMPEL
  2
A$C5A8B00DC
 10
0.0
 20
0.0
 30
0.0
  0
INSERT
  5
89F
  8
STEMPEL
  2
A$C6E304820
 10
-0.0000000000000933
 20
-139.0
 30
0.0
  0
VIEWPORT
  5
61E
 67
     1
  8
0
 10
8.8535704154914185
 20
12.1809000122402704
 30
0.0
 40
49.1261007916987111
 41
25.0197339357456308
 68
     1
 69
     1
1001
ACAD
1000
MVIEW
1002
{
1070
    16
1010
0.0
1020
0.0
1030
0.0
1010
0.0
1020
0.0
1030
1.0
1040
0.0
1040
25.0197339357456308
1040
8.8535704154914185
1040
12.1809000122402704
1040
50.0
1040
0.0
1040
0.0
1070
     0
1070
  1500
1070
     1
1070
     1
1070
     0
1070
     0
1070
     0
1070
     0
1040
0.0
1040
0.0
1040
0.0
1040
10.0
1040
10.0
1040
10.0
1040
10.0
1070
     0
1002
{
1002
}
1002
}
  0
VIEWPORT
  5
623
 67
     1
  8
DEFPOINTS
 10
8.8540552327111701
 20
12.18046180599897
 30
0.0
 40
18.1624431146895908
 41
24.8218194996307098
 68
     2
 69
     2
1001
ACAD
1000
MVIEW
1002
{
1070
    16
1010
411.5930949737538072
1020
93.7059016885843192
1030
80.1444791776750094
1010
0.0
1020
0.0
1030
1.0
1040
0.0
1040
308.1946644231869072
1040
-304.3739239782480013
1040
55.5028698053046909
1040
50.0
1040
0.0
1040
0.0
1070
     0
1070
  1500
1070
     1
1070
     0
1070
     0
1070
     0
1070
     0
1070
     0
1040
0.0
1040
0.0
1040
0.0
1040
1.0
1040
1.0
1040
10.0
1040
10.0
1070
     0
1002
{
1002
}
1002
}
  0
VIEWPORT
  5
627
 67
     1
  8
DEFPOINTS
 10
13.5881116605865007
 20
10.9882932099151596
 30
0.0
 40
5.1497577442828506
 41
6.253935005200332
 68
     3
 69
     3
1001
ACAD
1000
MVIEW
1002
{
1070
    16
1010
382.185082228675185
1020
184.9340359158636886
1030
79.2182658430656943
1010
0.0
1020
27.2488784126082884
1030
194.5094153850849921
1040
3.1415926535897931
1040
127.3610772924913022
1040
0.0
1040
0.0
1040
50.0
1040
0.0
1040
0.0
1070
     0
1070
  1500
1070
     1
1070
     0
1070
     0
1070
     0
1070
     0
1070
     0
1040
0.0
1040
0.0
1040
0.0
1040
1.0
1040
1.0
1040
10.0
1040
10.0
1070
     0
1002
{
1002
}
1002
}
  0
ENDSEC
  0
EOF
