  0
SECTION
  2
HEADER
  9
$ACADVER
  1
AC1009
  9
$INSBASE
 10
0.0
 20
0.0
 30
0.0
  9
$EXTMIN
 10
-128.5687043858737866
 20
-346.8174023133963146
 30
-0.0088494224577289
  9
$EXTMAX
 10
128.5650289556199084
 20
290.0008653157648837
 30
0.0132754841042697
  9
$LIMMIN
 10
0.0
 20
0.0
  9
$LIMMAX
 10
419.9999999999998863
 20
594.0
  9
$ORTHOMODE
 70
     1
  9
$REGENMODE
 70
     1
  9
$FILLMODE
 70
     1
  9
$QTEXTMODE
 70
     0
  9
$MIRRTEXT
 70
     1
  9
$DRAGMODE
 70
     2
  9
$LTSCALE
 40
20.0
  9
$OSMODE
 70
  2559
  9
$ATTMODE
 70
     1
  9
$TEXTSIZE
 40
3.5
  9
$TRACEWID
 40
0.5
  9
$TEXTSTYLE
  7
STANDARD
  9
$CLAYER
  8
STEMPEL
  9
$CELTYPE
  6
BYLAYER
  9
$CECOLOR
 62
   256
  9
$DIMSCALE
 40
2.0
  9
$DIMASZ
 40
3.5
  9
$DIMEXO
 40
1.0
  9
$DIMDLI
 40
7.0
  9
$DIMRND
 40
0.0
  9
$DIMDLE
 40
0.0
  9
$DIMEXE
 40
1.0
  9
$DIMTP
 40
2.5
  9
$DIMTM
 40
2.5
  9
$DIMTXT
 40
3.5
  9
$DIMCEN
 40
1.5
  9
$DIMTSZ
 40
0.0
  9
$DIMTOL
 70
     1
  9
$DIMLIM
 70
     0
  9
$DIMTIH
 70
     0
  9
$DIMTOH
 70
     0
  9
$DIMSE1
 70
     0
  9
$DIMSE2
 70
     0
  9
$DIMTAD
 70
     1
  9
$DIMZIN
 70
     8
  9
$DIMBLK
  1

  9
$DIMASO
 70
     1
  9
$DIMSHO
 70
     0
  9
$DIMPOST
  1

  9
$DIMAPOST
  1

  9
$DIMALT
 70
     0
  9
$DIMALTD
 70
     2
  9
$DIMALTF
 40
25.3999999999999986
  9
$DIMLFAC
 40
1.0
  9
$DIMTOFL
 70
     1
  9
$DIMTVP
 40
0.0
  9
$DIMTIX
 70
     0
  9
$DIMSOXD
 70
     0
  9
$DIMSAH
 70
     0
  9
$DIMBLK1
  1

  9
$DIMBLK2
  1

  9
$DIMSTYLE
  2
STANDARD
  9
$DIMCLRD
 70
     0
  9
$DIMCLRE
 70
     0
  9
$DIMCLRT
 70
     1
  9
$DIMTFAC
 40
1.0
  9
$DIMGAP
 40
1.5
  9
$LUNITS
 70
     2
  9
$LUPREC
 70
     2
  9
$SKETCHINC
 40
1.0
  9
$FILLETRAD
 40
0.0
  9
$AUNITS
 70
     0
  9
$AUPREC
 70
     0
  9
$MENU
  1
ACAD
  9
$ELEVATION
 40
0.0
  9
$PELEVATION
 40
0.0
  9
$THICKNESS
 40
0.0
  9
$LIMCHECK
 70
     0
  9
$BLIPMODE
 70
     0
  9
$CHAMFERA
 40
0.0
  9
$CHAMFERB
 40
0.0
  9
$SKPOLY
 70
     0
  9
$TDCREATE
 40
2455397.8646990740671754
  9
$TDUPDATE
 40
2458376.5586342602036893
  9
$TDINDWG
 40
0.1406004282
  9
$TDUSRTIMER
 40
0.1406004282
  9
$USRTIMER
 70
     1
  9
$ANGBASE
 50
0.0
  9
$ANGDIR
 70
     0
  9
$PDMODE
 70
     0
  9
$PDSIZE
 40
0.0
  9
$PLINEWID
 40
0.0
  9
$COORDS
 70
     1
  9
$SPLFRAME
 70
     0
  9
$SPLINETYPE
 70
     6
  9
$SPLINESEGS
 70
     8
  9
$ATTDIA
 70
     1
  9
$ATTREQ
 70
     1
  9
$HANDLING
 70
     1
  9
$HANDSEED
  5
1A36
  9
$SURFTAB1
 70
     6
  9
$SURFTAB2
 70
     6
  9
$SURFTYPE
 70
     6
  9
$SURFU
 70
     6
  9
$SURFV
 70
     6
  9
$UCSNAME
  2

  9
$UCSORG
 10
0.0
 20
0.0
 30
0.0
  9
$UCSXDIR
 10
1.0
 20
0.0
 30
0.0
  9
$UCSYDIR
 10
0.0
 20
1.0
 30
0.0
  9
$PUCSNAME
  2

  9
$PUCSORG
 10
0.0
 20
0.0
 30
0.0
  9
$PUCSXDIR
 10
1.0
 20
0.0
 30
0.0
  9
$PUCSYDIR
 10
0.0
 20
1.0
 30
0.0
  9
$USERI1
 70
     0
  9
$USERI2
 70
     0
  9
$USERI3
 70
     0
  9
$USERI4
 70
     0
  9
$USERI5
 70
     0
  9
$USERR1
 40
0.0
  9
$USERR2
 40
0.0
  9
$USERR3
 40
0.0
  9
$USERR4
 40
0.0
  9
$USERR5
 40
0.0
  9
$WORLDVIEW
 70
     1
  9
$SHADEDGE
 70
     3
  9
$SHADEDIF
 70
    70
  9
$TILEMODE
 70
     1
  9
$MAXACTVP
 70
    16
  9
$PLIMCHECK
 70
     0
  9
$PEXTMIN
 10
-0.2037320791325001
 20
-0.1601901398600951
 30
0.0
  9
$PEXTMAX
 10
9.3553650596640097
 20
13.1447364556554405
 30
0.0
  9
$PLIMMIN
 10
-0.1556621622913146
 20
-0.1930107054572575
  9
$PLIMMAX
 10
9.1933407539228842
 20
13.0294197179580902
  9
$UNITMODE
 70
     0
  9
$VISRETAIN
 70
     0
  9
$PLINEGEN
 70
     0
  9
$PSLTSCALE
 70
     0
  0
ENDSEC
  0
SECTION
  2
TABLES
  0
TABLE
  2
VPORT
 70
     1
  0
VPORT
  2
*ACTIVE
 70
     0
 10
0.0
 20
0.0
 11
1.0
 21
1.0
 12
-0.0018377151269533
 22
-111.7125707143918021
 13
0.0
 23
0.0
 14
1.0
 24
1.0
 15
10.0
 25
10.0
 16
-0.0000000000002749
 26
0.0
 36
1238.1647174834540692
 17
0.0
 27
83.3043022155761861
 37
-0.0000000000000322
 40
640.064579953524003
 41
1.868197278911564
 42
50.0
 43
0.0
 44
0.0
 50
0.0
 51
0.0
 71
     0
 72
  1500
 73
     1
 74
     0
 75
     0
 76
     0
 77
     0
 78
     0
  0
ENDTAB
  0
TABLE
  2
LTYPE
 70
     4
  0
LTYPE
  2
CONTINUOUS
 70
     0
  3
Solid line
 72
    65
 73
     0
 40
0.0
  0
LTYPE
  2
AUSGEZOGEN
 70
     0
  3
Ausgezogene Linie
 72
    65
 73
     0
 40
0.0
  0
LTYPE
  2
VERDECKT
 70
     0
  3
_ _ _ _ _ _ _ _ _ _ _ _ _ _ _ _ _ _ _ _ _ _ _
 72
    65
 73
     2
 40
0.375
 49
0.25
 49
-0.125
  0
ENDTAB
  0
TABLE
  2
LAYER
 70
    10
  0
LAYER
  2
0
 70
     0
 62
     7
  6
CONTINUOUS
  0
LAYER
  2
VOLL
 70
     0
 62
     1
  6
CONTINUOUS
  0
LAYER
  2
STEMPEL
 70
     0
 62
     3
  6
CONTINUOUS
  0
LAYER
  2
DEFPOINTS
 70
     0
 62
     7
  6
AUSGEZOGEN
  0
ENDTAB
  0
TABLE
  2
STYLE
 70
     2
  0
STYLE
  2
STANDARD
 70
     0
 40
0.0
 41
0.8
 50
0.0
 71
     0
 42
3.5
  3
simplex.shx
  4

  0
STYLE
  2
GREEKS
 70
     0
 40
0.0
 41
0.8
 50
0.0
 71
     0
 42
2.5
  3
SIMPLEX.shx
  4

  0
ENDTAB
  0
TABLE
  2
VIEW
 70
     2
  0
ENDTAB
  0
TABLE
  2
UCS
 70
     0
  0
ENDTAB
  0
TABLE
  2
APPID
 70
     8
  0
APPID
  2
ACAD
 70
     0
  0
APPID
  2
ACAD_NAV_VCDISPLAY
 70
     0
  0
APPID
  2
ACAD_MLEADERVER
 70
     0
  0
APPID
  2
ACAECLAYERSTANDARD
 70
     0
  0
APPID
  2
ACCMTRANSPARENCY
 70
     0
  0
APPID
  2
ACAD_OBJECT_CHANGE_GUID
 70
     0
  0
APPID
  2
ACAD_PSEXT
 70
     0
  0
APPID
  2
ACAD_EXEMPT_FROM_CAD_STANDARDS
 70
     0
  0
ENDTAB
  0
TABLE
  2
DIMSTYLE
 70
     1
  0
DIMSTYLE
  2
STANDARD
 70
     0
  3

  4

  5

  6

  7

 40
1.0
 41
0.18
 42
0.0625
 43
0.38
 44
0.18
 45
0.0
 46
0.0
 47
0.0
 48
0.0
140
0.18
141
0.09
142
0.0
143
25.3999999999999986
144
1.0
145
0.0
146
1.0
147
0.09
 71
     0
 72
     0
 73
     1
 74
     1
 75
     0
 76
     0
 77
     0
 78
     0
170
     0
171
     2
172
     0
173
     0
174
     0
175
     0
176
     0
177
     0
178
     0
  0
ENDTAB
  0
ENDSEC
  0
SECTION
  2
BLOCKS
  0
BLOCK
  8
0
  2
$MODEL_SPACE
 70
     0
 10
0.0
 20
0.0
 30
0.0
  3
$MODEL_SPACE
  1

  0
ENDBLK
  5
36
  8
0
  0
BLOCK
 67
     1
  8
0
  2
$PAPER_SPACE
 70
     0
 10
0.0
 20
0.0
 30
0.0
  3
$PAPER_SPACE
  1

  0
ENDBLK
  5
34
 67
     1
  8
0
  0
BLOCK
  8
0
  2
A$C433F449E
 70
     0
 10
0.0
 20
0.0
 30
0.0
  3
A$C433F449E
  1

  0
LINE
  5
199E
  8
0
  6
CONTINUOUS
 62
     3
 10
-117.4142249004363947
 20
290.0
 30
-0.0000000000000644
 11
117.4142249004363947
 21
290.0
 31
-0.0000000000000644
210
0.0
220
1.0
230
-0.0000000000000002
  0
LINE
  5
199F
  8
0
  6
CONTINUOUS
 62
     3
 10
-105.0
 20
11.5196369655923494
 30
-0.0000000000000026
 11
105.0
 21
11.5196369655923494
 31
-0.0000000000000026
210
0.0
220
1.0
230
-0.0000000000000002
  0
LINE
  5
19A0
  8
0
  6
CONTINUOUS
 62
     3
 10
-103.2502267294813976
 20
0.0
 30
0.0
 11
103.2502267294813976
 21
0.0
 31
0.0
210
0.0
220
1.0
230
-0.0000000000000002
  0
ARC
  5
19A1
  8
0
  6
CONTINUOUS
 62
     3
 10
80.5000000000019469
 20
268.1425070056062054
 30
0.0
 40
42.8999999999980375
210
0.0
220
-0.0000000000000002
230
-1.0
 50
359.9999999999990905
 51
30.6304422515289083
  0
ARC
  5
19A2
  8
0
  6
CONTINUOUS
 62
     3
 10
-80.5000000000019469
 20
268.1425070056062054
 30
0.0
 40
42.8999999999980517
210
0.0
220
-0.0000000000000002
230
-1.0
 50
149.3695577484710952
 51
180.0000000000007958
  0
LINE
  5
19A3
  8
0
  6
CONTINUOUS
 62
     3
 10
123.3999999999999062
 20
268.1425070056055233
 30
-0.0000000000000595
 11
123.3999999999999062
 21
235.8574929943943914
 31
-0.0000000000000524
210
0.0
220
1.0
230
-0.0000000000000002
  0
LINE
  5
19A4
  8
0
  6
CONTINUOUS
 62
     3
 10
-123.3999999999999062
 20
268.1425070056055233
 30
-0.0000000000000595
 11
-123.3999999999999062
 21
235.8574929943943914
 31
-0.0000000000000524
210
0.0
220
1.0
230
-0.0000000000000002
  0
ARC
  5
19A5
  8
0
  6
CONTINUOUS
 62
     3
 10
80.5000000000008669
 20
235.8574929943943062
 30
0.0
 40
42.8999999999990607
210
0.0
220
-0.0000000000000002
230
-1.0
 50
329.3645523418537095
 51
0.0000000000002672
  0
ARC
  5
19A6
  8
0
  6
CONTINUOUS
 62
     3
 10
-80.5000000000006821
 20
235.8574929943943914
 30
0.0
 40
42.899999999999288
210
0.0
220
-0.0000000000000002
230
-1.0
 50
179.999999999999801
 51
210.6354476581462052
  0
ARC
  5
19A7
  8
0
  6
CONTINUOUS
 62
     3
 10
132.9000000000002899
 20
204.8244460927444948
 30
0.0
 40
18.0000000000003197
210
0.0
220
-0.0000000000000002
230
-1.0
 50
149.3645523418526864
 51
180.0000000000001137
  0
ARC
  5
19A8
  8
0
  6
CONTINUOUS
 62
     3
 10
-132.9000000000002899
 20
204.8244460927444948
 30
0.0
 40
18.0000000000002984
210
0.0
220
-0.0000000000000002
230
-1.0
 50
0.0
 51
30.6354476581473811
  0
LINE
  5
19A9
  8
0
  6
CONTINUOUS
 62
     3
 10
114.9000000000000057
 20
204.8244460927444948
 30
-0.0000000000000455
 11
114.9000000000000057
 21
179.1515026088615059
 31
-0.0000000000000398
210
0.0
220
1.0
230
-0.0000000000000002
  0
LINE
  5
19AA
  8
0
  6
CONTINUOUS
 62
     3
 10
-114.9000000000000057
 20
204.8244460927444948
 30
-0.0000000000000455
 11
-114.9000000000000057
 21
179.1515026088615059
 31
-0.0000000000000398
210
0.0
220
1.0
230
-0.0000000000000002
  0
ARC
  5
19AB
  8
0
  6
CONTINUOUS
 62
     3
 10
94.0000000000002558
 20
179.151502608861307
 30
0.0
 40
20.8999999999997286
210
0.0
220
-0.0000000000000002
230
-1.0
 50
325.6131069731171124
 51
0.0000000000006297
  0
ARC
  5
19AC
  8
0
  6
CONTINUOUS
 62
     3
 10
-94.0000000000002558
 20
179.151502608861307
 30
0.0
 40
20.8999999999997392
210
0.0
220
-0.0000000000000002
230
-1.0
 50
179.9999999999994031
 51
214.3868930268828024
  0
ARC
  5
19AD
  8
0
  6
CONTINUOUS
 62
     3
 10
119.4999999999987068
 20
161.6998551221630009
 30
0.0
 40
9.9999999999987317
210
0.0
220
-0.0000000000000002
230
-1.0
 50
145.613106973112707
 51
179.9999999999967883
  0
ARC
  5
19AE
  8
0
  6
CONTINUOUS
 62
     3
 10
-119.4999999999987068
 20
161.6998551221630009
 30
0.0
 40
9.9999999999987352
210
0.0
220
-0.0000000000000002
230
-1.0
 50
0.0000000000030915
 51
34.3868930268872575
  0
LINE
  5
19AF
  8
0
  6
CONTINUOUS
 62
     3
 10
109.5
 20
161.6998551221635978
 30
-0.0000000000000359
 11
109.5
 21
136.057708429287203
 31
-0.0000000000000302
210
0.0
220
1.0
230
-0.0000000000000002
  0
LINE
  5
19B0
  8
0
  6
CONTINUOUS
 62
     3
 10
-109.5
 20
161.6998551221635978
 30
-0.0000000000000359
 11
-109.5
 21
136.057708429287203
 31
-0.0000000000000302
210
0.0
220
1.0
230
-0.0000000000000002
  0
ARC
  5
19B1
  8
0
  6
CONTINUOUS
 62
     3
 10
88.6000000000006622
 20
136.0577084292868904
 30
0.0
 40
20.8999999999993484
210
0.0
220
-0.0000000000000002
230
-1.0
 50
328.6900868928112232
 51
0.0000000000008651
  0
ARC
  5
19B2
  8
0
  6
CONTINUOUS
 62
     3
 10
-88.6000000000006622
 20
136.0577084292868904
 30
0.0
 40
20.8999999999993413
210
0.0
220
-0.0000000000000002
230
-1.0
 50
179.9999999999990905
 51
211.3099131071888053
  0
ARC
  5
19B3
  8
0
  6
CONTINUOUS
 62
     3
 10
114.9999999999995026
 20
120.0
 30
0.0
 40
9.9999999999995541
210
0.0
220
-0.0000000000000002
230
-1.0
 50
148.6900868928092052
 51
180.0000000000005969
  0
ARC
  5
19B4
  8
0
  6
CONTINUOUS
 62
     3
 10
-114.9999999999995026
 20
120.0
 30
0.0
 40
9.9999999999995595
210
0.0
220
-0.0000000000000002
230
-1.0
 50
359.9999999999993179
 51
31.3099131071907699
  0
LINE
  5
19B5
  8
0
  6
CONTINUOUS
 62
     3
 10
105.0
 20
119.9999999999999005
 30
-0.0000000000000266
 11
105.0
 21
11.5196369655923494
 31
-0.0000000000000026
210
0.0
220
1.0
230
-0.0000000000000002
  0
LINE
  5
19B6
  8
0
  6
CONTINUOUS
 62
     3
 10
-105.0
 20
119.9999999999999005
 30
-0.0000000000000266
 11
-105.0
 21
11.5196369655923494
 31
-0.0000000000000026
210
0.0
220
1.0
230
-0.0000000000000002
  0
LINE
  5
19B7
  8
0
  6
CONTINUOUS
 62
     3
 10
-103.2502267294813976
 20
0.0
 30
0.0
 11
-105.0
 21
11.5196369655923494
 31
-0.0000000000000026
210
0.0
220
1.0
230
-0.0000000000000002
  0
LINE
  5
19B8
  8
0
  6
CONTINUOUS
 62
     3
 10
103.2502267294813976
 20
0.0
 30
0.0
 11
105.0
 21
11.5196369655923494
 31
-0.0000000000000026
210
0.0
220
1.0
230
-0.0000000000000002
  0
LINE
  5
19B9
  8
0
  6
VERDECKT
 62
     1
 10
-102.1000000000000938
 20
11.7386285231231096
 30
-0.0000000000000026
 11
102.1000000000000938
 21
11.7386285231231096
 31
-0.0000000000000026
210
0.0
220
1.0
230
-0.0000000000000002
  0
ARC
  5
19BA
  8
0
  6
VERDECKT
 62
     1
 10
80.4999999999992042
 20
235.8574929943945904
 30
0.0
 40
40.0000000000007816
210
0.0
220
-0.0000000000000002
230
-1.0
 50
329.3645523418543917
 51
359.9999999999997726
  0
ARC
  5
19BB
  8
0
  6
VERDECKT
 62
     1
 10
-80.4999999999991047
 20
235.8574929943945904
 30
0.0
 40
40.0000000000008882
210
0.0
220
-0.0000000000000002
230
-1.0
 50
180.000000000000199
 51
210.6354476581454946
  0
LINE
  5
19BC
  8
0
  6
VERDECKT
 62
     1
 10
120.5
 20
268.1425070056055233
 30
-0.0000000000000595
 11
120.5
 21
235.8574929943943914
 31
-0.0000000000000524
210
0.0
220
1.0
230
-0.0000000000000002
  0
LINE
  5
19BD
  8
0
  6
VERDECKT
 62
     1
 10
-120.5
 20
268.1425070056055233
 30
-0.0000000000000595
 11
-120.5
 21
235.8574929943943914
 31
-0.0000000000000524
210
0.0
220
1.0
230
-0.0000000000000002
  0
ARC
  5
19BE
  8
0
  6
VERDECKT
 62
     1
 10
80.5000000000002274
 20
268.1425070056056938
 30
0.0
 40
39.9999999999997726
210
0.0
220
-0.0000000000000002
230
-1.0
 50
359.9999999999997158
 51
33.1229402077436674
  0
ARC
  5
19BF
  8
0
  6
VERDECKT
 62
     1
 10
-80.5000000000002274
 20
268.1425070056056938
 30
0.0
 40
39.9999999999997584
210
0.0
220
-0.0000000000000002
230
-1.0
 50
146.8770597922562899
 51
180.000000000000199
  0
LINE
  5
19C0
  8
0
  6
VERDECKT
 62
     1
 10
-100.3169630446115974
 20
0.0000000000000071
 30
0.0
 11
-102.1000000000000938
 21
11.7386285231231202
 31
-0.0000000000000026
210
0.0
220
1.0
230
-0.0000000000000002
  0
LINE
  5
19C1
  8
0
  6
VERDECKT
 62
     1
 10
100.3169630446115974
 20
0.0000000000000071
 30
0.0
 11
102.1000000000000938
 21
11.7386285231231202
 31
-0.0000000000000026
210
0.0
220
1.0
230
-0.0000000000000002
  0
LINE
  5
19C2
  8
0
  6
VERDECKT
 62
     1
 10
102.1000000000000938
 20
119.9999999999999005
 30
-0.0000000000000266
 11
102.1000000000000938
 21
11.7386285231231096
 31
-0.0000000000000026
210
0.0
220
1.0
230
-0.0000000000000002
  0
LINE
  5
19C3
  8
0
  6
VERDECKT
 62
     1
 10
-102.1000000000000938
 20
119.9999999999999005
 30
-0.0000000000000266
 11
-102.1000000000000938
 21
11.7386285231231096
 31
-0.0000000000000026
210
0.0
220
1.0
230
-0.0000000000000002
  0
ARC
  5
19C4
  8
0
  6
VERDECKT
 62
     1
 10
114.9999999999981952
 20
120.0000000000006963
 30
0.0
 40
12.8999999999981796
210
0.0
220
-0.0000000000000002
230
-1.0
 50
148.6900868928107116
 51
180.0000000000032117
  0
ARC
  5
19C5
  8
0
  6
VERDECKT
 62
     1
 10
-114.9999999999977973
 20
120.0000000000007958
 30
0.0
 40
12.8999999999978296
210
0.0
220
-0.0000000000000002
230
-1.0
 50
359.9999999999961915
 51
31.3099131071897183
  0
ARC
  5
19C6
  8
0
  6
VERDECKT
 62
     1
 10
88.599999999999028
 20
136.0577084292874872
 30
0.0
 40
18.0000000000009912
210
0.0
220
-0.0000000000000002
230
-1.0
 50
328.6900868928108252
 51
359.9999999999988063
  0
ARC
  5
19C7
  8
0
  6
VERDECKT
 62
     1
 10
-88.5999999999988717
 20
136.0577084292876009
 30
0.0
 40
18.0000000000011404
210
0.0
220
-0.0000000000000002
230
-1.0
 50
180.0000000000011084
 51
211.3099131071890042
  0
LINE
  5
19C8
  8
0
  6
VERDECKT
 62
     1
 10
106.5999999999999943
 20
161.6998551221635978
 30
-0.0000000000000359
 11
106.5999999999999943
 21
136.057708429287203
 31
-0.0000000000000302
210
0.0
220
1.0
230
-0.0000000000000002
  0
LINE
  5
19C9
  8
0
  6
VERDECKT
 62
     1
 10
-106.5999999999999943
 20
161.6998551221635978
 30
-0.0000000000000359
 11
-106.5999999999999943
 21
136.057708429287203
 31
-0.0000000000000302
210
0.0
220
1.0
230
-0.0000000000000002
  0
ARC
  5
19CA
  8
0
  6
VERDECKT
 62
     1
 10
119.4999999999983942
 20
161.6998551221631999
 30
0.0
 40
12.8999999999983999
210
0.0
220
-0.0000000000000002
230
-1.0
 50
145.6131069731135881
 51
179.9999999999986073
  0
ARC
  5
19CB
  8
0
  6
VERDECKT
 62
     1
 10
-119.4999999999983942
 20
161.6998551221631999
 30
0.0
 40
12.8999999999983999
210
0.0
220
-0.0000000000000002
230
-1.0
 50
0.0000000000013867
 51
34.3868930268863622
  0
ARC
  5
19CC
  8
0
  6
VERDECKT
 62
     1
 10
94.0000000000001137
 20
179.1515026088615059
 30
0.0
 40
17.9999999999998792
210
0.0
220
-0.0000000000000002
230
-1.0
 50
325.6131069731169987
 51
0.0000000000001781
  0
ARC
  5
19CD
  8
0
  6
VERDECKT
 62
     1
 10
-94.0000000000001137
 20
179.1515026088615059
 30
0.0
 40
17.9999999999998792
210
0.0
220
-0.0000000000000002
230
-1.0
 50
179.999999999999801
 51
214.3868930268828876
  0
LINE
  5
19CE
  8
0
  6
VERDECKT
 62
     1
 10
112.0
 20
204.8244460927444948
 30
-0.0000000000000455
 11
112.0
 21
179.1515026088615059
 31
-0.0000000000000398
210
0.0
220
1.0
230
-0.0000000000000002
  0
LINE
  5
19CF
  8
0
  6
VERDECKT
 62
     1
 10
-112.0
 20
204.8244460927444948
 30
-0.0000000000000455
 11
-112.0
 21
179.1515026088615059
 31
-0.0000000000000398
210
0.0
220
1.0
230
-0.0000000000000002
  0
ARC
  5
19D0
  8
0
  6
VERDECKT
 62
     1
 10
132.9000000000006878
 20
204.8244460927442958
 30
0.0
 40
20.9000000000007411
210
0.0
220
-0.0000000000000002
230
-1.0
 50
149.364552341852999
 51
179.9999999999992042
  0
ARC
  5
19D1
  8
0
  6
VERDECKT
 62
     1
 10
-132.9000000000011141
 20
204.8244460927442105
 30
0.0
 40
20.9000000000010893
210
0.0
220
-0.0000000000000002
230
-1.0
 50
0.0000000000008651
 51
30.6354476581465995
  0
ENDBLK
  5
19D3
  8
0
  0
BLOCK
  8
0
  2
A$C0C491287
 70
     0
 10
0.0
 20
0.0
 30
0.0
  3
A$C0C491287
  1

  0
CIRCLE
  5
19D7
  8
0
  6
CONTINUOUS
 62
     3
 10
0.0000000000000644
 20
0.0000000000000316
 30
0.0
 40
114.0000000000000995
  0
CIRCLE
  5
19D8
  8
0
  6
CONTINUOUS
 62
     3
 10
0.0000000000000644
 20
0.0000000000000316
 30
0.0
 40
117.4142249004363947
  0
CIRCLE
  5
19D9
  8
0
  6
CONTINUOUS
 62
     3
 10
0.0000000000000595
 20
0.0000000000000303
 30
0.0
 40
123.3999999999999062
  0
CIRCLE
  5
19DA
  8
0
  6
CONTINUOUS
 62
     3
 10
0.0
 20
0.0000000000000139
 30
0.0
 40
100.3169630446116969
  0
CIRCLE
  5
19DB
  8
0
  6
CONTINUOUS
 62
     3
 10
0.0000000000000266
 20
0.0000000000000212
 30
0.0
 40
102.0999999999999943
  0
CIRCLE
  5
19DC
  8
0
  6
CONTINUOUS
 62
     3
 10
0.0000000000000359
 20
0.0000000000000238
 30
0.0
 40
106.5999999999999943
  0
CIRCLE
  5
19DD
  8
0
  6
CONTINUOUS
 62
     3
 10
0.0000000000000455
 20
0.0000000000000264
 30
0.0
 40
112.0
  0
CIRCLE
  5
19DE
  8
0
  6
VERDECKT
 62
     1
 10
0.0000000000000595
 20
0.0000000000000303
 30
0.0
 40
120.5
  0
CIRCLE
  5
19DF
  8
0
  6
VERDECKT
 62
     1
 10
0.0000000000000455
 20
0.0000000000000264
 30
0.0
 40
114.9000000000000057
  0
CIRCLE
  5
19E0
  8
0
  6
VERDECKT
 62
     1
 10
0.0000000000000359
 20
0.0000000000000238
 30
0.0
 40
109.5
  0
CIRCLE
  5
19E1
  8
0
  6
VERDECKT
 62
     1
 10
0.0000000000000266
 20
0.0000000000000212
 30
0.0
 40
105.0
  0
CIRCLE
  5
19E2
  8
0
  6
VERDECKT
 62
     1
 10
0.0
 20
0.0000000000000139
 30
0.0
 40
103.2502267294813976
  0
ENDBLK
  5
19E4
  8
0
  0
ENDSEC
  0
SECTION
  2
ENTITIES
  0
TEXT
  5
8F
  8
VOLL
 10
78.076754716981128
 20
31.025947764705851
 30
0.0
 40
1.8
  1

  7
GREEKS
  0
INSERT
  5
19D4
  8
STEMPEL
  2
A$C433F449E
 10
0.0
 20
0.0
 30
0.0
  0
INSERT
  5
19E5
  8
STEMPEL
  2
A$C0C491287
 10
0.0
 20
-223.4000000000000057
 30
0.0
  0
VIEWPORT
  5
176B
 67
     1
  8
0
 10
4.5756756434686476
 20
6.4925392771069754
 30
0.0
 40
24.9850085501538608
 41
13.3738598338556898
 68
     1
 69
     1
1001
ACAD
1000
MVIEW
1002
{
1070
    16
1010
0.0
1020
0.0
1030
0.0
1010
0.0
1020
0.0
1030
1.0
1040
0.0
1040
13.3738598338556898
1040
4.5756756434686476
1040
6.4925392771069754
1040
50.0
1040
0.0
1040
0.0
1070
     0
1070
  1500
1070
     1
1070
     1
1070
     0
1070
     0
1070
     0
1070
     0
1040
0.0
1040
0.0
1040
0.0
1040
10.0
1040
10.0
1040
10.0
1040
10.0
1070
     0
1002
{
1002
}
1002
}
  0
VIEWPORT
  5
1770
 67
     1
  8
DEFPOINTS
 10
4.5758164902657539
 20
6.4922731578976727
 30
0.0
 40
9.5590971387965098
 41
13.3049265955155391
 68
     2
 69
     2
1001
ACAD
1000
MVIEW
1002
{
1070
    16
1010
882.9968640893032443
1020
303.3135240329000908
1030
-260.1055210004428773
1010
0.0
1020
0.0
1030
1.0
1040
0.0
1040
616.358067590766268
1040
-670.3573609139148175
1040
-2.882265406623076
1040
50.0
1040
0.0
1040
0.0
1070
     0
1070
  1500
1070
     1
1070
     0
1070
     0
1070
     0
1070
     0
1070
     0
1040
0.0
1040
0.0
1040
0.0
1040
1.0
1040
1.0
1040
10.0
1040
10.0
1070
     0
1002
{
1002
}
1002
}
  0
VIEWPORT
  5
1774
 67
     1
  8
DEFPOINTS
 10
7.7667597045634942
 20
4.3208191166898722
 30
0.0
 40
1.6073225671277589
 41
2.2697655272388602
 68
     3
 69
     3
1001
ACAD
1000
MVIEW
1002
{
1070
    16
1010
853.0736313228655945
1020
303.0454051535708118
1030
-250.9556998567925916
1010
0.0
1020
146.1309035604984956
1030
561.2222316629198531
1040
3.1415926535897931
1040
397.557947693814981
1040
0.0
1040
0.0
1040
50.0
1040
0.0
1040
0.0
1070
     0
1070
  1500
1070
     1
1070
     0
1070
     0
1070
     0
1070
     0
1070
     0
1040
0.0
1040
0.0
1040
0.0
1040
1.0
1040
1.0
1040
10.0
1040
10.0
1070
     0
1002
{
1002
}
1002
}
  0
ENDSEC
  0
EOF
