  0
SECTION
  2
HEADER
  9
$ACADVER
  1
AC1009
  9
$INSBASE
 10
0.0
 20
0.0
 30
0.0
  9
$EXTMIN
 10
-475.0387564627905022
 20
-350.0385728066769957
 30
-0.0000000000000773
  9
$EXTMAX
 10
136.4812478871099017
 20
284.0343793649628878
 30
0.0000000000000143
  9
$LIMMIN
 10
0.0
 20
0.0
  9
$LIMMAX
 10
419.9999999999998863
 20
594.0
  9
$ORTHOMODE
 70
     1
  9
$REGENMODE
 70
     1
  9
$FILLMODE
 70
     1
  9
$QTEXTMODE
 70
     0
  9
$MIRRTEXT
 70
     1
  9
$DRAGMODE
 70
     2
  9
$LTSCALE
 40
20.0
  9
$OSMODE
 70
  2559
  9
$ATTMODE
 70
     1
  9
$TEXTSIZE
 40
3.5
  9
$TRACEWID
 40
0.5
  9
$TEXTSTYLE
  7
STANDARD
  9
$CLAYER
  8
STEMPEL
  9
$CELTYPE
  6
BYLAYER
  9
$CECOLOR
 62
   256
  9
$DIMSCALE
 40
2.0
  9
$DIMASZ
 40
3.5
  9
$DIMEXO
 40
1.0
  9
$DIMDLI
 40
7.0
  9
$DIMRND
 40
0.0
  9
$DIMDLE
 40
0.0
  9
$DIMEXE
 40
1.0
  9
$DIMTP
 40
0.2
  9
$DIMTM
 40
0.5
  9
$DIMTXT
 40
3.5
  9
$DIMCEN
 40
1.5
  9
$DIMTSZ
 40
0.0
  9
$DIMTOL
 70
     0
  9
$DIMLIM
 70
     0
  9
$DIMTIH
 70
     0
  9
$DIMTOH
 70
     0
  9
$DIMSE1
 70
     0
  9
$DIMSE2
 70
     0
  9
$DIMTAD
 70
     1
  9
$DIMZIN
 70
     8
  9
$DIMBLK
  1

  9
$DIMASO
 70
     1
  9
$DIMSHO
 70
     0
  9
$DIMPOST
  1

  9
$DIMAPOST
  1

  9
$DIMALT
 70
     0
  9
$DIMALTD
 70
     2
  9
$DIMALTF
 40
25.3999999999999986
  9
$DIMLFAC
 40
1.0
  9
$DIMTOFL
 70
     1
  9
$DIMTVP
 40
0.0
  9
$DIMTIX
 70
     0
  9
$DIMSOXD
 70
     0
  9
$DIMSAH
 70
     0
  9
$DIMBLK1
  1

  9
$DIMBLK2
  1

  9
$DIMSTYLE
  2
STANDARD
  9
$DIMCLRD
 70
     0
  9
$DIMCLRE
 70
     0
  9
$DIMCLRT
 70
     1
  9
$DIMTFAC
 40
0.5
  9
$DIMGAP
 40
1.5
  9
$LUNITS
 70
     2
  9
$LUPREC
 70
     2
  9
$SKETCHINC
 40
1.0
  9
$FILLETRAD
 40
0.0
  9
$AUNITS
 70
     0
  9
$AUPREC
 70
     0
  9
$MENU
  1
ACAD
  9
$ELEVATION
 40
0.0
  9
$PELEVATION
 40
0.0
  9
$THICKNESS
 40
0.0
  9
$LIMCHECK
 70
     0
  9
$BLIPMODE
 70
     0
  9
$CHAMFERA
 40
0.0
  9
$CHAMFERB
 40
0.0
  9
$SKPOLY
 70
     0
  9
$TDCREATE
 40
2455397.8646990740671754
  9
$TDUPDATE
 40
2458376.5348958331160247
  9
$TDINDWG
 40
0.0582918171
  9
$TDUSRTIMER
 40
0.0582918171
  9
$USRTIMER
 70
     1
  9
$ANGBASE
 50
0.0
  9
$ANGDIR
 70
     0
  9
$PDMODE
 70
     0
  9
$PDSIZE
 40
0.0
  9
$PLINEWID
 40
0.0
  9
$COORDS
 70
     1
  9
$SPLFRAME
 70
     0
  9
$SPLINETYPE
 70
     6
  9
$SPLINESEGS
 70
     8
  9
$ATTDIA
 70
     1
  9
$ATTREQ
 70
     1
  9
$HANDLING
 70
     1
  9
$HANDSEED
  5
1A91
  9
$SURFTAB1
 70
     6
  9
$SURFTAB2
 70
     6
  9
$SURFTYPE
 70
     6
  9
$SURFU
 70
     6
  9
$SURFV
 70
     6
  9
$UCSNAME
  2

  9
$UCSORG
 10
0.0
 20
0.0
 30
0.0
  9
$UCSXDIR
 10
1.0
 20
0.0
 30
0.0
  9
$UCSYDIR
 10
0.0
 20
1.0
 30
0.0
  9
$PUCSNAME
  2

  9
$PUCSORG
 10
0.0
 20
0.0
 30
0.0
  9
$PUCSXDIR
 10
1.0
 20
0.0
 30
0.0
  9
$PUCSYDIR
 10
0.0
 20
1.0
 30
0.0
  9
$USERI1
 70
     0
  9
$USERI2
 70
     0
  9
$USERI3
 70
     0
  9
$USERI4
 70
     0
  9
$USERI5
 70
     0
  9
$USERR1
 40
0.0
  9
$USERR2
 40
0.0
  9
$USERR3
 40
0.0
  9
$USERR4
 40
0.0
  9
$USERR5
 40
0.0
  9
$WORLDVIEW
 70
     1
  9
$SHADEDGE
 70
     3
  9
$SHADEDIF
 70
    70
  9
$TILEMODE
 70
     1
  9
$MAXACTVP
 70
    16
  9
$PLIMCHECK
 70
     0
  9
$PEXTMIN
 10
-0.2039244293345526
 20
-0.2197498965090361
 30
-0.0015258207003583
  9
$PEXTMAX
 10
13.2913201007712196
 20
18.2584227063892186
 30
0.0000000349246037
  9
$PLIMMIN
 10
-0.2500002402958907
 20
-0.2499999962453767
  9
$PLIMMAX
 10
10.7499995194082203
 20
8.2499997634587334
  9
$UNITMODE
 70
     0
  9
$VISRETAIN
 70
     0
  9
$PLINEGEN
 70
     0
  9
$PSLTSCALE
 70
     0
  0
ENDSEC
  0
SECTION
  2
TABLES
  0
TABLE
  2
VPORT
 70
     1
  0
VPORT
  2
*ACTIVE
 70
     0
 10
0.0
 20
0.0
 11
1.0
 21
1.0
 12
-173.5287771760237945
 22
-112.5098710738842982
 13
0.0
 23
0.0
 14
1.0
 24
1.0
 15
10.0
 25
10.0
 16
-0.0000000000002762
 26
0.0
 36
1244.2599908812469494
 17
4.2500228881835929
 27
79.5077743530273438
 37
-0.0000000000000315
 40
637.3052696848342293
 41
1.868197278911564
 42
50.0
 43
0.0
 44
0.0
 50
0.0
 51
0.0
 71
     0
 72
  1500
 73
     1
 74
     0
 75
     0
 76
     0
 77
     0
 78
     0
  0
ENDTAB
  0
TABLE
  2
LTYPE
 70
     3
  0
LTYPE
  2
CONTINUOUS
 70
     0
  3
Solid line
 72
    65
 73
     0
 40
0.0
  0
LTYPE
  2
VERDECKT
 70
     0
  3
_ _ _ _ _ _ _ _ _ _ _ _ _ _ _ _ _ _ _ _ _ _ _
 72
    65
 73
     2
 40
0.375
 49
0.25
 49
-0.125
  0
ENDTAB
  0
TABLE
  2
LAYER
 70
    10
  0
LAYER
  2
0
 70
     0
 62
     7
  6
CONTINUOUS
  0
LAYER
  2
VOLL
 70
     0
 62
     1
  6
CONTINUOUS
  0
LAYER
  2
STEMPEL
 70
     0
 62
     3
  6
CONTINUOUS
  0
LAYER
  2
TEXT
 70
     0
 62
     7
  6
CONTINUOUS
  0
LAYER
  2
DEFPOINTS
 70
     0
 62
     7
  6
CONTINUOUS
  0
ENDTAB
  0
TABLE
  2
STYLE
 70
     2
  0
STYLE
  2
STANDARD
 70
     0
 40
0.0
 41
0.8
 50
0.0
 71
     0
 42
3.5
  3
simplex.shx
  4

  0
STYLE
  2
GREEKS
 70
     0
 40
0.0
 41
0.8
 50
0.0
 71
     0
 42
2.5
  3
SIMPLEX.shx
  4

  0
ENDTAB
  0
TABLE
  2
VIEW
 70
     1
  0
ENDTAB
  0
TABLE
  2
UCS
 70
     0
  0
ENDTAB
  0
TABLE
  2
APPID
 70
     8
  0
APPID
  2
ACAD
 70
     0
  0
APPID
  2
ACAD_NAV_VCDISPLAY
 70
     0
  0
APPID
  2
ACAECLAYERSTANDARD
 70
     0
  0
APPID
  2
ACCMTRANSPARENCY
 70
     0
  0
APPID
  2
ACAD_MLEADERVER
 70
     0
  0
APPID
  2
ACAD_OBJECT_CHANGE_GUID
 70
     0
  0
APPID
  2
ACAD_PSEXT
 70
     0
  0
APPID
  2
ACAD_EXEMPT_FROM_CAD_STANDARDS
 70
     0
  0
ENDTAB
  0
TABLE
  2
DIMSTYLE
 70
     1
  0
DIMSTYLE
  2
STANDARD
 70
     0
  3

  4

  5

  6

  7

 40
1.0
 41
0.18
 42
0.0625
 43
0.38
 44
0.18
 45
0.0
 46
0.0
 47
0.0
 48
0.0
140
0.18
141
0.09
142
0.0
143
25.3999999999999986
144
1.0
145
0.0
146
1.0
147
0.09
 71
     0
 72
     0
 73
     1
 74
     1
 75
     0
 76
     0
 77
     0
 78
     0
170
     0
171
     2
172
     0
173
     0
174
     0
175
     0
176
     0
177
     0
178
     0
  0
ENDTAB
  0
ENDSEC
  0
SECTION
  2
BLOCKS
  0
BLOCK
  8
0
  2
$MODEL_SPACE
 70
     0
 10
0.0
 20
0.0
 30
0.0
  3
$MODEL_SPACE
  1

  0
ENDBLK
  5
36
  8
0
  0
BLOCK
 67
     1
  8
0
  2
$PAPER_SPACE
 70
     0
 10
0.0
 20
0.0
 30
0.0
  3
$PAPER_SPACE
  1

  0
ENDBLK
  5
34
 67
     1
  8
0
  0
BLOCK
  8
0
  2
A$C22054D8E
 70
     0
 10
0.0
 20
0.0
 30
0.0
  3
A$C22054D8E
  1

  0
LINE
  5
19C5
  8
0
  6
CONTINUOUS
 62
     3
 10
125.0
 20
164.0
 30
-0.0000000000000364
 11
-125.0
 21
164.0
 31
-0.0000000000000364
210
0.0
220
1.0
230
-0.0000000000000002
  0
LINE
  5
19C6
  8
0
  6
CONTINUOUS
 62
     3
 10
-125.0
 20
-0.0000000000000568
 30
0.0
 11
125.0
 21
0.0
 31
0.0
210
0.0
220
1.0
230
-0.0000000000000002
  0
LINE
  5
19C7
  8
0
  6
CONTINUOUS
 62
     3
 10
-43.7584447974059003
 20
283.9999999999998863
 30
-0.0000000000000631
 11
129.7584447974059003
 21
283.9999999999998863
 31
-0.0000000000000631
210
0.0
220
1.0
230
-0.0000000000000002
  0
LINE
  5
19C8
  8
0
  6
CONTINUOUS
 62
     3
 10
-125.0
 20
0.0
 30
0.0
 11
-125.0
 21
164.0
 31
-0.0000000000000364
210
0.0
220
1.0
230
-0.0000000000000002
  0
LINE
  5
19C9
  8
0
  6
CONTINUOUS
 62
     3
 10
125.0
 20
0.0
 30
0.0
 11
125.0
 21
164.0
 31
-0.0000000000000364
210
0.0
220
1.0
230
-0.0000000000000002
  0
LINE
  5
19CA
  8
0
  6
CONTINUOUS
 62
     3
 10
129.7584447974059003
 20
283.9999999999998863
 30
-0.0000000000000631
 11
130.2207725462849055
 21
283.0085349429858184
 31
-0.0000000000000628
210
0.0
220
1.0
230
-0.0000000000000002
  0
LINE
  5
19CB
  8
0
  6
CONTINUOUS
 62
     3
 10
-43.758444797405879
 20
283.9999999999998863
 30
-0.0000000000000631
 11
-44.2207725462849126
 21
283.0085349429858184
 31
-0.0000000000000628
210
0.0
220
1.0
230
-0.0000000000000002
  0
ARC
  5
19CC
  8
0
  6
CONTINUOUS
 62
     3
 10
12.4999999999995808
 20
268.2168957820659898
 30
0.0
 40
35.0000000000004192
210
0.0
220
-0.0000000000000002
230
-1.0
 50
0.0000000000001908
 51
24.9999999999913989
  0
ARC
  5
19CD
  8
0
  6
CONTINUOUS
 62
     3
 10
-98.4999999999995737
 20
268.2168957820659898
 30
0.0
 40
35.0000000000004334
210
0.0
220
-0.0000000000000002
230
-1.0
 50
155.0000000000086118
 51
179.999999999999801
  0
LINE
  5
19CE
  8
0
  6
CONTINUOUS
 62
     3
 10
133.5
 20
268.2168957820659898
 30
-0.0000000000000596
 11
133.5
 21
252.0526055291769865
 31
-0.000000000000056
210
0.0
220
1.0
230
-0.0000000000000002
  0
LINE
  5
19CF
  8
0
  6
CONTINUOUS
 62
     3
 10
-47.5
 20
268.2168957820659898
 30
-0.0000000000000596
 11
-47.5
 21
252.0526055291769865
 31
-0.000000000000056
210
0.0
220
1.0
230
-0.0000000000000002
  0
ARC
  5
19D0
  8
0
  6
CONTINUOUS
 62
     3
 10
12.4999999999996092
 20
251.9950000000000898
 30
0.0
 40
35.0000474056396129
210
0.0
220
-0.0000000000000002
230
-1.0
 50
332.4728163794462716
 51
0.0943014490907753
  0
ARC
  5
19D1
  8
0
  6
CONTINUOUS
 62
     3
 10
-98.499999999999261
 20
251.9950000000000898
 30
0.0
 40
35.0000474056399469
210
0.0
220
-0.0000000000000002
230
-1.0
 50
179.9056985509093067
 51
207.5271836205535863
  0
ARC
  5
19D2
  8
0
  6
CONTINUOUS
 62
     3
 10
59.4999999999969802
 20
227.5000000000005969
 30
0.0
 40
17.9999999999969802
210
0.0
220
-0.0000000000000002
230
-1.0
 50
152.4728163794491138
 51
180.0000000000028137
  0
ARC
  5
19D3
  8
0
  6
CONTINUOUS
 62
     3
 10
-145.4999999999965041
 20
227.5000000000007105
 30
0.0
 40
17.9999999999965006
210
0.0
220
-0.0000000000000002
230
-1.0
 50
359.9999999999968168
 51
27.5271836205512699
  0
LINE
  5
19D4
  8
0
  6
CONTINUOUS
 62
     3
 10
127.5
 20
227.4999999999996874
 30
-0.0000000000000505
 11
127.5
 21
212.4409715080668946
 31
-0.0000000000000472
210
0.0
220
1.0
230
-0.0000000000000002
  0
LINE
  5
19D5
  8
0
  6
CONTINUOUS
 62
     3
 10
-41.5
 20
227.4999999999996874
 30
-0.0000000000000505
 11
-41.5
 21
212.4409715080668946
 31
-0.0000000000000472
210
0.0
220
1.0
230
-0.0000000000000002
  0
ARC
  5
19D6
  8
0
  6
CONTINUOUS
 62
     3
 10
23.5000000000010409
 20
212.4409715080666103
 30
0.0
 40
17.9999999999989591
210
0.0
220
-0.0000000000000002
230
-1.0
 50
325.2280559680513079
 51
0.0000000000009987
  0
ARC
  5
19D7
  8
0
  6
CONTINUOUS
 62
     3
 10
-109.5000000000009948
 20
212.4409715080666103
 30
0.0
 40
17.9999999999989591
210
0.0
220
-0.0000000000000002
230
-1.0
 50
179.9999999999990052
 51
214.7719440319486921
  0
ARC
  5
19D8
  8
0
  6
CONTINUOUS
 62
     3
 10
46.5000000000009024
 20
196.4722520853952119
 30
0.0
 40
10.0000000000008793
210
0.0
220
-0.0000000000000002
230
-1.0
 50
145.2280559680513079
 51
179.9999999999980105
  0
ARC
  5
19D9
  8
0
  6
CONTINUOUS
 62
     3
 10
-132.5000000000007105
 20
196.4722520853952972
 30
0.0
 40
10.0000000000006697
210
0.0
220
-0.0000000000000002
230
-1.0
 50
0.0000000000016284
 51
34.7719440319491682
  0
LINE
  5
19DA
  8
0
  6
CONTINUOUS
 62
     3
 10
122.5
 20
196.4722520853956098
 30
-0.0000000000000436
 11
122.5
 21
164.0
 31
-0.0000000000000364
210
0.0
220
1.0
230
-0.0000000000000002
  0
LINE
  5
19DB
  8
0
  6
CONTINUOUS
 62
     3
 10
-36.5
 20
196.4722520853956098
 30
-0.0000000000000436
 11
-36.5
 21
164.0
 31
-0.0000000000000364
210
0.0
220
1.0
230
-0.0000000000000002
  0
LINE
  5
19DC
  8
0
  6
VERDECKT
 62
     1
 10
-121.0
 20
160.0
 30
-0.0000000000000355
 11
121.0
 21
160.0
 31
-0.0000000000000355
210
0.0
220
1.0
230
-0.0000000000000002
  0
LINE
  5
19DD
  8
0
  6
VERDECKT
 62
     1
 10
-35.0
 20
160.0
 30
-0.0000000000000355
 11
-35.0
 21
164.0
 31
-0.0000000000000364
210
0.0
220
1.0
230
-0.0000000000000002
  0
LINE
  5
19DE
  8
0
  6
VERDECKT
 62
     1
 10
121.0
 20
160.0
 30
-0.0000000000000355
 11
121.0
 21
164.0
 31
-0.0000000000000364
210
0.0
220
1.0
230
-0.0000000000000002
  0
LINE
  5
19DF
  8
0
  6
VERDECKT
 62
     1
 10
-121.0
 20
0.0
 30
0.0
 11
-121.0
 21
160.0
 31
-0.0000000000000355
210
0.0
220
1.0
230
-0.0000000000000002
  0
LINE
  5
19E0
  8
0
  6
VERDECKT
 62
     1
 10
121.0
 20
0.0
 30
0.0
 11
121.0
 21
160.0
 31
-0.0000000000000355
210
0.0
220
1.0
230
-0.0000000000000002
  0
LINE
  5
19E1
  8
0
  6
VERDECKT
 62
     1
 10
125.0
 20
227.4999999999996874
 30
-0.0000000000000505
 11
125.0
 21
212.4409715080668946
 31
-0.0000000000000472
210
0.0
220
1.0
230
-0.0000000000000002
  0
LINE
  5
19E2
  8
0
  6
VERDECKT
 62
     1
 10
-39.0
 20
227.4999999999996874
 30
-0.0000000000000505
 11
-39.0
 21
212.4409715080668946
 31
-0.0000000000000472
210
0.0
220
1.0
230
-0.0000000000000002
  0
ARC
  5
19E3
  8
0
  6
VERDECKT
 62
     1
 10
59.4999999999962697
 20
227.5000000000013074
 30
0.0
 40
20.4999999999962697
210
0.0
220
-0.0000000000000002
230
-1.0
 50
152.1156863126298902
 51
180.0000000000042917
  0
ARC
  5
19E4
  8
0
  6
VERDECKT
 62
     1
 10
-145.4999999999961062
 20
227.5000000000013074
 30
0.0
 40
20.4999999999961098
210
0.0
220
-0.0000000000000002
230
-1.0
 50
0.0
 51
27.8843136873747284
  0
ARC
  5
19E5
  8
0
  6
VERDECKT
 62
     1
 10
12.5019723202426203
 20
251.9973015192825017
 30
0.0
 40
32.4999999999993605
210
0.0
220
-0.0000000000000002
230
-1.0
 50
332.692876993195398
 51
0.6312288822651388
  0
ARC
  5
19E6
  8
0
  6
VERDECKT
 62
     1
 10
-98.5019723202432118
 20
251.9973015192823027
 30
0.0
 40
32.4999999999987921
210
0.0
220
-0.0000000000000002
230
-1.0
 50
179.3687711177346102
 51
207.307123006804801
  0
LINE
  5
19E7
  8
0
  6
VERDECKT
 62
     1
 10
131.0
 20
268.2168957820659898
 30
-0.0000000000000596
 11
131.0
 21
252.3553475019205052
 31
-0.000000000000056
210
0.0
220
1.0
230
-0.0000000000000002
  0
LINE
  5
19E8
  8
0
  6
VERDECKT
 62
     1
 10
-45.0
 20
268.2168957820659898
 30
-0.0000000000000596
 11
-45.0
 21
252.3553475019205052
 31
-0.000000000000056
210
0.0
220
1.0
230
-0.0000000000000002
  0
ARC
  5
19E9
  8
0
  6
VERDECKT
 62
     1
 10
12.4999999999901803
 20
268.2168957820637161
 30
0.0
 40
32.5000000000098197
210
0.0
220
-0.0000000000000002
230
-1.0
 50
0.0000000000041093
 51
24.9999999999964118
  0
ARC
  5
19EA
  8
0
  6
VERDECKT
 62
     1
 10
-98.4999999999897113
 20
268.2168957820636024
 30
0.0
 40
32.5000000000102816
210
0.0
220
-0.0000000000000002
230
-1.0
 50
155.0000000000038085
 51
179.9999999999957083
  0
LINE
  5
19EB
  8
0
  6
VERDECKT
 62
     1
 10
127.0000000000000995
 20
284.0000000000001137
 30
-0.0000000000000631
 11
127.955003078691206
 21
281.9519892886387993
 31
-0.0000000000000626
210
0.0
220
1.0
230
-0.0000000000000002
  0
LINE
  5
19EC
  8
0
  6
VERDECKT
 62
     1
 10
-41.0000000000001066
 20
284.0000000000001137
 30
-0.0000000000000631
 11
-41.9550030786911705
 21
281.9519892886387993
 31
-0.0000000000000626
210
0.0
220
1.0
230
-0.0000000000000002
  0
LINE
  5
19ED
  8
0
  6
VERDECKT
 62
     1
 10
120.0
 20
196.4722520853956098
 30
-0.0000000000000436
 11
120.0
 21
164.0
 31
-0.0000000000000364
210
0.0
220
1.0
230
-0.0000000000000002
  0
LINE
  5
19EE
  8
0
  6
VERDECKT
 62
     1
 10
-34.0
 20
196.4722520853956098
 30
-0.0000000000000436
 11
-34.0
 21
164.0
 31
-0.0000000000000364
210
0.0
220
1.0
230
-0.0000000000000002
  0
ARC
  5
19EF
  8
0
  6
VERDECKT
 62
     1
 10
46.5000000000011795
 20
196.4722520853952119
 30
0.0
 40
12.5000000000011706
210
0.0
220
-0.0000000000000002
230
-1.0
 50
145.2280559680546048
 51
179.9999999999982094
  0
ARC
  5
19F0
  8
0
  6
VERDECKT
 62
     1
 10
-132.5000000000013927
 20
196.4722520853950982
 30
0.0
 40
12.5000000000014193
210
0.0
220
-0.0000000000000002
230
-1.0
 50
0.0000000000020864
 51
34.7719440319449333
  0
ARC
  5
19F1
  8
0
  6
VERDECKT
 62
     1
 10
23.5000000000008988
 20
212.4409715080666103
 30
0.0
 40
15.4999999999990994
210
0.0
220
-0.0000000000000002
230
-1.0
 50
325.228055968049091
 51
0.0000000000009478
  0
ARC
  5
19F2
  8
0
  6
VERDECKT
 62
     1
 10
-109.5000000000006963
 20
212.4409715080666103
 30
0.0
 40
15.4999999999992202
210
0.0
220
-0.0000000000000002
230
-1.0
 50
179.9999999999992042
 51
214.77194403195071
  0
ENDBLK
  5
19F4
  8
0
  0
BLOCK
  8
0
  2
A$C4A3B1E6B
 70
     0
 10
0.0
 20
0.0
 30
0.0
  3
A$C4A3B1E6B
  1

  0
ARC
  5
19F8
  8
0
  6
CONTINUOUS
 62
     3
 10
0.0000000000000364
 20
0.0000000000000241
 30
0.0
 40
124.9999999999999005
 50
30.2763361488484684
 51
329.7236638511516276
  0
CIRCLE
  5
19F9
  8
0
  6
CONTINUOUS
 62
     3
 10
43.0000000000000497
 20
0.000000000000028
 30
0.0
 40
82.0
  0
CIRCLE
  5
19FA
  8
0
  6
CONTINUOUS
 62
     3
 10
43.0000000000000568
 20
0.0000000000000315
 30
0.0
 40
84.0
  0
CIRCLE
  5
19FB
  8
0
  6
CONTINUOUS
 62
     3
 10
43.0000000000000568
 20
0.0000000000000315
 30
0.0
 40
86.7584447974059003
  0
CIRCLE
  5
19FC
  8
0
  6
CONTINUOUS
 62
     3
 10
43.0000000000000568
 20
0.0000000000000305
 30
0.0
 40
90.5
  0
CIRCLE
  5
19FD
  8
0
  6
CONTINUOUS
 62
     3
 10
43.0000000000000426
 20
0.0000000000000261
 30
0.0
 40
77.0
  0
CIRCLE
  5
19FE
  8
0
  6
CONTINUOUS
 62
     3
 10
43.0000000000000568
 20
0.0000000000000295
 30
0.0
 40
90.5000474056391937
  0
ARC
  5
19FF
  8
0
  6
VERDECKT
 62
     1
 10
0.0000000000036744
 20
0.0000000000008839
 30
0.0
 40
124.9999999999963052
 50
359.9999999999996021
 51
30.2763361488489693
  0
ARC
  5
1A00
  8
0
  6
VERDECKT
 62
     1
 10
-0.0000000000024647
 20
0.0000000000007951
 30
0.0
 40
125.0000000000025011
 50
329.7236638511517981
 51
359.9999999999996021
  0
CIRCLE
  5
1A01
  8
0
  6
VERDECKT
 62
     1
 10
0.0000000000000356
 20
0.0000000000000386
 30
0.0
 40
121.0
  0
CIRCLE
  5
1A02
  8
0
  6
VERDECKT
 62
     1
 10
43.0000000000000284
 20
0.0000000000000253
 30
0.0
 40
78.0
  0
CIRCLE
  5
1A03
  8
0
  6
VERDECKT
 62
     1
 10
43.0000000000000568
 20
0.0000000000000305
 30
0.0
 40
88.0
  0
CIRCLE
  5
1A04
  8
0
  6
VERDECKT
 62
     1
 10
43.0000000000000497
 20
0.000000000000028
 30
0.0
 40
84.5000000000000142
  0
CIRCLE
  5
1A05
  8
0
  6
VERDECKT
 62
     1
 10
43.0000000000000426
 20
0.0000000000000261
 30
0.0
 40
79.5
  0
CIRCLE
  5
1A06
  8
0
  6
VERDECKT
 62
     1
 10
43.0000000000000568
 20
0.0000000000000295
 30
0.0
 40
88.0019723202419755
  0
ENDBLK
  5
1A08
  8
0
  0
BLOCK
  8
0
  2
A$C029A1A2D
 70
     0
 10
0.0
 20
0.0
 30
0.0
  3
A$C029A1A2D
  1

  0
LINE
  5
1A0C
  8
0
  6
CONTINUOUS
 62
     3
 10
125.0000000000000995
 20
164.0
 30
-0.0000000000000364
 11
0.0000000000000648
 21
164.0
 31
-0.0000000000000364
210
0.0000000000000002
220
1.0
230
-0.0000000000000002
  0
LINE
  5
1A0D
  8
0
  6
CONTINUOUS
 62
     3
 10
0.0000000000000278
 20
164.0
 30
-0.0000000000000364
 11
-124.9999999999999005
 21
164.0
 31
-0.0000000000000364
210
0.0000000000000002
220
1.0
230
-0.0000000000000002
  0
LINE
  5
1A0E
  8
0
  6
CONTINUOUS
 62
     3
 10
-125.0000000000000995
 20
0.0000000000000555
 30
0.0
 11
0.0
 21
0.0
 31
0.0
210
0.0000000000000002
220
1.0
230
-0.0000000000000002
  0
LINE
  5
1A0F
  8
0
  6
CONTINUOUS
 62
     3
 10
0.0000000000000397
 20
0.0000000000000083
 30
0.0
 11
125.0
 21
-0.0000000000000638
 31
0.0
210
0.0000000000000002
220
1.0
230
-0.0000000000000002
  0
LINE
  5
1A10
  8
0
  6
CONTINUOUS
 62
     3
 10
-86.7584447974058151
 20
283.9999999999998863
 30
-0.0000000000000631
 11
0.0000000000000915
 21
283.9999999999998863
 31
-0.0000000000000631
210
0.0000000000000002
220
1.0
230
-0.0000000000000002
  0
LINE
  5
1A11
  8
0
  6
CONTINUOUS
 62
     3
 10
0.0000000000001138
 20
283.9999999999998863
 30
-0.0000000000000631
 11
86.7584447974059856
 21
283.9999999999998863
 31
-0.0000000000000631
210
0.0000000000000002
220
1.0
230
-0.0000000000000002
  0
LINE
  5
1A12
  8
0
  6
CONTINUOUS
 62
     3
 10
-125.0
 20
0.0000000000000562
 30
0.0
 11
-124.9999999999999005
 21
164.0000000000001137
 31
-0.0000000000000364
210
0.0000000000000002
220
1.0
230
-0.0000000000000002
  0
LINE
  5
1A13
  8
0
  6
CONTINUOUS
 62
     3
 10
125.0
 20
-0.0000000000000562
 30
0.0
 11
125.0
 21
163.9999999999998863
 31
-0.0000000000000364
210
0.0000000000000002
220
1.0
230
-0.0000000000000002
  0
LINE
  5
1A14
  8
0
  6
CONTINUOUS
 62
     3
 10
86.7584447974059429
 20
283.9999999999998863
 30
-0.0000000000000631
 11
87.220772546285005
 21
283.0085349429858184
 31
-0.0000000000000628
210
0.0000000000000002
220
1.0
230
-0.0000000000000002
  0
LINE
  5
1A15
  8
0
  6
CONTINUOUS
 62
     3
 10
-86.7584447974057866
 20
283.9999999999998863
 30
-0.0000000000000631
 11
-87.2207725462848202
 21
283.0085349429858184
 31
-0.0000000000000628
210
0.0000000000000002
220
1.0
230
-0.0000000000000002
  0
ARC
  5
1A16
  8
0
  6
CONTINUOUS
 62
     3
 10
55.4999999999995026
 20
268.2168957820659898
 30
0.0
 40
35.0000000000004334
210
0.0
220
-0.0000000000000002
230
-1.0
 50
0.0000000000002036
 51
24.9999999999913989
  0
ARC
  5
1A17
  8
0
  6
CONTINUOUS
 62
     3
 10
-55.4999999999996589
 20
268.2168957820659898
 30
0.0
 40
35.0000000000004334
210
0.0
220
-0.0000000000000002
230
-1.0
 50
155.0000000000086118
 51
179.999999999999801
  0
LINE
  5
1A18
  8
0
  6
CONTINUOUS
 62
     3
 10
90.5000000000000853
 20
268.2168957820659898
 30
-0.0000000000000596
 11
90.5000000000000853
 21
252.0526055291769865
 31
-0.000000000000056
210
0.0000000000000002
220
1.0
230
-0.0000000000000002
  0
LINE
  5
1A19
  8
0
  6
CONTINUOUS
 62
     3
 10
-90.4999999999999147
 20
268.2168957820659898
 30
-0.0000000000000596
 11
-90.4999999999999147
 21
252.0526055291769865
 31
-0.000000000000056
210
0.0000000000000002
220
1.0
230
-0.0000000000000002
  0
ARC
  5
1A1A
  8
0
  6
CONTINUOUS
 62
     3
 10
55.4999999999996092
 20
251.9950000000000898
 30
0.0
 40
35.0000474056395277
210
0.0
220
-0.0000000000000002
230
-1.0
 50
332.4728163794462148
 51
0.094301449090788
  0
ARC
  5
1A1B
  8
0
  6
CONTINUOUS
 62
     3
 10
-55.4999999999997868
 20
251.9950000000000898
 30
0.0
 40
35.0000474056395134
210
0.0
220
-0.0000000000000002
230
-1.0
 50
179.905698550909193
 51
207.5271836205538136
  0
ARC
  5
1A1C
  8
0
  6
CONTINUOUS
 62
     3
 10
102.499999999996902
 20
227.5000000000007105
 30
0.0
 40
17.9999999999969802
210
0.0
220
-0.0000000000000002
230
-1.0
 50
152.4728163794491138
 51
180.0000000000028137
  0
ARC
  5
1A1D
  8
0
  6
CONTINUOUS
 62
     3
 10
-102.4999999999970015
 20
227.5000000000005969
 30
0.0
 40
17.9999999999969802
210
0.0
220
-0.0000000000000002
230
-1.0
 50
359.999999999997101
 51
27.5271836205509288
  0
LINE
  5
1A1E
  8
0
  6
CONTINUOUS
 62
     3
 10
84.5000000000000853
 20
227.4999999999996874
 30
-0.0000000000000505
 11
84.5000000000000853
 21
212.4409715080668093
 31
-0.0000000000000472
210
0.0000000000000002
220
1.0
230
-0.0000000000000002
  0
LINE
  5
1A1F
  8
0
  6
CONTINUOUS
 62
     3
 10
-84.4999999999999147
 20
227.499999999999801
 30
-0.0000000000000505
 11
-84.4999999999999289
 21
212.4409715080668946
 31
-0.0000000000000472
210
0.0000000000000002
220
1.0
230
-0.0000000000000002
  0
ARC
  5
1A20
  8
0
  6
CONTINUOUS
 62
     3
 10
66.5000000000009521
 20
212.4409715080666103
 30
0.0
 40
17.9999999999989804
210
0.0
220
-0.0000000000000002
230
-1.0
 50
325.2280559680514216
 51
0.0000000000010114
  0
ARC
  5
1A21
  8
0
  6
CONTINUOUS
 62
     3
 10
-66.5000000000011084
 20
212.4409715080664967
 30
0.0
 40
17.9999999999989591
210
0.0
220
-0.0000000000000002
230
-1.0
 50
179.9999999999990052
 51
214.7719440319486921
  0
ARC
  5
1A22
  8
0
  6
CONTINUOUS
 62
     3
 10
89.5000000000006253
 20
196.4722520853952972
 30
0.0
 40
10.0000000000006803
210
0.0
220
-0.0000000000000002
230
-1.0
 50
145.2280559680507963
 51
179.9999999999984084
  0
ARC
  5
1A23
  8
0
  6
CONTINUOUS
 62
     3
 10
-89.5000000000007674
 20
196.4722520853952972
 30
0.0
 40
10.0000000000006803
210
0.0
220
-0.0000000000000002
230
-1.0
 50
0.0000000000016412
 51
34.7719440319491468
  0
LINE
  5
1A24
  8
0
  6
CONTINUOUS
 62
     3
 10
79.5000000000000711
 20
196.4722520853954961
 30
-0.0000000000000436
 11
79.5000000000000711
 21
164.0
 31
-0.0000000000000364
210
0.0000000000000002
220
1.0
230
-0.0000000000000002
  0
LINE
  5
1A25
  8
0
  6
CONTINUOUS
 62
     3
 10
-79.4999999999999289
 20
196.4722520853956098
 30
-0.0000000000000436
 11
-79.4999999999999289
 21
164.0
 31
-0.0000000000000364
210
0.0000000000000002
220
1.0
230
-0.0000000000000002
  0
LINE
  5
1A26
  8
0
  6
VERDECKT
 62
     1
 10
-120.9999999999999005
 20
160.0
 30
-0.0000000000000355
 11
0.0000000000000782
 21
160.0
 31
-0.0000000000000355
210
0.0000000000000002
220
1.0
230
-0.0000000000000002
  0
LINE
  5
1A27
  8
0
  6
VERDECKT
 62
     1
 10
0.0000000000000948
 20
160.0
 30
-0.0000000000000355
 11
121.0
 21
160.0
 31
-0.0000000000000355
210
0.0000000000000002
220
1.0
230
-0.0000000000000002
  0
LINE
  5
1A28
  8
0
  6
VERDECKT
 62
     1
 10
-77.9999999999999289
 20
160.0000000000001137
 30
-0.0000000000000355
 11
-77.9999999999999289
 21
164.0
 31
-0.0000000000000364
210
0.0000000000000002
220
1.0
230
-0.0000000000000002
  0
LINE
  5
1A29
  8
0
  6
VERDECKT
 62
     1
 10
78.0000000000000568
 20
159.9999999999998863
 30
-0.0000000000000355
 11
78.0000000000000711
 21
164.0
 31
-0.0000000000000364
210
0.0000000000000002
220
1.0
230
-0.0000000000000002
  0
LINE
  5
1A2A
  8
0
  6
VERDECKT
 62
     1
 10
-121.0
 20
0.0000000000000553
 30
0.0
 11
-120.9999999999999005
 21
160.0000000000001137
 31
-0.0000000000000355
210
0.0000000000000002
220
1.0
230
-0.0000000000000002
  0
LINE
  5
1A2B
  8
0
  6
VERDECKT
 62
     1
 10
121.0
 20
-0.0000000000000553
 30
0.0
 11
121.0
 21
159.9999999999998863
 31
-0.0000000000000355
210
0.0000000000000002
220
1.0
230
-0.0000000000000002
  0
LINE
  5
1A2C
  8
0
  6
VERDECKT
 62
     1
 10
82.0000000000000853
 20
227.4999999999996874
 30
-0.0000000000000505
 11
82.0000000000000853
 21
212.4409715080668093
 31
-0.0000000000000472
210
0.0000000000000002
220
1.0
230
-0.0000000000000002
  0
LINE
  5
1A2D
  8
0
  6
VERDECKT
 62
     1
 10
-81.9999999999999147
 20
227.499999999999801
 30
-0.0000000000000505
 11
-81.9999999999999289
 21
212.4409715080668946
 31
-0.0000000000000472
210
0.0000000000000002
220
1.0
230
-0.0000000000000002
  0
ARC
  5
1A2E
  8
0
  6
VERDECKT
 62
     1
 10
102.4999999999961062
 20
227.5000000000013074
 30
0.0
 40
20.4999999999961702
210
0.0
220
-0.0000000000000002
230
-1.0
 50
152.1156863126298049
 51
180.0000000000042917
  0
ARC
  5
1A2F
  8
0
  6
VERDECKT
 62
     1
 10
-102.4999999999961062
 20
227.5000000000013074
 30
0.0
 40
20.4999999999960885
210
0.0
220
-0.0000000000000002
230
-1.0
 50
0.0000000000000127
 51
27.8843136873747603
  0
ARC
  5
1A30
  8
0
  6
VERDECKT
 62
     1
 10
55.5019723202426718
 20
251.997301519282388
 30
0.0
 40
32.4999999999992184
210
0.0
220
-0.0000000000000002
230
-1.0
 50
332.692876993195398
 51
0.6312288822652662
  0
ARC
  5
1A31
  8
0
  6
VERDECKT
 62
     1
 10
-55.5019723202428423
 20
251.997301519282388
 30
0.0
 40
32.4999999999992326
210
0.0
220
-0.0000000000000002
230
-1.0
 50
179.3687711177346955
 51
207.307123006804602
  0
LINE
  5
1A32
  8
0
  6
VERDECKT
 62
     1
 10
88.0000000000000853
 20
268.2168957820659898
 30
-0.0000000000000596
 11
88.0000000000000853
 21
252.3553475019203916
 31
-0.000000000000056
210
0.0000000000000002
220
1.0
230
-0.0000000000000002
  0
LINE
  5
1A33
  8
0
  6
VERDECKT
 62
     1
 10
-87.9999999999999147
 20
268.2168957820659898
 30
-0.0000000000000596
 11
-87.9999999999999147
 21
252.3553475019205052
 31
-0.000000000000056
210
0.0000000000000002
220
1.0
230
-0.0000000000000002
  0
ARC
  5
1A34
  8
0
  6
VERDECKT
 62
     1
 10
55.49999999999023
 20
268.2168957820637161
 30
0.0
 40
32.5000000000096918
210
0.0
220
-0.0000000000000002
230
-1.0
 50
0.0000000000000127
 51
24.9999999999924185
  0
ARC
  5
1A35
  8
0
  6
VERDECKT
 62
     1
 10
-55.4999999999904077
 20
268.2168957820637161
 30
0.0
 40
32.5000000000096918
210
0.0
220
-0.0000000000000002
230
-1.0
 50
155.0000000000034959
 51
179.9999999999959073
  0
LINE
  5
1A36
  8
0
  6
VERDECKT
 62
     1
 10
84.0000000000001847
 20
284.0000000000001137
 30
-0.0000000000000631
 11
84.9550030786912771
 21
281.9519892886387993
 31
-0.0000000000000626
210
0.0000000000000002
220
1.0
230
-0.0000000000000002
  0
LINE
  5
1A37
  8
0
  6
VERDECKT
 62
     1
 10
-84.0000000000000284
 20
284.0000000000001137
 30
-0.0000000000000631
 11
-84.9550030786910924
 21
281.9519892886387993
 31
-0.0000000000000626
210
0.0000000000000002
220
1.0
230
-0.0000000000000002
  0
LINE
  5
1A38
  8
0
  6
VERDECKT
 62
     1
 10
77.0000000000000711
 20
196.4722520853954961
 30
-0.0000000000000436
 11
77.0000000000000711
 21
164.0
 31
-0.0000000000000364
210
0.0000000000000002
220
1.0
230
-0.0000000000000002
  0
LINE
  5
1A39
  8
0
  6
VERDECKT
 62
     1
 10
-76.9999999999999289
 20
196.4722520853956098
 30
-0.0000000000000436
 11
-76.9999999999999289
 21
164.0
 31
-0.0000000000000364
210
0.0000000000000002
220
1.0
230
-0.0000000000000002
  0
ARC
  5
1A3A
  8
0
  6
VERDECKT
 62
     1
 10
89.5000000000010374
 20
196.4722520853952119
 30
0.0
 40
12.5000000000011102
210
0.0
220
-0.0000000000000002
230
-1.0
 50
145.2280559680544059
 51
179.9999999999982094
  0
ARC
  5
1A3B
  8
0
  6
VERDECKT
 62
     1
 10
-89.5000000000015064
 20
196.4722520853950982
 30
0.0
 40
12.5000000000014193
210
0.0
220
-0.0000000000000002
230
-1.0
 50
0.0000000000020992
 51
34.7719440319449404
  0
ARC
  5
1A3C
  8
0
  6
VERDECKT
 62
     1
 10
66.5000000000006963
 20
212.4409715080666956
 30
0.0
 40
15.4999999999992202
210
0.0
220
-0.0000000000000002
230
-1.0
 50
325.2280559680493184
 51
0.0000000000008524
  0
ARC
  5
1A3D
  8
0
  6
VERDECKT
 62
     1
 10
-66.5000000000008242
 20
212.4409715080666103
 30
0.0
 40
15.4999999999992202
210
0.0
220
-0.0000000000000002
230
-1.0
 50
179.9999999999992042
 51
214.77194403195071
  0
ENDBLK
  5
1A3F
  8
0
  0
ENDSEC
  0
SECTION
  2
ENTITIES
  0
TEXT
  5
8F
  8
VOLL
 10
78.076754716981128
 20
31.025947764705851
 30
0.0
 40
1.8
  1

  7
GREEKS
  0
TEXT
  5
97
  8
TEXT
 10
225.1296391125314926
 20
62.1158070677485625
 30
0.0
 40
5.0
  1

 41
0.8
  7
GREEKS
  0
INSERT
  5
19F5
  8
STEMPEL
  2
A$C22054D8E
 10
0.0
 20
0.0
 30
0.0
  0
INSERT
  5
1A09
  8
STEMPEL
  2
A$C4A3B1E6B
 10
0.0000000000000284
 20
-225.0
 30
0.0
  0
INSERT
  5
1A40
  8
STEMPEL
  2
A$C029A1A2D
 10
-350.0
 20
0.0000000000000568
 30
0.0
  0
VIEWPORT
  5
17C3
 67
     1
  8
0
 10
6.5436978357183291
 20
9.0193364049400966
 30
0.0
 40
36.5665037922768406
 41
18.6231795542339604
 68
     1
 69
     1
1001
ACAD
1000
MVIEW
1002
{
1070
    16
1010
0.0
1020
0.0
1030
0.0
1010
0.0
1020
0.0
1030
1.0
1040
0.0
1040
18.6231795542339604
1040
6.5436978357183291
1040
9.0193364049400966
1040
50.0
1040
0.0
1040
0.0
1070
     0
1070
  1500
1070
     1
1070
     1
1070
     0
1070
     0
1070
     0
1070
     0
1040
0.0
1040
0.0
1040
0.0
1040
10.0
1040
10.0
1040
10.0
1040
10.0
1070
     0
1002
{
1002
}
1002
}
  0
VIEWPORT
  5
17C8
 67
     1
  8
DEFPOINTS
 10
6.543594419812492
 20
9.0194001571277536
 30
0.0
 40
13.4946248274827099
 41
18.4762769129480802
 68
     2
 69
     2
1001
ACAD
1000
MVIEW
1002
{
1070
    16
1010
1652.0064033999719868
1020
201.0016123245430038
1030
-226.6177787695204984
1010
0.0
1020
0.0
1030
1.0
1040
0.0
1040
612.4325291509696854
1040
-1434.3650980851089116
1040
97.6776619434893973
1040
50.0
1040
0.0
1040
0.0
1070
     0
1070
  1500
1070
     1
1070
     0
1070
     0
1070
     0
1070
     0
1070
     0
1040
0.0
1040
0.0
1040
0.0
1040
1.0
1040
1.0
1040
10.0
1040
10.0
1070
     0
1002
{
1002
}
1002
}
  0
VIEWPORT
  5
181E
 67
     1
  8
DEFPOINTS
 10
3.0935770695636
 20
15.4244596461701899
 30
0.0
 40
3.2998116844659791
 41
3.2492441500468772
 68
     3
 69
     3
1001
ACAD
1000
MVIEW
1002
{
1070
    16
1010
988.0834901306755
1020
290.6787218398405912
1030
-224.3517532564746944
1010
0.0
1020
106.5814506728129061
1030
660.488228152762872
1040
3.1415926535897931
1040
325.8717763380374777
1040
0.0
1040
0.0
1040
50.0
1040
0.0
1040
0.0
1070
     0
1070
  1500
1070
     1
1070
     0
1070
     0
1070
     0
1070
     0
1070
     0
1040
0.0
1040
0.0
1040
0.0
1040
1.0
1040
1.0
1040
10.0
1040
10.0
1070
     0
1002
{
1002
}
1002
}
  0
ENDSEC
  0
EOF
