  0
SECTION
  2
HEADER
  9
$ACADVER
  1
AC1009
  9
$INSBASE
 10
0.0
 20
0.0
 30
0.0
  9
$EXTMIN
 10
-475.0387564627903885
 20
-350.0137014170335874
 30
-0.0000000000000598
  9
$EXTMAX
 10
134.5685586758989132
 20
264.0080576394777836
 30
0.0000000000000012
  9
$LIMMIN
 10
0.0
 20
0.0
  9
$LIMMAX
 10
419.9999999999998863
 20
594.0
  9
$ORTHOMODE
 70
     1
  9
$REGENMODE
 70
     1
  9
$FILLMODE
 70
     1
  9
$QTEXTMODE
 70
     0
  9
$MIRRTEXT
 70
     1
  9
$DRAGMODE
 70
     2
  9
$LTSCALE
 40
20.0
  9
$OSMODE
 70
  2559
  9
$ATTMODE
 70
     1
  9
$TEXTSIZE
 40
3.5
  9
$TRACEWID
 40
0.5
  9
$TEXTSTYLE
  7
STANDARD
  9
$CLAYER
  8
STEMPEL
  9
$CELTYPE
  6
BYLAYER
  9
$CECOLOR
 62
   256
  9
$DIMSCALE
 40
2.0
  9
$DIMASZ
 40
3.5
  9
$DIMEXO
 40
1.0
  9
$DIMDLI
 40
7.0
  9
$DIMRND
 40
0.0
  9
$DIMDLE
 40
0.0
  9
$DIMEXE
 40
1.0
  9
$DIMTP
 40
0.2
  9
$DIMTM
 40
0.5
  9
$DIMTXT
 40
3.5
  9
$DIMCEN
 40
1.5
  9
$DIMTSZ
 40
0.0
  9
$DIMTOL
 70
     0
  9
$DIMLIM
 70
     0
  9
$DIMTIH
 70
     0
  9
$DIMTOH
 70
     0
  9
$DIMSE1
 70
     0
  9
$DIMSE2
 70
     0
  9
$DIMTAD
 70
     1
  9
$DIMZIN
 70
     8
  9
$DIMBLK
  1

  9
$DIMASO
 70
     1
  9
$DIMSHO
 70
     0
  9
$DIMPOST
  1

  9
$DIMAPOST
  1

  9
$DIMALT
 70
     0
  9
$DIMALTD
 70
     2
  9
$DIMALTF
 40
25.3999999999999986
  9
$DIMLFAC
 40
1.0
  9
$DIMTOFL
 70
     1
  9
$DIMTVP
 40
0.0
  9
$DIMTIX
 70
     0
  9
$DIMSOXD
 70
     0
  9
$DIMSAH
 70
     0
  9
$DIMBLK1
  1

  9
$DIMBLK2
  1

  9
$DIMSTYLE
  2
STANDARD
  9
$DIMCLRD
 70
     0
  9
$DIMCLRE
 70
     0
  9
$DIMCLRT
 70
     1
  9
$DIMTFAC
 40
0.5
  9
$DIMGAP
 40
1.5
  9
$LUNITS
 70
     2
  9
$LUPREC
 70
     2
  9
$SKETCHINC
 40
1.0
  9
$FILLETRAD
 40
0.0
  9
$AUNITS
 70
     0
  9
$AUPREC
 70
     0
  9
$MENU
  1
ACAD
  9
$ELEVATION
 40
0.0
  9
$PELEVATION
 40
0.0
  9
$THICKNESS
 40
0.0
  9
$LIMCHECK
 70
     0
  9
$BLIPMODE
 70
     0
  9
$CHAMFERA
 40
0.0
  9
$CHAMFERB
 40
0.0
  9
$SKPOLY
 70
     0
  9
$TDCREATE
 40
2455397.8646990740671754
  9
$TDUPDATE
 40
2458376.5247569438070059
  9
$TDINDWG
 40
0.0901807407
  9
$TDUSRTIMER
 40
0.0901807407
  9
$USRTIMER
 70
     1
  9
$ANGBASE
 50
0.0
  9
$ANGDIR
 70
     0
  9
$PDMODE
 70
     0
  9
$PDSIZE
 40
0.0
  9
$PLINEWID
 40
0.0
  9
$COORDS
 70
     1
  9
$SPLFRAME
 70
     0
  9
$SPLINETYPE
 70
     6
  9
$SPLINESEGS
 70
     8
  9
$ATTDIA
 70
     1
  9
$ATTREQ
 70
     1
  9
$HANDLING
 70
     1
  9
$HANDSEED
  5
1963
  9
$SURFTAB1
 70
     6
  9
$SURFTAB2
 70
     6
  9
$SURFTYPE
 70
     6
  9
$SURFU
 70
     6
  9
$SURFV
 70
     6
  9
$UCSNAME
  2

  9
$UCSORG
 10
0.0
 20
0.0
 30
0.0
  9
$UCSXDIR
 10
1.0
 20
0.0
 30
0.0
  9
$UCSYDIR
 10
0.0
 20
1.0
 30
0.0
  9
$PUCSNAME
  2

  9
$PUCSORG
 10
0.0
 20
0.0
 30
0.0
  9
$PUCSXDIR
 10
1.0
 20
0.0
 30
0.0
  9
$PUCSYDIR
 10
0.0
 20
1.0
 30
0.0
  9
$USERI1
 70
     0
  9
$USERI2
 70
     0
  9
$USERI3
 70
     0
  9
$USERI4
 70
     0
  9
$USERI5
 70
     0
  9
$USERR1
 40
0.0
  9
$USERR2
 40
0.0
  9
$USERR3
 40
0.0
  9
$USERR4
 40
0.0
  9
$USERR5
 40
0.0
  9
$WORLDVIEW
 70
     1
  9
$SHADEDGE
 70
     3
  9
$SHADEDIF
 70
    70
  9
$TILEMODE
 70
     1
  9
$MAXACTVP
 70
    16
  9
$PLIMCHECK
 70
     0
  9
$PEXTMIN
 10
-0.1688232144443589
 20
-0.230987528142272
 30
-0.0015258207003583
  9
$PEXTMAX
 10
13.0065307908301797
 20
18.2198639232896618
 30
0.0000000349246037
  9
$PLIMMIN
 10
-0.2500002402958907
 20
-0.2499999962453767
  9
$PLIMMAX
 10
10.7499995194082203
 20
8.2499997634587334
  9
$UNITMODE
 70
     0
  9
$VISRETAIN
 70
     0
  9
$PLINEGEN
 70
     0
  9
$PSLTSCALE
 70
     0
  0
ENDSEC
  0
SECTION
  2
TABLES
  0
TABLE
  2
VPORT
 70
     1
  0
VPORT
  2
*ACTIVE
 70
     0
 10
0.0
 20
0.0
 11
1.0
 21
1.0
 12
-173.735098893445695
 22
-112.5138997696373053
 13
0.0
 23
0.0
 14
1.0
 24
1.0
 15
10.0
 25
10.0
 16
0.000000000000266
 26
0.0
 36
1198.9519376494820335
 17
3.5
 27
69.511077880859375
 37
-0.0000000000000293
 40
617.1518614816083073
 41
1.868197278911564
 42
50.0
 43
0.0
 44
0.0
 50
0.0
 51
0.0
 71
     0
 72
  1500
 73
     1
 74
     0
 75
     0
 76
     0
 77
     0
 78
     0
  0
ENDTAB
  0
TABLE
  2
LTYPE
 70
     3
  0
LTYPE
  2
CONTINUOUS
 70
     0
  3
Solid line
 72
    65
 73
     0
 40
0.0
  0
LTYPE
  2
VERDECKT
 70
     0
  3
_ _ _ _ _ _ _ _ _ _ _ _ _ _ _ _ _ _ _ _ _ _ _
 72
    65
 73
     2
 40
0.375
 49
0.25
 49
-0.125
  0
ENDTAB
  0
TABLE
  2
LAYER
 70
    10
  0
LAYER
  2
0
 70
     0
 62
     7
  6
CONTINUOUS
  0
LAYER
  2
VOLL
 70
     0
 62
     1
  6
CONTINUOUS
  0
LAYER
  2
STEMPEL
 70
     0
 62
     3
  6
CONTINUOUS
  0
LAYER
  2
TEXT
 70
     0
 62
     7
  6
CONTINUOUS
  0
LAYER
  2
DEFPOINTS
 70
     0
 62
     7
  6
CONTINUOUS
  0
ENDTAB
  0
TABLE
  2
STYLE
 70
     2
  0
STYLE
  2
STANDARD
 70
     0
 40
0.0
 41
0.8
 50
0.0
 71
     0
 42
3.5
  3
simplex.shx
  4

  0
STYLE
  2
GREEKS
 70
     0
 40
0.0
 41
0.8
 50
0.0
 71
     0
 42
2.5
  3
SIMPLEX.shx
  4

  0
ENDTAB
  0
TABLE
  2
VIEW
 70
     1
  0
ENDTAB
  0
TABLE
  2
UCS
 70
     0
  0
ENDTAB
  0
TABLE
  2
APPID
 70
    11
  0
APPID
  2
ACAD
 70
     0
  0
APPID
  2
ACAD_NAV_VCDISPLAY
 70
     0
  0
APPID
  2
ACAECLAYERSTANDARD
 70
     0
  0
APPID
  2
ACCMTRANSPARENCY
 70
     0
  0
APPID
  2
ACAD_PSEXT
 70
     0
  0
APPID
  2
ACAD_MLEADERVER
 70
     0
  0
APPID
  2
ACAD_OBJECT_CHANGE_GUID
 70
     0
  0
APPID
  2
ACAD_EXEMPT_FROM_CAD_STANDARDS
 70
     0
  0
APPID
  2
ACAUTHENVIRON
 70
     0
  0
APPID
  2
ACDBDYNAMICBLOCKTRUENAME
 70
     0
  0
APPID
  2
ACDBDYNAMICBLOCKGUID
 70
     0
  0
ENDTAB
  0
TABLE
  2
DIMSTYLE
 70
     1
  0
DIMSTYLE
  2
STANDARD
 70
     0
  3

  4

  5

  6

  7

 40
1.0
 41
0.18
 42
0.0625
 43
0.38
 44
0.18
 45
0.0
 46
0.0
 47
0.0
 48
0.0
140
0.18
141
0.09
142
0.0
143
25.3999999999999986
144
1.0
145
0.0
146
1.0
147
0.09
 71
     0
 72
     0
 73
     1
 74
     1
 75
     0
 76
     0
 77
     0
 78
     0
170
     0
171
     2
172
     0
173
     0
174
     0
175
     0
176
     0
177
     0
178
     0
  0
ENDTAB
  0
ENDSEC
  0
SECTION
  2
BLOCKS
  0
BLOCK
  8
0
  2
$MODEL_SPACE
 70
     0
 10
0.0
 20
0.0
 30
0.0
  3
$MODEL_SPACE
  1

  0
ENDBLK
  5
36
  8
0
  0
BLOCK
 67
     1
  8
0
  2
$PAPER_SPACE
 70
     0
 10
0.0
 20
0.0
 30
0.0
  3
$PAPER_SPACE
  1

  0
ENDBLK
  5
34
 67
     1
  8
0
  0
BLOCK
  8
0
  2
A$C3E1E17F8
 70
     0
 10
0.0
 20
0.0
 30
0.0
  3
A$C3E1E17F8
  1

  0
LINE
  5
18A3
  8
0
  6
CONTINUOUS
 62
     3
 10
-16.7584447974062307
 20
264.0
 30
-0.0000000000000586
 11
128.758444797406213
 21
264.0
 31
-0.0000000000000586
210
0.0
220
1.0
230
-0.0000000000000002
  0
LINE
  5
18A5
  8
0
  6
CONTINUOUS
 62
     3
 10
125.0
 20
163.9999999999998863
 30
-0.0000000000000364
 11
-125.0
 21
163.9999999999998863
 31
-0.0000000000000364
210
0.0
220
1.0
230
-0.0000000000000002
  0
LINE
  5
18A6
  8
0
  6
CONTINUOUS
 62
     3
 10
-125.0
 20
0.0
 30
0.0
 11
125.0
 21
0.0
 31
0.0
210
0.0
220
1.0
230
-0.0000000000000002
  0
ARC
  5
18A7
  8
0
  6
CONTINUOUS
 62
     3
 10
-10.0000000000006999
 20
231.2910000000001105
 30
0.0
 40
29.9997362596927992
210
0.0
220
-0.0000000000000002
230
-1.0
 50
334.9928416634576251
 51
359.9999999999996021
  0
ARC
  5
18A8
  8
0
  6
CONTINUOUS
 62
     3
 10
-101.9999999999991047
 20
231.2910000000001958
 30
0.0
 40
29.9997362596929413
210
0.0
220
-0.0000000000000002
230
-1.0
 50
180.0000000000003979
 51
205.0071583365422896
  0
ARC
  5
18A9
  8
0
  6
CONTINUOUS
 62
     3
 10
33.5000000000179128
 20
210.9999999999961915
 30
0.0
 40
18.0000000000178204
210
0.0
220
-0.0000000000000002
230
-1.0
 50
154.992841663444608
 51
179.9999999999882903
  0
ARC
  5
18AA
  8
0
  6
CONTINUOUS
 62
     3
 10
-145.5000000000179909
 20
210.9999999999961915
 30
0.0
 40
18.0000000000179483
210
0.0
220
-0.0000000000000002
230
-1.0
 50
0.0
 51
25.0071583365434904
  0
LINE
  5
18AB
  8
0
  6
CONTINUOUS
 62
     3
 10
127.5000000000000995
 20
210.9999999999998863
 30
-0.0000000000000469
 11
127.5000000000000995
 21
197.4687194226710005
 31
-0.0000000000000438
210
0.0
220
1.0
230
-0.0000000000000002
  0
LINE
  5
18AC
  8
0
  6
CONTINUOUS
 62
     3
 10
-15.5000000000001101
 20
210.9999999999998863
 30
-0.0000000000000469
 11
-15.5000000000001101
 21
197.4687194226710005
 31
-0.0000000000000438
210
0.0
220
1.0
230
-0.0000000000000002
  0
ARC
  5
18AD
  8
0
  6
CONTINUOUS
 62
     3
 10
-2.5000000000003868
 20
197.4687194226713132
 30
0.0
 40
18.0000000000003908
210
0.0
220
-0.0000000000000002
230
-1.0
 50
325.22805596805199
 51
359.9999999999990905
  0
ARC
  5
18AE
  8
0
  6
CONTINUOUS
 62
     3
 10
-109.4999999999996021
 20
197.4687194226713132
 30
0.0
 40
18.0000000000003695
210
0.0
220
-0.0000000000000002
230
-1.0
 50
180.0000000000007958
 51
214.77194403194801
  0
ARC
  5
18AF
  8
0
  6
CONTINUOUS
 62
     3
 10
20.4999999999997087
 20
181.4999999999998863
 30
0.0
 40
9.9999999999997264
210
0.0
220
-0.0000000000000002
230
-1.0
 50
145.2280559680501995
 51
180.0000000000003979
  0
ARC
  5
18B0
  8
0
  6
CONTINUOUS
 62
     3
 10
-132.4999999999996874
 20
181.4999999999998863
 30
0.0
 40
9.9999999999997868
210
0.0
220
-0.0000000000000002
230
-1.0
 50
359.9999999999994884
 51
34.7719440319495519
  0
LINE
  5
18B1
  8
0
  6
CONTINUOUS
 62
     3
 10
122.5
 20
181.499999999999801
 30
-0.0000000000000403
 11
122.5
 21
163.9999999999998863
 31
-0.0000000000000364
210
0.0
220
1.0
230
-0.0000000000000002
  0
LINE
  5
18B2
  8
0
  6
CONTINUOUS
 62
     3
 10
-10.5
 20
181.499999999999801
 30
-0.0000000000000403
 11
-10.5
 21
163.9999999999998863
 31
-0.0000000000000364
210
0.0
220
1.0
230
-0.0000000000000002
  0
LINE
  5
18B3
  8
0
  6
CONTINUOUS
 62
     3
 10
128.758444797406213
 20
264.0
 30
-0.0000000000000586
 11
129.1892336110994108
 21
263.0761704077568766
 31
-0.0000000000000584
210
0.0
220
1.0
230
-0.0000000000000002
  0
LINE
  5
18B4
  8
0
  6
CONTINUOUS
 62
     3
 10
-16.7584447974062307
 20
264.0
 30
-0.0000000000000586
 11
-17.1892336110994286
 21
263.0761704077568766
 31
-0.0000000000000584
210
0.0
220
1.0
230
-0.0000000000000002
  0
ARC
  5
18B5
  8
0
  6
CONTINUOUS
 62
     3
 10
-10.0000000000057501
 20
250.3976225555344968
 30
0.0
 40
30.0000000000057589
210
0.0
220
-0.0000000000000002
230
-1.0
 50
0.0000000000023409
 51
24.9999999999978897
  0
ARC
  5
18B6
  8
0
  6
CONTINUOUS
 62
     3
 10
-101.999999999994003
 20
250.3976225555344115
 30
0.0
 40
30.0000000000059615
210
0.0
220
-0.0000000000000002
230
-1.0
 50
155.0000000000021885
 51
179.9999999999976126
  0
LINE
  5
18B7
  8
0
  6
CONTINUOUS
 62
     3
 10
132.0
 20
250.3976225555356905
 30
-0.0000000000000556
 11
132.0
 21
231.2909999999999116
 31
-0.0000000000000514
210
0.0
220
1.0
230
-0.0000000000000002
  0
LINE
  5
18B8
  8
0
  6
CONTINUOUS
 62
     3
 10
-20.0
 20
250.3976225555356905
 30
-0.0000000000000556
 11
-20.0
 21
231.2909999999999116
 31
-0.0000000000000514
210
0.0
220
1.0
230
-0.0000000000000002
  0
LINE
  5
18B9
  8
0
  6
CONTINUOUS
 62
     3
 10
125.0
 20
163.9999999999998863
 30
-0.0000000000000364
 11
125.0
 21
0.0
 31
0.0
210
0.0
220
1.0
230
-0.0000000000000002
  0
LINE
  5
18BA
  8
0
  6
CONTINUOUS
 62
     3
 10
-125.0
 20
163.9999999999998863
 30
-0.0000000000000364
 11
-125.0
 21
0.0
 31
0.0
210
0.0
220
1.0
230
-0.0000000000000002
  0
LINE
  5
18BB
  8
0
  6
VERDECKT
 62
     1
 10
-121.0
 20
159.9999999999998863
 30
-0.0000000000000355
 11
121.0
 21
159.9999999999998863
 31
-0.0000000000000355
210
0.0
220
1.0
230
-0.0000000000000002
  0
LINE
  5
18BC
  8
0
  6
VERDECKT
 62
     1
 10
120.0
 20
181.499999999999801
 30
-0.0000000000000403
 11
120.0
 21
163.9999999999998863
 31
-0.0000000000000364
210
0.0
220
1.0
230
-0.0000000000000002
  0
LINE
  5
18BD
  8
0
  6
VERDECKT
 62
     1
 10
-8.0
 20
181.499999999999801
 30
-0.0000000000000403
 11
-8.0
 21
163.9999999999998863
 31
-0.0000000000000364
210
0.0
220
1.0
230
-0.0000000000000002
  0
ARC
  5
18BE
  8
0
  6
VERDECKT
 62
     1
 10
20.5000000000003908
 20
181.4999999999994884
 30
0.0
 40
12.5000000000003908
210
0.0
220
-0.0000000000000002
230
-1.0
 50
145.2280559680525016
 51
179.9999999999986926
  0
ARC
  5
18BF
  8
0
  6
VERDECKT
 62
     1
 10
-132.5000000000003126
 20
181.4999999999996021
 30
0.0
 40
12.5000000000003393
210
0.0
220
-0.0000000000000002
230
-1.0
 50
0.0
 51
34.7719440319463686
  0
ARC
  5
18C0
  8
0
  6
VERDECKT
 62
     1
 10
-2.4999999999997291
 20
197.4687194226710005
 30
0.0
 40
15.4999999999997407
210
0.0
220
-0.0000000000000002
230
-1.0
 50
325.2280559680505121
 51
0.0000000000003181
  0
ARC
  5
18C1
  8
0
  6
VERDECKT
 62
     1
 10
-109.500000000000199
 20
197.4687194226710005
 30
0.0
 40
15.4999999999997993
210
0.0
220
-0.0000000000000002
230
-1.0
 50
179.999999999999801
 51
214.7719440319494879
  0
LINE
  5
18C2
  8
0
  6
VERDECKT
 62
     1
 10
125.0000000000000995
 20
210.9999999999998863
 30
-0.0000000000000469
 11
125.0000000000000995
 21
197.4687194226710005
 31
-0.0000000000000438
210
0.0
220
1.0
230
-0.0000000000000002
  0
LINE
  5
18C3
  8
0
  6
VERDECKT
 62
     1
 10
-13.0000000000001101
 20
210.9999999999998863
 30
-0.0000000000000469
 11
-13.0000000000001101
 21
197.4687194226710005
 31
-0.0000000000000438
210
0.0
220
1.0
230
-0.0000000000000002
  0
ARC
  5
18C4
  8
0
  6
VERDECKT
 62
     1
 10
33.5000000000211102
 20
210.9999999999955946
 30
0.0
 40
20.5000000000210001
210
0.0
220
-0.0000000000000002
230
-1.0
 50
154.7728556340875059
 51
179.999999999988006
  0
ARC
  5
18C5
  8
0
  6
VERDECKT
 62
     1
 10
-145.5000000000212879
 20
210.9999999999955946
 30
0.0
 40
20.500000000021199
210
0.0
220
-0.0000000000000002
230
-1.0
 50
0.0000000000120734
 51
25.2271443659123307
  0
ARC
  5
18C6
  8
0
  6
VERDECKT
 62
     1
 10
-10.0000000000013003
 20
231.2910000000003095
 30
0.0
 40
27.5000000000013003
210
0.0
220
-0.0000000000000002
230
-1.0
 50
335.1568310699684048
 51
359.9999999999992042
  0
ARC
  5
18C7
  8
0
  6
VERDECKT
 62
     1
 10
-101.9999999999981952
 20
231.2910000000003947
 30
0.0
 40
27.5000000000017408
210
0.0
220
-0.0000000000000002
230
-1.0
 50
180.0000000000007958
 51
204.8431689300313963
  0
LINE
  5
18C8
  8
0
  6
VERDECKT
 62
     1
 10
129.5
 20
250.3976225555356905
 30
-0.0000000000000556
 11
129.5
 21
231.2909999999999968
 31
-0.0000000000000514
210
0.0
220
1.0
230
-0.0000000000000002
  0
LINE
  5
18C9
  8
0
  6
VERDECKT
 62
     1
 10
-17.5
 20
250.3976225555356905
 30
-0.0000000000000556
 11
-17.5
 21
231.2909999999999968
 31
-0.0000000000000514
210
0.0
220
1.0
230
-0.0000000000000002
  0
ARC
  5
18CA
  8
0
  6
VERDECKT
 62
     1
 10
-10.0000000000068408
 20
250.3976225555342126
 30
0.0
 40
27.500000000006839
210
0.0
220
-0.0000000000000002
230
-1.0
 50
0.0
 51
24.9999999999933991
  0
ARC
  5
18CB
  8
0
  6
VERDECKT
 62
     1
 10
-101.9999999999927951
 20
250.3976225555340989
 30
0.0
 40
27.5000000000072085
210
0.0
220
-0.0000000000000002
230
-1.0
 50
155.0000000000034959
 51
179.9999999999965894
  0
LINE
  5
18CC
  8
0
  6
VERDECKT
 62
     1
 10
126.0
 20
264.0
 30
-0.0000000000000586
 11
126.9234641435078998
 21
262.0196247534049121
 31
-0.0000000000000582
210
0.0
220
1.0
230
-0.0000000000000002
  0
LINE
  5
18CD
  8
0
  6
VERDECKT
 62
     1
 10
-14.0000000000000693
 20
264.0
 30
-0.0000000000000586
 11
-14.9234641435079105
 21
262.0196247534049121
 31
-0.0000000000000582
210
0.0
220
1.0
230
-0.0000000000000002
  0
LINE
  5
18CE
  8
0
  6
VERDECKT
 62
     1
 10
121.0
 20
163.9999999999998863
 30
-0.0000000000000364
 11
121.0
 21
159.9999999999998863
 31
-0.0000000000000355
210
0.0
220
1.0
230
-0.0000000000000002
  0
LINE
  5
18CF
  8
0
  6
VERDECKT
 62
     1
 10
-9.0
 20
163.9999999999998863
 30
-0.0000000000000364
 11
-9.0
 21
159.9999999999998863
 31
-0.0000000000000355
210
0.0
220
1.0
230
-0.0000000000000002
  0
LINE
  5
18D0
  8
0
  6
VERDECKT
 62
     1
 10
121.0
 20
159.9999999999998863
 30
-0.0000000000000355
 11
121.0
 21
0.0
 31
0.0
210
0.0
220
1.0
230
-0.0000000000000002
  0
LINE
  5
18D1
  8
0
  6
VERDECKT
 62
     1
 10
-121.0
 20
159.9999999999998863
 30
-0.0000000000000355
 11
-121.0
 21
0.0
 31
0.0
210
0.0
220
1.0
230
-0.0000000000000002
  0
ENDBLK
  5
1853
  8
0
  0
BLOCK
  8
0
  2
A$C70B25061
 70
     0
 10
0.0
 20
0.0
 30
0.0
  3
A$C70B25061
  1

  0
CIRCLE
  5
1857
  8
0
  6
CONTINUOUS
 62
     3
 10
56.0000000000000426
 20
0.0000000000000254
 30
0.0
 40
64.0
  0
CIRCLE
  5
1858
  8
0
  6
CONTINUOUS
 62
     3
 10
56.0000000000000426
 20
0.0000000000000272
 30
0.0
 40
69.0000000000001137
  0
CIRCLE
  5
1859
  8
0
  6
CONTINUOUS
 62
     3
 10
56.0000000000000497
 20
0.0000000000000305
 30
0.0
 40
70.0
  0
CIRCLE
  5
185A
  8
0
  6
CONTINUOUS
 62
     3
 10
56.0000000000000497
 20
0.0000000000000305
 30
0.0
 40
72.7584447974062414
  0
CIRCLE
  5
185B
  8
0
  6
CONTINUOUS
 62
     3
 10
56.0000000000000497
 20
0.0000000000000296
 30
0.0
 40
76.0
  0
ARC
  5
185C
  8
0
  6
CONTINUOUS
 62
     3
 10
0.0000000000000364
 20
-0.0000000000000434
 30
0.0
 40
125.0
 50
21.9515951950448596
 51
338.0484048049552257
  0
CIRCLE
  5
185D
  8
0
  6
VERDECKT
 62
     1
 10
56.0000000000000426
 20
0.0000000000000242
 30
0.0
 40
65.0
  0
CIRCLE
  5
185E
  8
0
  6
VERDECKT
 62
     1
 10
56.0000000000000426
 20
0.0000000000000285
 30
0.0
 40
75.9997362596920993
  0
CIRCLE
  5
185F
  8
0
  6
VERDECKT
 62
     1
 10
56.0000000000000426
 20
0.0000000000000272
 30
0.0
 40
71.5000000000001137
  0
CIRCLE
  5
1860
  8
0
  6
VERDECKT
 62
     1
 10
56.0000000000000426
 20
0.0000000000000254
 30
0.0
 40
66.5
  0
CIRCLE
  5
1861
  8
0
  6
VERDECKT
 62
     1
 10
56.0000000000000497
 20
0.0000000000000296
 30
0.0
 40
73.5
  0
CIRCLE
  5
1862
  8
0
  6
VERDECKT
 62
     1
 10
0.0000000000000355
 20
0.0000000000000239
 30
0.0
 40
121.0
  0
ARC
  5
1863
  8
0
  6
VERDECKT
 62
     1
 10
0.0000000000010596
 20
0.0000000000002089
 30
0.0
 40
124.9999999999990052
 50
359.9999999999998863
 51
21.9515951950449306
  0
ARC
  5
1864
  8
0
  6
VERDECKT
 62
     1
 10
0.0000000000004912
 20
-0.0000000000001944
 30
0.0
 40
124.9999999999995026
 50
338.048404804955112
 51
0.0000000000000877
  0
ENDBLK
  5
1866
  8
0
  0
BLOCK
  8
0
  2
A$C1D1B60DA
 70
     0
 10
0.0
 20
0.0
 30
0.0
  3
A$C1D1B60DA
  1

  0
LINE
  5
18DC
  8
0
  6
CONTINUOUS
 62
     3
 10
-72.7584447974060993
 20
264.0
 30
-0.0000000000000586
 11
0.000000000000087
 21
264.0
 31
-0.0000000000000586
210
0.0000000000000002
220
1.0
230
-0.0000000000000002
  0
LINE
  5
18DD
  8
0
  6
CONTINUOUS
 62
     3
 10
0.0000000000001039
 20
264.0
 30
-0.0000000000000586
 11
72.7584447974063266
 21
264.0
 31
-0.0000000000000586
210
0.0000000000000002
220
1.0
230
-0.0000000000000002
  0
LINE
  5
18E0
  8
0
  6
CONTINUOUS
 62
     3
 10
125.0000000000000995
 20
163.999999999999801
 30
-0.0000000000000364
 11
0.0000000000000648
 21
163.9999999999998863
 31
-0.0000000000000364
210
0.0000000000000002
220
1.0
230
-0.0000000000000002
  0
LINE
  5
18E1
  8
0
  6
CONTINUOUS
 62
     3
 10
0.0000000000000305
 20
163.9999999999998863
 30
-0.0000000000000364
 11
-124.9999999999999005
 21
163.9999999999998863
 31
-0.0000000000000364
210
0.0000000000000002
220
1.0
230
-0.0000000000000002
  0
LINE
  5
18E2
  8
0
  6
CONTINUOUS
 62
     3
 10
-125.0
 20
0.0000000000000354
 30
0.0
 11
125.0
 21
-0.0000000000000354
 31
0.0
210
0.0000000000000002
220
1.0
230
-0.0000000000000002
  0
ARC
  5
18E3
  8
0
  6
CONTINUOUS
 62
     3
 10
45.9999999999990834
 20
231.2910000000001958
 30
0.0
 40
29.9997362596929484
210
0.0
220
-0.0000000000000002
230
-1.0
 50
334.992841663457682
 51
359.9999999999993747
  0
ARC
  5
18E4
  8
0
  6
CONTINUOUS
 62
     3
 10
-45.9999999999992397
 20
231.2910000000001958
 30
0.0
 40
29.9997362596929484
210
0.0
220
-0.0000000000000002
230
-1.0
 50
180.0000000000005116
 51
205.0071583365422896
  0
ARC
  5
18E5
  8
0
  6
CONTINUOUS
 62
     3
 10
89.5000000000182752
 20
210.9999999999961062
 30
0.0
 40
18.0000000000182609
210
0.0
220
-0.0000000000000002
230
-1.0
 50
154.9928416634448922
 51
179.999999999988006
  0
ARC
  5
18E6
  8
0
  6
CONTINUOUS
 62
     3
 10
-89.5000000000181188
 20
210.9999999999961915
 30
0.0
 40
18.0000000000179483
210
0.0
220
-0.0000000000000002
230
-1.0
 50
0.0000000000000127
 51
25.0071583365435011
  0
LINE
  5
18E7
  8
0
  6
CONTINUOUS
 62
     3
 10
71.5000000000001847
 20
210.999999999999801
 30
-0.0000000000000469
 11
71.5000000000001847
 21
197.4687194226710005
 31
-0.0000000000000438
210
0.0000000000000002
220
1.0
230
-0.0000000000000002
  0
LINE
  5
18E8
  8
0
  6
CONTINUOUS
 62
     3
 10
-71.5000000000000426
 20
210.9999999999998863
 30
-0.0000000000000469
 11
-71.5000000000000426
 21
197.4687194226710858
 31
-0.0000000000000438
210
0.0000000000000002
220
1.0
230
-0.0000000000000002
  0
ARC
  5
18E9
  8
0
  6
CONTINUOUS
 62
     3
 10
53.4999999999995524
 20
197.4687194226713132
 30
0.0
 40
18.0000000000003908
210
0.0
220
-0.0000000000000002
230
-1.0
 50
325.2280559680518763
 51
359.9999999999992042
  0
ARC
  5
18EA
  8
0
  6
CONTINUOUS
 62
     3
 10
-53.4999999999996874
 20
197.4687194226713132
 30
0.0
 40
18.0000000000003801
210
0.0
220
-0.0000000000000002
230
-1.0
 50
180.0000000000009095
 51
214.77194403194801
  0
ARC
  5
18EB
  8
0
  6
CONTINUOUS
 62
     3
 10
76.4999999999996874
 20
181.4999999999998863
 30
0.0
 40
9.9999999999997691
210
0.0
220
-0.0000000000000002
230
-1.0
 50
145.2280559680503984
 51
180.0000000000003979
  0
ARC
  5
18EC
  8
0
  6
CONTINUOUS
 62
     3
 10
-76.4999999999998295
 20
181.4999999999998863
 30
0.0
 40
9.9999999999997726
210
0.0
220
-0.0000000000000002
230
-1.0
 50
359.9999999999996021
 51
34.7719440319496087
  0
LINE
  5
18ED
  8
0
  6
CONTINUOUS
 62
     3
 10
66.5000000000000711
 20
181.499999999999801
 30
-0.0000000000000403
 11
66.5000000000000711
 21
163.999999999999801
 31
-0.0000000000000364
210
0.0000000000000002
220
1.0
230
-0.0000000000000002
  0
LINE
  5
18EE
  8
0
  6
CONTINUOUS
 62
     3
 10
-66.4999999999999289
 20
181.4999999999998863
 30
-0.0000000000000403
 11
-66.4999999999999289
 21
163.9999999999998863
 31
-0.0000000000000364
210
0.0000000000000002
220
1.0
230
-0.0000000000000002
  0
LINE
  5
18EF
  8
0
  6
CONTINUOUS
 62
     3
 10
72.7584447974063124
 20
264.0
 30
-0.0000000000000586
 11
73.1892336110995103
 21
263.0761704077568766
 31
-0.0000000000000584
210
0.0000000000000002
220
1.0
230
-0.0000000000000002
  0
LINE
  5
18F0
  8
0
  6
CONTINUOUS
 62
     3
 10
-72.7584447974061419
 20
264.0
 30
-0.0000000000000586
 11
-73.1892336110993398
 21
263.0761704077568766
 31
-0.0000000000000584
210
0.0000000000000002
220
1.0
230
-0.0000000000000002
  0
ARC
  5
18F1
  8
0
  6
CONTINUOUS
 62
     3
 10
45.9999999999939604
 20
250.3976225555344115
 30
0.0
 40
30.0000000000059615
210
0.0
220
-0.0000000000000002
230
-1.0
 50
0.0000000000024045
 51
24.9999999999977796
  0
ARC
  5
18F2
  8
0
  6
CONTINUOUS
 62
     3
 10
-45.9999999999941309
 20
250.3976225555344115
 30
0.0
 40
30.0000000000059686
210
0.0
220
-0.0000000000000002
230
-1.0
 50
155.0000000000021885
 51
179.9999999999976126
  0
LINE
  5
18F3
  8
0
  6
CONTINUOUS
 62
     3
 10
76.0000000000000853
 20
250.3976225555356905
 30
-0.0000000000000556
 11
76.0000000000000853
 21
231.2909999999999116
 31
-0.0000000000000514
210
0.0000000000000002
220
1.0
230
-0.0000000000000002
  0
LINE
  5
18F4
  8
0
  6
CONTINUOUS
 62
     3
 10
-75.9999999999999147
 20
250.3976225555356905
 30
-0.0000000000000556
 11
-75.9999999999999147
 21
231.2909999999999116
 31
-0.0000000000000514
210
0.0000000000000002
220
1.0
230
-0.0000000000000002
  0
LINE
  5
18F5
  8
0
  6
CONTINUOUS
 62
     3
 10
125.0
 20
163.999999999999801
 30
-0.0000000000000364
 11
125.0
 21
-0.0000000000000562
 31
0.0
210
0.0000000000000002
220
1.0
230
-0.0000000000000002
  0
LINE
  5
18F6
  8
0
  6
CONTINUOUS
 62
     3
 10
-124.9999999999999005
 20
163.9999999999998863
 30
-0.0000000000000364
 11
-125.0
 21
0.0000000000000562
 31
0.0
210
0.0000000000000002
220
1.0
230
-0.0000000000000002
  0
LINE
  5
18F7
  8
0
  6
VERDECKT
 62
     1
 10
-120.9999999999999005
 20
159.9999999999998863
 30
-0.0000000000000355
 11
0.0000000000000639
 21
159.9999999999998863
 31
-0.0000000000000355
210
0.0000000000000002
220
1.0
230
-0.0000000000000002
  0
LINE
  5
18F8
  8
0
  6
VERDECKT
 62
     1
 10
0.0000000000000872
 20
159.9999999999998863
 30
-0.0000000000000355
 11
121.0
 21
159.9999999999998863
 31
-0.0000000000000355
210
0.0000000000000002
220
1.0
230
-0.0000000000000002
  0
LINE
  5
18F9
  8
0
  6
VERDECKT
 62
     1
 10
64.0000000000000711
 20
181.499999999999801
 30
-0.0000000000000403
 11
64.0000000000000711
 21
163.999999999999801
 31
-0.0000000000000364
210
0.0000000000000002
220
1.0
230
-0.0000000000000002
  0
LINE
  5
18FA
  8
0
  6
VERDECKT
 62
     1
 10
-63.9999999999999289
 20
181.499999999999801
 30
-0.0000000000000403
 11
-63.9999999999999432
 21
163.9999999999998863
 31
-0.0000000000000364
210
0.0000000000000002
220
1.0
230
-0.0000000000000002
  0
ARC
  5
18FB
  8
0
  6
VERDECKT
 62
     1
 10
76.50000000000027
 20
181.4999999999996021
 30
0.0
 40
12.5000000000003393
210
0.0
220
-0.0000000000000002
230
-1.0
 50
145.2280559680525016
 51
179.9999999999988916
  0
ARC
  5
18FC
  8
0
  6
VERDECKT
 62
     1
 10
-76.5000000000004121
 20
181.4999999999994884
 30
0.0
 40
12.5000000000003393
210
0.0
220
-0.0000000000000002
230
-1.0
 50
0.0000000000000127
 51
34.7719440319463828
  0
ARC
  5
18FD
  8
0
  6
VERDECKT
 62
     1
 10
53.5000000000001279
 20
197.4687194226710005
 30
0.0
 40
15.4999999999998206
210
0.0
220
-0.0000000000000002
230
-1.0
 50
325.2280559680506258
 51
0.0000000000002022
  0
ARC
  5
18FE
  8
0
  6
VERDECKT
 62
     1
 10
-53.5000000000002771
 20
197.4687194226710005
 30
0.0
 40
15.4999999999997993
210
0.0
220
-0.0000000000000002
230
-1.0
 50
179.999999999999801
 51
214.7719440319494879
  0
LINE
  5
18FF
  8
0
  6
VERDECKT
 62
     1
 10
69.0000000000001847
 20
210.999999999999801
 30
-0.0000000000000469
 11
69.0000000000001847
 21
197.4687194226710005
 31
-0.0000000000000438
210
0.0000000000000002
220
1.0
230
-0.0000000000000002
  0
LINE
  5
1900
  8
0
  6
VERDECKT
 62
     1
 10
-69.0000000000000426
 20
210.9999999999998863
 30
-0.0000000000000469
 11
-69.0000000000000426
 21
197.4687194226710858
 31
-0.0000000000000438
210
0.0000000000000002
220
1.0
230
-0.0000000000000002
  0
ARC
  5
1901
  8
0
  6
VERDECKT
 62
     1
 10
89.5000000000212452
 20
210.9999999999955946
 30
0.0
 40
20.5000000000212097
210
0.0
220
-0.0000000000000002
230
-1.0
 50
154.7728556340877049
 51
179.9999999999878924
  0
ARC
  5
1902
  8
0
  6
VERDECKT
 62
     1
 10
-89.5000000000213873
 20
210.9999999999955094
 30
0.0
 40
20.5000000000212097
210
0.0
220
-0.0000000000000002
230
-1.0
 50
0.0000000000120861
 51
25.2271443659123413
  0
ARC
  5
1903
  8
0
  6
VERDECKT
 62
     1
 10
45.9999999999987566
 20
231.2910000000003095
 30
0.0
 40
27.5000000000011688
210
0.0
220
-0.0000000000000002
230
-1.0
 50
335.1568310699684048
 51
359.9999999999993179
  0
ARC
  5
1904
  8
0
  6
VERDECKT
 62
     1
 10
-45.9999999999989129
 20
231.2910000000003095
 30
0.0
 40
27.5000000000011688
210
0.0
220
-0.0000000000000002
230
-1.0
 50
180.0000000000005969
 51
204.8431689300317089
  0
LINE
  5
1905
  8
0
  6
VERDECKT
 62
     1
 10
73.5000000000000853
 20
250.3976225555356905
 30
-0.0000000000000556
 11
73.5000000000000853
 21
231.2909999999999116
 31
-0.0000000000000514
210
0.0000000000000002
220
1.0
230
-0.0000000000000002
  0
LINE
  5
1906
  8
0
  6
VERDECKT
 62
     1
 10
-73.4999999999999147
 20
250.3976225555356905
 30
-0.0000000000000556
 11
-73.4999999999999147
 21
231.2909999999999968
 31
-0.0000000000000514
210
0.0000000000000002
220
1.0
230
-0.0000000000000002
  0
ARC
  5
1907
  8
0
  6
VERDECKT
 62
     1
 10
45.999999999993058
 20
250.3976225555340989
 30
0.0
 40
27.5000000000068603
210
0.0
220
-0.0000000000000002
230
-1.0
 50
0.0000000000032696
 51
24.9999999999966604
  0
ARC
  5
1908
  8
0
  6
VERDECKT
 62
     1
 10
-45.9999999999932285
 20
250.3976225555340989
 30
0.0
 40
27.5000000000068603
210
0.0
220
-0.0000000000000002
230
-1.0
 50
155.0000000000034106
 51
179.9999999999967883
  0
LINE
  5
1909
  8
0
  6
VERDECKT
 62
     1
 10
70.0000000000001563
 20
264.0
 30
-0.0000000000000586
 11
70.9234641435079851
 21
262.0196247534049121
 31
-0.0000000000000582
210
0.0000000000000002
220
1.0
230
-0.0000000000000002
  0
LINE
  5
190A
  8
0
  6
VERDECKT
 62
     1
 10
-69.9999999999999858
 20
264.0
 30
-0.0000000000000586
 11
-70.9234641435078288
 21
262.0196247534049121
 31
-0.0000000000000582
210
0.0000000000000002
220
1.0
230
-0.0000000000000002
  0
LINE
  5
190B
  8
0
  6
VERDECKT
 62
     1
 10
65.0000000000000711
 20
163.999999999999801
 30
-0.0000000000000364
 11
65.0000000000000568
 21
159.9999999999998863
 31
-0.0000000000000355
210
0.0000000000000002
220
1.0
230
-0.0000000000000002
  0
LINE
  5
190C
  8
0
  6
VERDECKT
 62
     1
 10
-64.9999999999999147
 20
163.9999999999998863
 30
-0.0000000000000364
 11
-64.9999999999999432
 21
159.9999999999998863
 31
-0.0000000000000355
210
0.0000000000000002
220
1.0
230
-0.0000000000000002
  0
LINE
  5
190D
  8
0
  6
VERDECKT
 62
     1
 10
121.0
 20
159.9999999999998863
 30
-0.0000000000000355
 11
121.0
 21
-0.0000000000000269
 31
0.0
210
0.0000000000000002
220
1.0
230
-0.0000000000000002
  0
LINE
  5
190E
  8
0
  6
VERDECKT
 62
     1
 10
-120.9999999999999005
 20
159.9999999999998863
 30
-0.0000000000000355
 11
-121.0
 21
0.0000000000000269
 31
0.0
210
0.0000000000000002
220
1.0
230
-0.0000000000000002
  0
ENDBLK
  5
189E
  8
0
  0
ENDSEC
  0
SECTION
  2
ENTITIES
  0
TEXT
  5
8F
  8
VOLL
 10
78.076754716981128
 20
31.025947764705851
 30
0.0
 40
1.8
  1

  7
GREEKS
  0
TEXT
  5
97
  8
TEXT
 10
225.1296391125314926
 20
62.1158070677485625
 30
0.0
 40
5.0
  1

 41
0.8
  7
GREEKS
  0
INSERT
  5
1854
  8
STEMPEL
  2
A$C3E1E17F8
 10
0.0
 20
0.0
 30
0.0
  0
INSERT
  5
1867
  8
STEMPEL
  2
A$C70B25061
 10
0.0
 20
-225.0
 30
0.0
  0
INSERT
  5
189F
  8
STEMPEL
  2
A$C1D1B60DA
 10
-350.0
 20
0.0
 30
0.0
  0
VIEWPORT
  5
1706
 67
     1
  8
0
 10
6.4188537881929104
 20
8.9944381975736931
 30
0.0
 40
36.5124378946270767
 41
18.5956440007828512
 68
     1
 69
     1
1001
ACAD
1000
MVIEW
1002
{
1070
    16
1010
0.0
1020
0.0
1030
0.0
1010
0.0
1020
0.0
1030
1.0
1040
0.0
1040
18.5956440007828512
1040
6.4188537881929104
1040
8.9944381975736931
1040
50.0
1040
0.0
1040
0.0
1070
     0
1070
  1500
1070
     1
1070
     1
1070
     0
1070
     0
1070
     0
1070
     0
1040
0.0
1040
0.0
1040
0.0
1040
10.0
1040
10.0
1040
10.0
1040
10.0
1070
     0
1002
{
1002
}
1002
}
  0
VIEWPORT
  5
170B
 67
     1
  8
DEFPOINTS
 10
6.4186969428153438
 20
8.9944212510897241
 30
0.0
 40
13.1745552662477792
 41
18.4497383479026986
 68
     2
 69
     2
1001
ACAD
1000
MVIEW
1002
{
1070
    16
1010
618.0171832254389983
1020
183.6645692100302085
1030
-41.5884850504675825
1010
0.0
1020
0.0
1030
2514.6676860134411982
1040
0.0
1040
624.435625567193938
1040
-402.5143994846293936
1040
119.887845715067499
1040
50.0
1040
0.0
1040
0.0
1070
     0
1070
  1500
1070
     1
1070
     0
1070
     0
1070
     0
1070
     0
1070
     0
1040
0.0
1040
0.0
1040
0.0
1040
1.0
1040
1.0
1040
10.0
1040
10.0
1070
     0
1002
{
1002
}
1002
}
  0
VIEWPORT
  5
170F
 67
     1
  8
DEFPOINTS
 10
3.3478666602066971
 20
15.1393085426086103
 30
0.0
 40
3.5138954676145588
 41
3.513184758846831
 68
     3
 69
     3
1001
ACAD
1000
MVIEW
1002
{
1070
    16
1010
1015.4146874794230371
1020
259.5771878470177967
1030
-39.2499827193932234
1010
0.0
1020
104.3656616690221028
1030
464.0110162857122873
1040
3.1415926535897931
1040
315.1308104145621769
1040
0.0
1040
4.451749254259612
1040
50.0
1040
0.0
1040
0.0
1070
     0
1070
  1500
1070
     1
1070
     0
1070
     0
1070
     0
1070
     0
1070
     0
1040
0.0
1040
0.0
1040
0.0
1040
1.0
1040
1.0
1040
10.0
1040
10.0
1070
     0
1002
{
1002
}
1002
}
  0
ENDSEC
  0
EOF
