  0
SECTION
  2
HEADER
  9
$ACADVER
  1
AC1009
  9
$INSBASE
 10
0.0
 20
0.0
 30
0.0
  9
$EXTMIN
 10
-400.0219717948020275
 20
-300.0272816811074108
 30
-0.0000000000000561
  9
$EXTMAX
 10
110.5676278036175972
 20
230.0191049631908129
 30
0.000000000000005
  9
$LIMMIN
 10
0.0
 20
0.0
  9
$LIMMAX
 10
419.9999999999998863
 20
594.0
  9
$ORTHOMODE
 70
     1
  9
$REGENMODE
 70
     1
  9
$FILLMODE
 70
     1
  9
$QTEXTMODE
 70
     0
  9
$MIRRTEXT
 70
     1
  9
$DRAGMODE
 70
     2
  9
$LTSCALE
 40
20.0
  9
$OSMODE
 70
  2559
  9
$ATTMODE
 70
     1
  9
$TEXTSIZE
 40
3.5
  9
$TRACEWID
 40
0.5
  9
$TEXTSTYLE
  7
STANDARD
  9
$CLAYER
  8
STEMPEL
  9
$CELTYPE
  6
BYLAYER
  9
$CECOLOR
 62
   256
  9
$DIMSCALE
 40
2.0
  9
$DIMASZ
 40
3.5
  9
$DIMEXO
 40
1.0
  9
$DIMDLI
 40
7.0
  9
$DIMRND
 40
0.0
  9
$DIMDLE
 40
0.0
  9
$DIMEXE
 40
1.0
  9
$DIMTP
 40
0.2
  9
$DIMTM
 40
0.5
  9
$DIMTXT
 40
3.5
  9
$DIMCEN
 40
1.5
  9
$DIMTSZ
 40
0.0
  9
$DIMTOL
 70
     0
  9
$DIMLIM
 70
     0
  9
$DIMTIH
 70
     0
  9
$DIMTOH
 70
     0
  9
$DIMSE1
 70
     0
  9
$DIMSE2
 70
     0
  9
$DIMTAD
 70
     1
  9
$DIMZIN
 70
     8
  9
$DIMBLK
  1

  9
$DIMASO
 70
     1
  9
$DIMSHO
 70
     0
  9
$DIMPOST
  1

  9
$DIMAPOST
  1

  9
$DIMALT
 70
     0
  9
$DIMALTD
 70
     2
  9
$DIMALTF
 40
25.3999999999999986
  9
$DIMLFAC
 40
1.0
  9
$DIMTOFL
 70
     1
  9
$DIMTVP
 40
0.0
  9
$DIMTIX
 70
     0
  9
$DIMSOXD
 70
     0
  9
$DIMSAH
 70
     0
  9
$DIMBLK1
  1

  9
$DIMBLK2
  1

  9
$DIMSTYLE
  2
STANDARD
  9
$DIMCLRD
 70
     0
  9
$DIMCLRE
 70
     0
  9
$DIMCLRT
 70
     1
  9
$DIMTFAC
 40
0.5
  9
$DIMGAP
 40
1.5
  9
$LUNITS
 70
     2
  9
$LUPREC
 70
     2
  9
$SKETCHINC
 40
1.0
  9
$FILLETRAD
 40
0.0
  9
$AUNITS
 70
     0
  9
$AUPREC
 70
     0
  9
$MENU
  1
ACAD
  9
$ELEVATION
 40
0.0
  9
$PELEVATION
 40
0.0
  9
$THICKNESS
 40
0.0
  9
$LIMCHECK
 70
     0
  9
$BLIPMODE
 70
     0
  9
$CHAMFERA
 40
0.0
  9
$CHAMFERB
 40
0.0
  9
$SKPOLY
 70
     0
  9
$TDCREATE
 40
2455397.8646990740671754
  9
$TDUPDATE
 40
2458376.4976157411001623
  9
$TDINDWG
 40
0.0933508565
  9
$TDUSRTIMER
 40
0.0933508565
  9
$USRTIMER
 70
     1
  9
$ANGBASE
 50
0.0
  9
$ANGDIR
 70
     0
  9
$PDMODE
 70
     0
  9
$PDSIZE
 40
0.0
  9
$PLINEWID
 40
0.0
  9
$COORDS
 70
     1
  9
$SPLFRAME
 70
     0
  9
$SPLINETYPE
 70
     6
  9
$SPLINESEGS
 70
     8
  9
$ATTDIA
 70
     1
  9
$ATTREQ
 70
     1
  9
$HANDLING
 70
     1
  9
$HANDSEED
  5
1786
  9
$SURFTAB1
 70
     6
  9
$SURFTAB2
 70
     6
  9
$SURFTYPE
 70
     6
  9
$SURFU
 70
     6
  9
$SURFV
 70
     6
  9
$UCSNAME
  2

  9
$UCSORG
 10
0.0
 20
0.0
 30
0.0
  9
$UCSXDIR
 10
1.0
 20
0.0
 30
0.0
  9
$UCSYDIR
 10
0.0
 20
1.0
 30
0.0
  9
$PUCSNAME
  2

  9
$PUCSORG
 10
0.0
 20
0.0
 30
0.0
  9
$PUCSXDIR
 10
1.0
 20
0.0
 30
0.0
  9
$PUCSYDIR
 10
0.0
 20
1.0
 30
0.0
  9
$USERI1
 70
     0
  9
$USERI2
 70
     0
  9
$USERI3
 70
     0
  9
$USERI4
 70
     0
  9
$USERI5
 70
     0
  9
$USERR1
 40
0.0
  9
$USERR2
 40
0.0
  9
$USERR3
 40
0.0
  9
$USERR4
 40
0.0
  9
$USERR5
 40
0.0
  9
$WORLDVIEW
 70
     1
  9
$SHADEDGE
 70
     3
  9
$SHADEDIF
 70
    70
  9
$TILEMODE
 70
     1
  9
$MAXACTVP
 70
    16
  9
$PLIMCHECK
 70
     0
  9
$PEXTMIN
 10
-0.2157300640658875
 20
-0.2549049355970681
 30
-0.0015258207003583
  9
$PEXTMAX
 10
23.9004849995390494
 20
33.7538984612272372
 30
0.0000000349246037
  9
$PLIMMIN
 10
-0.2500002402958907
 20
-0.2499999962453767
  9
$PLIMMAX
 10
10.7499995194082203
 20
8.2499997634587334
  9
$UNITMODE
 70
     0
  9
$VISRETAIN
 70
     0
  9
$PLINEGEN
 70
     0
  9
$PSLTSCALE
 70
     0
  0
ENDSEC
  0
SECTION
  2
TABLES
  0
TABLE
  2
VPORT
 70
     1
  0
VPORT
  2
*ACTIVE
 70
     0
 10
0.0
 20
0.0
 11
1.0
 21
1.0
 12
-148.7271719955921867
 22
-100.0092000532941938
 13
0.0
 23
0.0
 14
1.0
 24
1.0
 15
10.0
 25
10.0
 16
0.0000000000002229
 26
0.0
 36
1003.1491741916779574
 17
4.0
 27
65.0051116943359233
 37
-0.0000000000000255
 40
532.7484073068859516
 41
1.868197278911564
 42
50.0
 43
0.0
 44
0.0
 50
0.0
 51
0.0
 71
     0
 72
  1500
 73
     1
 74
     0
 75
     0
 76
     0
 77
     0
 78
     0
  0
ENDTAB
  0
TABLE
  2
LTYPE
 70
     3
  0
LTYPE
  2
CONTINUOUS
 70
     0
  3
Solid line
 72
    65
 73
     0
 40
0.0
  0
LTYPE
  2
VERDECKT
 70
     0
  3
_ _ _ _ _ _ _ _ _ _ _ _ _ _ _ _ _ _ _ _ _ _ _
 72
    65
 73
     2
 40
0.375
 49
0.25
 49
-0.125
  0
ENDTAB
  0
TABLE
  2
LAYER
 70
    10
  0
LAYER
  2
0
 70
     0
 62
     7
  6
CONTINUOUS
  0
LAYER
  2
VOLL
 70
     0
 62
     1
  6
CONTINUOUS
  0
LAYER
  2
STEMPEL
 70
     0
 62
     3
  6
CONTINUOUS
  0
LAYER
  2
TEXT
 70
     0
 62
     7
  6
CONTINUOUS
  0
LAYER
  2
DEFPOINTS
 70
     0
 62
     7
  6
CONTINUOUS
  0
ENDTAB
  0
TABLE
  2
STYLE
 70
     2
  0
STYLE
  2
STANDARD
 70
     0
 40
0.0
 41
0.8
 50
0.0
 71
     0
 42
3.5
  3
simplex.shx
  4

  0
STYLE
  2
GREEKS
 70
     0
 40
0.0
 41
0.8
 50
0.0
 71
     0
 42
2.5
  3
SIMPLEX.shx
  4

  0
ENDTAB
  0
TABLE
  2
VIEW
 70
     2
  0
ENDTAB
  0
TABLE
  2
UCS
 70
     0
  0
ENDTAB
  0
TABLE
  2
APPID
 70
    12
  0
APPID
  2
ACAD
 70
     0
  0
APPID
  2
ACAD_NAV_VCDISPLAY
 70
     0
  0
APPID
  2
ACAD_PSEXT
 70
     0
  0
APPID
  2
ACAD_EXEMPT_FROM_CAD_STANDARDS
 70
     0
  0
APPID
  2
ACAD_MLEADERVER
 70
     0
  0
APPID
  2
ACAD_DSTYLE_DIMRADIAL_EXTENSION
 70
     0
  0
APPID
  2
ACAECLAYERSTANDARD
 70
     0
  0
APPID
  2
ACCMTRANSPARENCY
 70
     0
  0
APPID
  2
ACAD_OBJECT_CHANGE_GUID
 70
     0
  0
APPID
  2
ACAUTHENVIRON
 70
     0
  0
APPID
  2
ACDBDYNAMICBLOCKTRUENAME
 70
     0
  0
APPID
  2
ACDBDYNAMICBLOCKGUID
 70
     0
  0
ENDTAB
  0
TABLE
  2
DIMSTYLE
 70
     1
  0
DIMSTYLE
  2
STANDARD
 70
     0
  3

  4

  5

  6

  7

 40
1.0
 41
0.18
 42
0.0625
 43
0.38
 44
0.18
 45
0.0
 46
0.0
 47
0.0
 48
0.0
140
0.18
141
0.09
142
0.0
143
25.3999999999999986
144
1.0
145
0.0
146
1.0
147
0.09
 71
     0
 72
     0
 73
     1
 74
     1
 75
     0
 76
     0
 77
     0
 78
     0
170
     0
171
     2
172
     0
173
     0
174
     0
175
     0
176
     0
177
     0
178
     0
  0
ENDTAB
  0
ENDSEC
  0
SECTION
  2
BLOCKS
  0
BLOCK
  8
0
  2
$MODEL_SPACE
 70
     0
 10
0.0
 20
0.0
 30
0.0
  3
$MODEL_SPACE
  1

  0
ENDBLK
  5
36
  8
0
  0
BLOCK
 67
     1
  8
0
  2
$PAPER_SPACE
 70
     0
 10
0.0
 20
0.0
 30
0.0
  3
$PAPER_SPACE
  1

  0
ENDBLK
  5
34
 67
     1
  8
0
  0
BLOCK
  8
0
  2
A$C3F721206
 70
     0
 10
0.0
 20
0.0
 30
0.0
  3
A$C3F721206
  1

  0
LINE
  5
16BD
  8
0
  6
CONTINUOUS
 62
     3
 10
100.0
 20
130.0000000000001137
 30
-0.0000000000000289
 11
-100.0
 21
130.0000000000001137
 31
-0.0000000000000289
210
0.0
220
1.0
230
-0.0000000000000002
  0
LINE
  5
16BE
  8
0
  6
CONTINUOUS
 62
     3
 10
-99.9999999999997868
 20
13.75985334580702
 30
-0.0000000000000031
 11
99.9999999999997868
 21
13.75985334580702
 31
-0.0000000000000031
210
0.0
220
1.0
230
-0.0000000000000002
  0
LINE
  5
16BF
  8
0
  6
CONTINUOUS
 62
     3
 10
-98.2502267294812555
 20
0.0
 30
0.0
 11
98.2502267294812555
 21
0.0
 31
0.0
210
0.0
220
1.0
230
-0.0000000000000002
  0
LINE
  5
16C1
  8
0
  6
CONTINUOUS
 62
     3
 10
-40.758444797406348
 20
230.000000000000199
 30
-0.0000000000000511
 11
104.7584447974062982
 21
230.000000000000199
 31
-0.0000000000000511
210
0.0
220
1.0
230
-0.0000000000000002
  0
LINE
  5
16C2
  8
0
  6
CONTINUOUS
 62
     3
 10
99.9999999999997868
 20
130.0000000000001137
 30
-0.0000000000000289
 11
99.9999999999997868
 21
13.75985334580702
 31
-0.0000000000000031
210
0.0
220
1.0
230
-0.0000000000000002
  0
LINE
  5
16C3
  8
0
  6
CONTINUOUS
 62
     3
 10
-99.9999999999997868
 20
130.0000000000001137
 30
-0.0000000000000289
 11
-99.9999999999997868
 21
13.75985334580702
 31
-0.0000000000000031
210
0.0
220
1.0
230
-0.0000000000000002
  0
LINE
  5
16C4
  8
0
  6
CONTINUOUS
 62
     3
 10
-98.2502267294813123
 20
0.0000000000000195
 30
0.0
 11
-99.99999999999973
 21
13.7598533458070502
 31
-0.0000000000000031
210
0.0
220
1.0
230
-0.0000000000000002
  0
LINE
  5
16C5
  8
0
  6
CONTINUOUS
 62
     3
 10
98.2502267294813123
 20
0.0000000000000062
 30
0.0
 11
99.9999999999997158
 21
13.75985334580702
 31
-0.0000000000000031
210
0.0
220
1.0
230
-0.0000000000000002
  0
LINE
  5
16C6
  8
0
  6
CONTINUOUS
 62
     3
 10
108.0
 20
216.3976225555360031
 30
-0.000000000000048
 11
108.0
 21
207.2910000000001958
 31
-0.000000000000046
210
0.0
220
1.0
230
-0.0000000000000002
  0
LINE
  5
16C7
  8
0
  6
CONTINUOUS
 62
     3
 10
-44.0
 20
216.3976225555360031
 30
-0.000000000000048
 11
-44.0
 21
207.2910000000001958
 31
-0.000000000000046
210
0.0
220
1.0
230
-0.0000000000000002
  0
ARC
  5
16C8
  8
0
  6
CONTINUOUS
 62
     3
 10
13.9999999999983302
 20
207.2910000000013042
 30
0.0
 40
29.999736259694
210
0.0
220
-0.0000000000000002
230
-1.0
 50
334.9928416634452901
 51
359.9999999999980105
  0
ARC
  5
16C9
  8
0
  6
CONTINUOUS
 62
     3
 10
-77.9999999999983515
 20
207.2910000000013042
 30
0.0
 40
29.9997362596939787
210
0.0
220
-0.0000000000000002
230
-1.0
 50
180.0000000000019895
 51
205.0071583365547099
  0
ARC
  5
16CA
  8
0
  6
CONTINUOUS
 62
     3
 10
57.499999999995957
 20
187.0000000000013074
 30
0.0
 40
17.9999999999959606
210
0.0
220
-0.0000000000000002
230
-1.0
 50
154.9928416634483028
 51
180.0000000000034959
  0
ARC
  5
16CB
  8
0
  6
CONTINUOUS
 62
     3
 10
-121.4999999999960067
 20
187.0000000000013074
 30
0.0
 40
17.9999999999960316
210
0.0
220
-0.0000000000000002
230
-1.0
 50
359.9999999999964189
 51
25.0071583365514591
  0
LINE
  5
16CC
  8
0
  6
CONTINUOUS
 62
     3
 10
103.5
 20
187.0000000000001137
 30
-0.0000000000000415
 11
103.5
 21
163.4687194226713132
 31
-0.0000000000000363
210
0.0
220
1.0
230
-0.0000000000000002
  0
LINE
  5
16CD
  8
0
  6
CONTINUOUS
 62
     3
 10
-39.5
 20
187.0000000000001137
 30
-0.0000000000000415
 11
-39.5
 21
163.4687194226713132
 31
-0.0000000000000363
210
0.0
220
1.0
230
-0.0000000000000002
  0
ARC
  5
16CE
  8
0
  6
CONTINUOUS
 62
     3
 10
21.5000000000015312
 20
163.4687194226708868
 30
0.0
 40
17.9999999999984617
210
0.0
220
-0.0000000000000002
230
-1.0
 50
325.2280559680507963
 51
0.0000000000010941
  0
ARC
  5
16CF
  8
0
  6
CONTINUOUS
 62
     3
 10
-85.5000000000015348
 20
163.4687194226708868
 30
0.0
 40
17.9999999999984617
210
0.0
220
-0.0000000000000002
230
-1.0
 50
179.9999999999988916
 51
214.77194403194909
  0
ARC
  5
16D0
  8
0
  6
CONTINUOUS
 62
     3
 10
44.5000000000010871
 20
147.4999999999996874
 30
0.0
 40
10.0000000000010996
210
0.0
220
-0.0000000000000002
230
-1.0
 50
145.2280559680515921
 51
179.9999999999976978
  0
ARC
  5
16D1
  8
0
  6
CONTINUOUS
 62
     3
 10
-108.5000000000011937
 20
147.4999999999996874
 30
0.0
 40
10.0000000000012204
210
0.0
220
-0.0000000000000002
230
-1.0
 50
0.0000000000022773
 51
34.7719440319479816
  0
LINE
  5
16D2
  8
0
  6
CONTINUOUS
 62
     3
 10
98.5000000000000142
 20
147.5000000000001137
 30
-0.0000000000000328
 11
98.5000000000000142
 21
130.0000000000001137
 31
-0.0000000000000289
210
0.0
220
1.0
230
-0.0000000000000002
  0
LINE
  5
16D3
  8
0
  6
CONTINUOUS
 62
     3
 10
-34.5
 20
147.5000000000001137
 30
-0.0000000000000328
 11
-34.5
 21
130.0000000000001137
 31
-0.0000000000000289
210
0.0
220
1.0
230
-0.0000000000000002
  0
LINE
  5
16D4
  8
0
  6
CONTINUOUS
 62
     3
 10
104.7584447974062982
 20
230.000000000000199
 30
-0.0000000000000511
 11
105.1892336110986008
 21
229.0761704077588092
 31
-0.0000000000000509
210
0.0
220
1.0
230
-0.0000000000000002
  0
LINE
  5
16D5
  8
0
  6
CONTINUOUS
 62
     3
 10
-40.7584447974063266
 20
230.000000000000199
 30
-0.0000000000000511
 11
-41.1892336110986221
 21
229.0761704077588092
 31
-0.0000000000000509
210
0.0
220
1.0
230
-0.0000000000000002
  0
ARC
  5
16D6
  8
0
  6
CONTINUOUS
 62
     3
 10
14.0000000000021299
 20
216.3976225555364863
 30
0.0
 40
29.9999999999978684
210
0.0
220
-0.0000000000000002
230
-1.0
 50
359.9999999999989768
 51
25.0000000000047891
  0
ARC
  5
16D7
  8
0
  6
CONTINUOUS
 62
     3
 10
-78.0000000000024158
 20
216.3976225555366
 30
0.0
 40
29.9999999999975913
210
0.0
220
-0.0000000000000002
230
-1.0
 50
154.9999999999951115
 51
180.0000000000011084
  0
LINE
  5
16D8
  8
0
  6
VERDECKT
 62
     1
 10
-97.0999999999999091
 20
126.0000000000000995
 30
-0.000000000000028
 11
97.0999999999999091
 21
126.0000000000000995
 31
-0.000000000000028
210
0.0
220
1.0
230
-0.0000000000000002
  0
LINE
  5
16D9
  8
0
  6
VERDECKT
 62
     1
 10
-97.0999999999999091
 20
13.8864700802417893
 30
-0.0000000000000031
 11
97.0999999999999091
 21
13.8864700802417893
 31
-0.0000000000000031
210
0.0
220
1.0
230
-0.0000000000000002
  0
LINE
  5
16DA
  8
0
  6
VERDECKT
 62
     1
 10
-33.0
 20
126.0000000000000995
 30
-0.000000000000028
 11
-33.0
 21
130.0000000000001137
 31
-0.0000000000000289
210
0.0
220
1.0
230
-0.0000000000000002
  0
LINE
  5
16DB
  8
0
  6
VERDECKT
 62
     1
 10
97.0
 20
126.0000000000000995
 30
-0.000000000000028
 11
97.0
 21
130.0000000000001137
 31
-0.0000000000000289
210
0.0
220
1.0
230
-0.0000000000000002
  0
LINE
  5
16DC
  8
0
  6
VERDECKT
 62
     1
 10
-95.3391492006056751
 20
0.0000000000000142
 30
0.0
 11
-97.0999999999997954
 21
13.8864700802418106
 31
-0.0000000000000031
210
0.0
220
1.0
230
-0.0000000000000002
  0
LINE
  5
16DD
  8
0
  6
VERDECKT
 62
     1
 10
95.3391492006056751
 20
0.0
 30
0.0
 11
97.0999999999997954
 21
13.8864700802417893
 31
-0.0000000000000031
210
0.0
220
1.0
230
-0.0000000000000002
  0
LINE
  5
16DE
  8
0
  6
VERDECKT
 62
     1
 10
97.0999999999997954
 20
126.0000000000000995
 30
-0.000000000000028
 11
97.0999999999997954
 21
13.8864700802417893
 31
-0.0000000000000031
210
0.0
220
1.0
230
-0.0000000000000002
  0
LINE
  5
16DF
  8
0
  6
VERDECKT
 62
     1
 10
-97.0999999999997954
 20
126.0000000000000995
 30
-0.000000000000028
 11
-97.0999999999997954
 21
13.8864700802417893
 31
-0.0000000000000031
210
0.0
220
1.0
230
-0.0000000000000002
  0
LINE
  5
16E0
  8
0
  6
VERDECKT
 62
     1
 10
96.0
 20
147.5000000000001137
 30
-0.0000000000000328
 11
96.0
 21
130.0000000000001137
 31
-0.0000000000000289
210
0.0
220
1.0
230
-0.0000000000000002
  0
LINE
  5
16E1
  8
0
  6
VERDECKT
 62
     1
 10
-32.0
 20
147.5000000000001137
 30
-0.0000000000000328
 11
-32.0
 21
130.0000000000001137
 31
-0.0000000000000289
210
0.0
220
1.0
230
-0.0000000000000002
  0
ARC
  5
16E2
  8
0
  6
VERDECKT
 62
     1
 10
44.5000000000008313
 20
147.499999999999801
 30
0.0
 40
12.5000000000008207
210
0.0
220
-0.0000000000000002
230
-1.0
 50
145.2280559680542922
 51
179.9999999999986073
  0
ARC
  5
16E3
  8
0
  6
VERDECKT
 62
     1
 10
-108.5000000000007958
 20
147.499999999999801
 30
0.0
 40
12.5000000000008207
210
0.0
220
-0.0000000000000002
230
-1.0
 50
0.0000000000014376
 51
34.7719440319457078
  0
ARC
  5
16E4
  8
0
  6
VERDECKT
 62
     1
 10
21.5000000000010587
 20
163.4687194226710005
 30
0.0
 40
15.4999999999989395
210
0.0
220
-0.0000000000000002
230
-1.0
 50
325.2280559680489205
 51
0.0000000000011577
  0
ARC
  5
16E5
  8
0
  6
VERDECKT
 62
     1
 10
-85.5000000000010516
 20
163.4687194226710005
 30
0.0
 40
15.4999999999989502
210
0.0
220
-0.0000000000000002
230
-1.0
 50
179.9999999999988063
 51
214.7719440319509943
  0
LINE
  5
16E6
  8
0
  6
VERDECKT
 62
     1
 10
101.0
 20
187.000000000000199
 30
-0.0000000000000415
 11
101.0
 21
163.4687194226713132
 31
-0.0000000000000363
210
0.0
220
1.0
230
-0.0000000000000002
  0
LINE
  5
16E7
  8
0
  6
VERDECKT
 62
     1
 10
-37.0
 20
187.000000000000199
 30
-0.0000000000000415
 11
-37.0
 21
163.4687194226713132
 31
-0.0000000000000363
210
0.0
220
1.0
230
-0.0000000000000002
  0
ARC
  5
16E8
  8
0
  6
VERDECKT
 62
     1
 10
57.5000000000016627
 20
186.9999999999996021
 30
0.0
 40
20.5000000000016591
210
0.0
220
-0.0000000000000002
230
-1.0
 50
155.212827692811203
 51
179.9999999999984084
  0
ARC
  5
16E9
  8
0
  6
VERDECKT
 62
     1
 10
-121.5000000000016058
 20
186.9999999999996021
 30
0.0
 40
20.5000000000016591
210
0.0
220
-0.0000000000000002
230
-1.0
 50
0.0000000000015903
 51
24.7871723071888397
  0
ARC
  5
16EA
  8
0
  6
VERDECKT
 62
     1
 10
14.0000000000046594
 20
207.2909999999990021
 30
0.0
 40
27.4999999999953388
210
0.0
220
-0.0000000000000002
230
-1.0
 50
334.8288522569338852
 51
0.0000000000026322
  0
ARC
  5
16EB
  8
0
  6
VERDECKT
 62
     1
 10
-78.0000000000046612
 20
207.2909999999990021
 30
0.0
 40
27.4999999999953388
210
0.0
220
-0.0000000000000002
230
-1.0
 50
179.9999999999972999
 51
205.1711477430660011
  0
LINE
  5
16EC
  8
0
  6
VERDECKT
 62
     1
 10
105.5
 20
216.3976225555360031
 30
-0.000000000000048
 11
105.5
 21
207.2910000000001958
 31
-0.000000000000046
210
0.0
220
1.0
230
-0.0000000000000002
  0
LINE
  5
16ED
  8
0
  6
VERDECKT
 62
     1
 10
-41.5
 20
216.3976225555360031
 30
-0.000000000000048
 11
-41.5
 21
207.2910000000001958
 31
-0.000000000000046
210
0.0
220
1.0
230
-0.0000000000000002
  0
ARC
  5
16EE
  8
0
  6
VERDECKT
 62
     1
 10
14.0000000000030003
 20
216.3976225555367989
 30
0.0
 40
27.4999999999970015
210
0.0
220
-0.0000000000000002
230
-1.0
 50
359.9999999999982947
 51
24.9999999999996412
  0
ARC
  5
16EF
  8
0
  6
VERDECKT
 62
     1
 10
-78.0000000000028564
 20
216.3976225555367137
 30
0.0
 40
27.4999999999971507
210
0.0
220
-0.0000000000000002
230
-1.0
 50
155.0000000000003979
 51
180.0000000000015064
  0
LINE
  5
16F0
  8
0
  6
VERDECKT
 62
     1
 10
102.0000000000002984
 20
230.000000000000199
 30
-0.0000000000000511
 11
102.9234641435082978
 21
228.0196247534045995
 31
-0.0000000000000506
210
0.0
220
1.0
230
-0.0000000000000002
  0
LINE
  5
16F1
  8
0
  6
VERDECKT
 62
     1
 10
-38.0000000000003411
 20
230.000000000000199
 30
-0.0000000000000511
 11
-38.9234641435083404
 21
228.0196247534045995
 31
-0.0000000000000506
210
0.0
220
1.0
230
-0.0000000000000002
  0
ENDBLK
  5
1666
  8
0
  0
BLOCK
  8
0
  2
A$C6E1D574A
 70
     0
 10
0.0
 20
0.0
 30
0.0
  3
A$C6E1D574A
  1

  0
ARC
  5
166A
  8
0
  6
CONTINUOUS
 62
     3
 10
0.0000000000000289
 20
-0.0000000000000221
 30
0.0
 40
100.0
 50
34.9152062474442033
 51
325.0847937525558109
  0
ARC
  5
166B
  8
0
  6
CONTINUOUS
 62
     3
 10
0.000000000003638
 20
0.0000000000000419
 30
0.0
 40
95.3391492006021508
 50
350.4732429529489082
 51
9.5267570470510847
  0
CIRCLE
  5
166C
  8
0
  6
CONTINUOUS
 62
     3
 10
32.0000000000000497
 20
0.0000000000000045
 30
0.0
 40
76.0
  0
CIRCLE
  5
166D
  8
0
  6
CONTINUOUS
 62
     3
 10
32.0000000000000426
 20
0.0000000000000003
 30
0.0
 40
64.0
  0
CIRCLE
  5
166E
  8
0
  6
CONTINUOUS
 62
     3
 10
32.0000000000000497
 20
0.0000000000000027
 30
0.0
 40
68.9999999999997726
  0
CIRCLE
  5
166F
  8
0
  6
CONTINUOUS
 62
     3
 10
32.0000000000000497
 20
0.0000000000000054
 30
0.0
 40
70.0000000000002274
  0
CIRCLE
  5
1670
  8
0
  6
CONTINUOUS
 62
     3
 10
32.0000000000000497
 20
0.0000000000000054
 30
0.0
 40
72.7584447974063551
  0
ARC
  5
1671
  8
0
  6
VERDECKT
 62
     1
 10
-0.0000000000017901
 20
-0.0000000000005337
 30
0.0
 40
100.0000000000018048
 50
0.0000000000003053
 51
34.9152062474438409
  0
ARC
  5
1672
  8
0
  6
VERDECKT
 62
     1
 10
-0.0000000000017901
 20
0.0000000000005002
 30
0.0
 40
100.0000000000018048
 50
325.0847937525560951
 51
359.9999999999997158
  0
CIRCLE
  5
1673
  8
0
  6
VERDECKT
 62
     1
 10
0.000000000000028
 20
-0.0000000000000017
 30
0.0
 40
97.0999999999997954
  0
CIRCLE
  5
1674
  8
0
  6
VERDECKT
 62
     1
 10
32.0000000000000284
 20
-0.0000000000000006
 30
0.0
 40
65.0
  0
CIRCLE
  5
1675
  8
0
  6
VERDECKT
 62
     1
 10
0.0
 20
-0.0000000000000094
 30
0.0
 40
98.2502267294813549
  0
ARC
  5
1676
  8
0
  6
VERDECKT
 62
     1
 10
0.0
 20
0.0000000000000055
 30
0.0
 40
95.3391492006057888
 50
9.5267570470507277
 51
180.0
  0
ARC
  5
1677
  8
0
  6
VERDECKT
 62
     1
 10
0.0
 20
-0.0000000000000372
 30
0.0
 40
95.3391492006057177
 50
180.0
 51
350.4732429529493061
  0
CIRCLE
  5
1678
  8
0
  6
VERDECKT
 62
     1
 10
32.0000000000000497
 20
0.000000000000004
 30
0.0
 40
75.9997362596923267
  0
CIRCLE
  5
1679
  8
0
  6
VERDECKT
 62
     1
 10
32.0000000000000497
 20
0.0000000000000027
 30
0.0
 40
71.5
  0
CIRCLE
  5
167A
  8
0
  6
VERDECKT
 62
     1
 10
32.0000000000000426
 20
0.0000000000000003
 30
0.0
 40
66.5
  0
CIRCLE
  5
167B
  8
0
  6
VERDECKT
 62
     1
 10
32.0000000000000497
 20
0.0000000000000045
 30
0.0
 40
73.5
  0
ENDBLK
  5
167D
  8
0
  0
BLOCK
  8
0
  2
A$C02D65A21
 70
     0
 10
0.0
 20
0.0
 30
0.0
  3
A$C02D65A21
  1

  0
LINE
  5
16FC
  8
0
  6
CONTINUOUS
 62
     3
 10
100.0
 20
130.0000000000001137
 30
-0.0000000000000289
 11
0.0000000000000289
 21
130.0000000000001137
 31
-0.0000000000000289
210
0.0000000000000002
220
1.0
230
-0.0000000000000002
  0
LINE
  5
16FD
  8
0
  6
CONTINUOUS
 62
     3
 10
0.0000000000000078
 20
130.0000000000001137
 30
-0.0000000000000289
 11
-100.0
 21
130.000000000000199
 31
-0.0000000000000289
210
0.0000000000000002
220
1.0
230
-0.0000000000000002
  0
LINE
  5
16FE
  8
0
  6
CONTINUOUS
 62
     3
 10
-99.9999999999997868
 20
13.7598533458070396
 30
-0.0000000000000031
 11
99.9999999999997584
 21
13.7598533458069898
 31
-0.0000000000000031
210
0.0000000000000002
220
1.0
230
-0.0000000000000002
  0
LINE
  5
16FF
  8
0
  6
CONTINUOUS
 62
     3
 10
-98.2502267294813834
 20
0.0000000000000278
 30
0.0
 11
98.2502267294813549
 21
-0.0000000000000278
 31
0.0
210
0.0000000000000002
220
1.0
230
-0.0000000000000002
  0
LINE
  5
1701
  8
0
  6
CONTINUOUS
 62
     3
 10
-72.7584447974062982
 20
230.000000000000199
 30
-0.0000000000000511
 11
72.7584447974064119
 21
230.000000000000199
 31
-0.0000000000000511
210
0.0000000000000002
220
1.0
230
-0.0000000000000002
  0
LINE
  5
1702
  8
0
  6
CONTINUOUS
 62
     3
 10
99.999999999999801
 20
130.0000000000001137
 30
-0.0000000000000289
 11
99.9999999999997868
 21
13.7598533458070005
 31
-0.0000000000000031
210
0.0000000000000002
220
1.0
230
-0.0000000000000002
  0
LINE
  5
1703
  8
0
  6
CONTINUOUS
 62
     3
 10
-99.9999999999997442
 20
130.000000000000199
 30
-0.0000000000000289
 11
-99.9999999999997868
 21
13.7598533458070396
 31
-0.0000000000000031
210
0.0000000000000002
220
1.0
230
-0.0000000000000002
  0
LINE
  5
1704
  8
0
  6
CONTINUOUS
 62
     3
 10
-98.2502267294813265
 20
0.0000000000000343
 30
0.0
 11
-99.99999999999973
 21
13.7598533458070502
 31
-0.0000000000000031
210
0.0000000000000002
220
1.0
230
-0.0000000000000002
  0
LINE
  5
1705
  8
0
  6
CONTINUOUS
 62
     3
 10
98.2502267294812839
 20
-0.0000000000000218
 30
0.0
 11
99.9999999999997158
 21
13.7598533458070005
 31
-0.0000000000000031
210
0.0000000000000002
220
1.0
230
-0.0000000000000002
  0
LINE
  5
1706
  8
0
  6
CONTINUOUS
 62
     3
 10
76.0000000000000426
 20
216.3976225555360031
 30
-0.000000000000048
 11
76.0000000000000426
 21
207.2910000000001958
 31
-0.000000000000046
210
0.0000000000000002
220
1.0
230
-0.0000000000000002
  0
LINE
  5
1707
  8
0
  6
CONTINUOUS
 62
     3
 10
-75.9999999999999574
 20
216.3976225555360031
 30
-0.000000000000048
 11
-75.9999999999999574
 21
207.2910000000001958
 31
-0.000000000000046
210
0.0000000000000002
220
1.0
230
-0.0000000000000002
  0
ARC
  5
1708
  8
0
  6
CONTINUOUS
 62
     3
 10
45.9999999999982592
 20
207.2910000000013042
 30
0.0
 40
29.9997362596940107
210
0.0
220
-0.0000000000000002
230
-1.0
 50
334.9928416634452901
 51
359.9999999999980105
  0
ARC
  5
1709
  8
0
  6
CONTINUOUS
 62
     3
 10
-45.9999999999989413
 20
207.2910000000011053
 30
0.0
 40
29.9997362596934316
210
0.0
220
-0.0000000000000002
230
-1.0
 50
180.0000000000017053
 51
205.0071583365549088
  0
ARC
  5
170A
  8
0
  6
CONTINUOUS
 62
     3
 10
89.4999999999959215
 20
187.0000000000013074
 30
0.0
 40
17.9999999999959712
210
0.0
220
-0.0000000000000002
230
-1.0
 50
154.9928416634483028
 51
180.0000000000036096
  0
ARC
  5
170B
  8
0
  6
CONTINUOUS
 62
     3
 10
-89.4999999999960778
 20
187.0000000000011937
 30
0.0
 40
17.9999999999960387
210
0.0
220
-0.0000000000000002
230
-1.0
 50
359.9999999999964189
 51
25.0071583365514805
  0
LINE
  5
170C
  8
0
  6
CONTINUOUS
 62
     3
 10
71.5000000000000426
 20
187.0000000000001137
 30
-0.0000000000000415
 11
71.5000000000000426
 21
163.4687194226711995
 31
-0.0000000000000363
210
0.0000000000000002
220
1.0
230
-0.0000000000000002
  0
LINE
  5
170D
  8
0
  6
CONTINUOUS
 62
     3
 10
-71.4999999999999432
 20
187.0000000000001137
 30
-0.0000000000000415
 11
-71.4999999999999432
 21
163.4687194226713132
 31
-0.0000000000000363
210
0.0000000000000002
220
1.0
230
-0.0000000000000002
  0
ARC
  5
170E
  8
0
  6
CONTINUOUS
 62
     3
 10
53.5000000000014992
 20
163.4687194226708868
 30
0.0
 40
17.9999999999984688
210
0.0
220
-0.0000000000000002
230
-1.0
 50
325.2280559680507963
 51
0.0000000000011005
  0
ARC
  5
170F
  8
0
  6
CONTINUOUS
 62
     3
 10
-53.5000000000015632
 20
163.4687194226708868
 30
0.0
 40
17.9999999999984688
210
0.0
220
-0.0000000000000002
230
-1.0
 50
179.9999999999988916
 51
214.77194403194909
  0
ARC
  5
1710
  8
0
  6
CONTINUOUS
 62
     3
 10
76.5000000000010516
 20
147.4999999999996874
 30
0.0
 40
10.0000000000010907
210
0.0
220
-0.0000000000000002
230
-1.0
 50
145.2280559680515069
 51
179.9999999999976978
  0
ARC
  5
1711
  8
0
  6
CONTINUOUS
 62
     3
 10
-76.5000000000012506
 20
147.4999999999996874
 30
0.0
 40
10.0000000000012204
210
0.0
220
-0.0000000000000002
230
-1.0
 50
0.00000000000229
 51
34.7719440319480029
  0
LINE
  5
1712
  8
0
  6
CONTINUOUS
 62
     3
 10
66.5000000000000284
 20
147.5000000000001137
 30
-0.0000000000000328
 11
66.5000000000000284
 21
130.0000000000001137
 31
-0.0000000000000289
210
0.0000000000000002
220
1.0
230
-0.0000000000000002
  0
LINE
  5
1713
  8
0
  6
CONTINUOUS
 62
     3
 10
-66.4999999999999716
 20
147.5000000000001137
 30
-0.0000000000000328
 11
-66.4999999999999716
 21
130.000000000000199
 31
-0.0000000000000289
210
0.0000000000000002
220
1.0
230
-0.0000000000000002
  0
LINE
  5
1714
  8
0
  6
CONTINUOUS
 62
     3
 10
72.7584447974063835
 20
230.000000000000199
 30
-0.0000000000000511
 11
73.1892336110986719
 21
229.0761704077588092
 31
-0.0000000000000509
210
0.0000000000000002
220
1.0
230
-0.0000000000000002
  0
LINE
  5
1715
  8
0
  6
CONTINUOUS
 62
     3
 10
-72.7584447974062556
 20
230.000000000000199
 30
-0.0000000000000511
 11
-73.1892336110985582
 21
229.0761704077588945
 31
-0.0000000000000509
210
0.0000000000000002
220
1.0
230
-0.0000000000000002
  0
ARC
  5
1716
  8
0
  6
CONTINUOUS
 62
     3
 10
46.0000000000018119
 20
216.397622555536401
 30
0.0
 40
29.999999999998149
210
0.0
220
-0.0000000000000002
230
-1.0
 50
359.9999999999990905
 51
25.0000000000046896
  0
ARC
  5
1717
  8
0
  6
CONTINUOUS
 62
     3
 10
-46.0000000000024585
 20
216.3976225555366
 30
0.0
 40
29.9999999999975984
210
0.0
220
-0.0000000000000002
230
-1.0
 50
154.9999999999951115
 51
180.0000000000011084
  0
LINE
  5
1718
  8
0
  6
VERDECKT
 62
     1
 10
-97.0999999999997669
 20
126.0000000000000995
 30
-0.000000000000028
 11
97.0999999999998238
 21
126.0
 31
-0.000000000000028
210
0.0000000000000002
220
1.0
230
-0.0000000000000002
  0
LINE
  5
1719
  8
0
  6
VERDECKT
 62
     1
 10
-97.0999999999998096
 20
13.8864700802418195
 30
-0.0000000000000031
 11
97.0999999999997954
 21
13.8864700802417698
 31
-0.0000000000000031
210
0.0000000000000002
220
1.0
230
-0.0000000000000002
  0
LINE
  5
171A
  8
0
  6
VERDECKT
 62
     1
 10
-64.9999999999999716
 20
126.000000000000199
 30
-0.000000000000028
 11
-64.9999999999999716
 21
130.000000000000199
 31
-0.0000000000000289
210
0.0000000000000002
220
1.0
230
-0.0000000000000002
  0
LINE
  5
171B
  8
0
  6
VERDECKT
 62
     1
 10
65.0000000000000284
 20
126.0000000000000995
 30
-0.000000000000028
 11
65.0000000000000284
 21
130.0000000000001137
 31
-0.0000000000000289
210
0.0000000000000002
220
1.0
230
-0.0000000000000002
  0
LINE
  5
171C
  8
0
  6
VERDECKT
 62
     1
 10
-95.3391492006056893
 20
0.0000000000000274
 30
0.0
 11
-97.0999999999998096
 21
13.8864700802418195
 31
-0.0000000000000031
210
0.0000000000000002
220
1.0
230
-0.0000000000000002
  0
LINE
  5
171D
  8
0
  6
VERDECKT
 62
     1
 10
95.3391492006056467
 20
-0.0000000000000274
 30
0.0
 11
97.0999999999997954
 21
13.8864700802417698
 31
-0.0000000000000031
210
0.0000000000000002
220
1.0
230
-0.0000000000000002
  0
LINE
  5
171E
  8
0
  6
VERDECKT
 62
     1
 10
97.0999999999998238
 20
126.0
 30
-0.000000000000028
 11
97.0999999999997954
 21
13.8864700802417698
 31
-0.0000000000000031
210
0.0000000000000002
220
1.0
230
-0.0000000000000002
  0
LINE
  5
171F
  8
0
  6
VERDECKT
 62
     1
 10
-97.0999999999997669
 20
126.0000000000000995
 30
-0.000000000000028
 11
-97.0999999999997954
 21
13.8864700802418195
 31
-0.0000000000000031
210
0.0000000000000002
220
1.0
230
-0.0000000000000002
  0
LINE
  5
1720
  8
0
  6
VERDECKT
 62
     1
 10
64.0000000000000284
 20
147.5000000000001137
 30
-0.0000000000000328
 11
64.0000000000000284
 21
130.0000000000001137
 31
-0.0000000000000289
210
0.0000000000000002
220
1.0
230
-0.0000000000000002
  0
LINE
  5
1721
  8
0
  6
VERDECKT
 62
     1
 10
-63.9999999999999574
 20
147.5000000000001137
 30
-0.0000000000000328
 11
-63.9999999999999716
 21
130.000000000000199
 31
-0.0000000000000289
210
0.0000000000000002
220
1.0
230
-0.0000000000000002
  0
ARC
  5
1722
  8
0
  6
VERDECKT
 62
     1
 10
76.50000000000081
 20
147.499999999999801
 30
0.0
 40
12.5000000000008207
210
0.0
220
-0.0000000000000002
230
-1.0
 50
145.2280559680542922
 51
179.9999999999986073
  0
ARC
  5
1723
  8
0
  6
VERDECKT
 62
     1
 10
-76.5000000000008669
 20
147.499999999999801
 30
0.0
 40
12.5000000000008296
210
0.0
220
-0.0000000000000002
230
-1.0
 50
0.0000000000014503
 51
34.771944031945722
  0
ARC
  5
1724
  8
0
  6
VERDECKT
 62
     1
 10
53.500000000001009
 20
163.4687194226710005
 30
0.0
 40
15.4999999999989502
210
0.0
220
-0.0000000000000002
230
-1.0
 50
325.2280559680489773
 51
0.0000000000011768
  0
ARC
  5
1725
  8
0
  6
VERDECKT
 62
     1
 10
-53.50000000000108
 20
163.4687194226710005
 30
0.0
 40
15.4999999999989502
210
0.0
220
-0.0000000000000002
230
-1.0
 50
179.9999999999988063
 51
214.7719440319509943
  0
LINE
  5
1726
  8
0
  6
VERDECKT
 62
     1
 10
69.0000000000000426
 20
187.0000000000001137
 30
-0.0000000000000415
 11
69.0000000000000426
 21
163.4687194226713132
 31
-0.0000000000000363
210
0.0000000000000002
220
1.0
230
-0.0000000000000002
  0
LINE
  5
1727
  8
0
  6
VERDECKT
 62
     1
 10
-68.9999999999999432
 20
187.000000000000199
 30
-0.0000000000000415
 11
-68.9999999999999432
 21
163.4687194226713984
 31
-0.0000000000000363
210
0.0000000000000002
220
1.0
230
-0.0000000000000002
  0
ARC
  5
1728
  8
0
  6
VERDECKT
 62
     1
 10
89.50000000000162
 20
186.9999999999996021
 30
0.0
 40
20.5000000000016698
210
0.0
220
-0.0000000000000002
230
-1.0
 50
155.212827692811203
 51
179.9999999999984084
  0
ARC
  5
1729
  8
0
  6
VERDECKT
 62
     1
 10
-89.5000000000017053
 20
186.9999999999996021
 30
0.0
 40
20.5000000000016698
210
0.0
220
-0.0000000000000002
230
-1.0
 50
0.000000000001603
 51
24.7871723071888503
  0
ARC
  5
172A
  8
0
  6
VERDECKT
 62
     1
 10
46.0000000000043201
 20
207.2909999999990021
 30
0.0
 40
27.4999999999956408
210
0.0
220
-0.0000000000000002
230
-1.0
 50
334.8288522569341126
 51
0.0000000000024922
  0
ARC
  5
172B
  8
0
  6
VERDECKT
 62
     1
 10
-46.000000000004448
 20
207.2909999999990021
 30
0.0
 40
27.4999999999955911
210
0.0
220
-0.0000000000000002
230
-1.0
 50
179.9999999999974136
 51
205.1711477430658874
  0
LINE
  5
172C
  8
0
  6
VERDECKT
 62
     1
 10
73.5000000000000426
 20
216.3976225555360031
 30
-0.000000000000048
 11
73.5000000000000426
 21
207.2910000000001958
 31
-0.000000000000046
210
0.0000000000000002
220
1.0
230
-0.0000000000000002
  0
LINE
  5
172D
  8
0
  6
VERDECKT
 62
     1
 10
-73.4999999999999574
 20
216.3976225555360031
 30
-0.000000000000048
 11
-73.4999999999999574
 21
207.2910000000001958
 31
-0.000000000000046
210
0.0000000000000002
220
1.0
230
-0.0000000000000002
  0
ARC
  5
172E
  8
0
  6
VERDECKT
 62
     1
 10
46.0000000000025082
 20
216.3976225555367137
 30
0.0
 40
27.4999999999974314
210
0.0
220
-0.0000000000000002
230
-1.0
 50
359.9999999999985221
 51
24.9999999999994387
  0
ARC
  5
172F
  8
0
  6
VERDECKT
 62
     1
 10
-46.0000000000031903
 20
216.3976225555367989
 30
0.0
 40
27.4999999999968594
210
0.0
220
-0.0000000000000002
230
-1.0
 50
155.0000000000003126
 51
180.0000000000017053
  0
LINE
  5
1730
  8
0
  6
VERDECKT
 62
     1
 10
70.0000000000003837
 20
230.000000000000199
 30
-0.0000000000000511
 11
70.923464143508383
 21
228.0196247534045995
 31
-0.0000000000000506
210
0.0000000000000002
220
1.0
230
-0.0000000000000002
  0
LINE
  5
1731
  8
0
  6
VERDECKT
 62
     1
 10
-70.0000000000002842
 20
230.000000000000199
 30
-0.0000000000000511
 11
-70.9234641435082835
 21
228.0196247534047131
 31
-0.0000000000000506
210
0.0000000000000002
220
1.0
230
-0.0000000000000002
  0
ENDBLK
  5
16B8
  8
0
  0
ENDSEC
  0
SECTION
  2
ENTITIES
  0
TEXT
  5
8F
  8
VOLL
 10
78.076754716981128
 20
31.025947764705851
 30
0.0
 40
1.8
  1

  7
GREEKS
  0
TEXT
  5
97
  8
TEXT
 10
225.1296391125314926
 20
62.1158070677485625
 30
0.0
 40
5.0
  1

 41
0.8
  7
GREEKS
  0
INSERT
  5
1667
  8
STEMPEL
  2
A$C3F721206
 10
0.0
 20
0.0
 30
0.0
  0
INSERT
  5
167E
  8
STEMPEL
  2
A$C6E1D574A
 10
0.0
 20
-200.0
 30
0.0
  0
INSERT
  5
16B9
  8
STEMPEL
  2
A$C02D65A21
 10
-299.9999999999997726
 20
0.0
 30
0.0
  0
VIEWPORT
  5
14F8
 67
     1
  8
0
 10
11.8423774677365792
 20
16.749496762815081
 30
0.0
 40
67.3001094375382252
 41
34.2756865462097124
 68
     1
 69
     1
1001
ACAD
1000
MVIEW
1002
{
1070
    16
1010
0.0
1020
0.0
1030
0.0
1010
0.0
1020
0.0
1030
1.0
1040
0.0
1040
34.2756865462097124
1040
11.8423774677365792
1040
16.749496762815081
1040
50.0
1040
0.0
1040
0.0
1070
     0
1070
  1500
1070
     1
1070
     1
1070
     0
1070
     0
1070
     0
1070
     0
1040
0.0
1040
0.0
1040
0.0
1040
10.0
1040
10.0
1040
10.0
1040
10.0
1070
     0
1002
{
1002
}
1002
}
  0
VIEWPORT
  5
14FC
 67
     1
  8
DEFPOINTS
 10
11.8421493850861204
 20
16.7494966836369983
 30
0.0
 40
24.1151971327938206
 41
34.0067277908776191
 68
     2
 69
     2
1001
ACAD
1000
MVIEW
1002
{
1070
    16
1010
268.8210570945382756
1020
62.0679185966323317
1030
11.08885706853704
1010
0.0
1020
0.0
1030
525.9185536549788367
1040
0.0
1040
604.3170015647356195
1040
-57.8856422458696471
1040
236.5823213641770053
1040
50.0
1040
0.0
1040
0.0
1070
     0
1070
  1500
1070
     1
1070
     0
1070
     0
1070
     0
1070
     0
1070
     0
1040
0.0
1040
0.0
1040
0.0
1040
1.0
1040
1.0
1040
10.0
1040
10.0
1070
     0
1002
{
1002
}
1002
}
  0
VIEWPORT
  5
1500
 67
     1
  8
DEFPOINTS
 10
15.1613897335432295
 20
12.2679361615127398
 30
0.0
 40
7.2786116029191978
 41
7.1847099934125822
 68
     3
 69
     3
1001
ACAD
1000
MVIEW
1002
{
1070
    16
1010
856.053793177576722
1020
347.970109580537212
1030
11.3406674794312199
1010
0.0
1020
67.4334089058571067
1030
443.0660115248321063
1040
3.1415926535897931
1040
264.4645039503212729
1040
0.0
1040
0.0
1040
50.0
1040
0.0
1040
0.0
1070
     0
1070
  1500
1070
     1
1070
     0
1070
     0
1070
     0
1070
     0
1070
     0
1040
0.0
1040
0.0
1040
0.0
1040
1.0
1040
1.0
1040
10.0
1040
10.0
1070
     0
1002
{
1002
}
1002
}
  0
ENDSEC
  0
EOF
