  0
SECTION
  2
HEADER
  9
$ACADVER
  1
AC1009
  9
$INSBASE
 10
0.0
 20
0.0
 30
0.0
  9
$EXTMIN
 10
164.1537713663007878
 20
-400.2805415756125171
 30
-55.6136783486677402
  9
$EXTMAX
 10
704.8911513585585453
 20
100.8972314327411937
 30
-55.6136783486676904
  9
$LIMMIN
 10
0.0
 20
0.0
  9
$LIMMAX
 10
210.0
 20
297.0
  9
$ORTHOMODE
 70
     1
  9
$REGENMODE
 70
     1
  9
$FILLMODE
 70
     1
  9
$QTEXTMODE
 70
     0
  9
$MIRRTEXT
 70
     1
  9
$DRAGMODE
 70
     2
  9
$LTSCALE
 40
10.0
  9
$OSMODE
 70
  2495
  9
$ATTMODE
 70
     1
  9
$TEXTSIZE
 40
3.5
  9
$TRACEWID
 40
0.5
  9
$TEXTSTYLE
  7
STANDARD
  9
$CLAYER
  8
STEMPEL
  9
$CELTYPE
  6
BYLAYER
  9
$CECOLOR
 62
   256
  9
$DIMSCALE
 40
1.0
  9
$DIMASZ
 40
3.5
  9
$DIMEXO
 40
1.0
  9
$DIMDLI
 40
7.0
  9
$DIMRND
 40
0.0
  9
$DIMDLE
 40
0.0
  9
$DIMEXE
 40
1.0
  9
$DIMTP
 40
0.5
  9
$DIMTM
 40
0.7
  9
$DIMTXT
 40
3.5
  9
$DIMCEN
 40
1.5
  9
$DIMTSZ
 40
0.0
  9
$DIMTOL
 70
     0
  9
$DIMLIM
 70
     0
  9
$DIMTIH
 70
     0
  9
$DIMTOH
 70
     0
  9
$DIMSE1
 70
     0
  9
$DIMSE2
 70
     0
  9
$DIMTAD
 70
     1
  9
$DIMZIN
 70
     8
  9
$DIMBLK
  1

  9
$DIMASO
 70
     1
  9
$DIMSHO
 70
     0
  9
$DIMPOST
  1

  9
$DIMAPOST
  1

  9
$DIMALT
 70
     0
  9
$DIMALTD
 70
     2
  9
$DIMALTF
 40
25.3999999999999986
  9
$DIMLFAC
 40
2.0
  9
$DIMTOFL
 70
     1
  9
$DIMTVP
 40
0.0
  9
$DIMTIX
 70
     0
  9
$DIMSOXD
 70
     0
  9
$DIMSAH
 70
     0
  9
$DIMBLK1
  1

  9
$DIMBLK2
  1

  9
$DIMSTYLE
  2
STANDARD
  9
$DIMCLRD
 70
     0
  9
$DIMCLRE
 70
     0
  9
$DIMCLRT
 70
     1
  9
$DIMTFAC
 40
0.5
  9
$DIMGAP
 40
1.5
  9
$LUNITS
 70
     2
  9
$LUPREC
 70
     2
  9
$SKETCHINC
 40
1.0
  9
$FILLETRAD
 40
22.8999999999999986
  9
$AUNITS
 70
     0
  9
$AUPREC
 70
     0
  9
$MENU
  1
ACAD
  9
$ELEVATION
 40
0.0
  9
$PELEVATION
 40
0.0
  9
$THICKNESS
 40
0.0
  9
$LIMCHECK
 70
     0
  9
$BLIPMODE
 70
     0
  9
$CHAMFERA
 40
0.0
  9
$CHAMFERB
 40
0.0
  9
$SKPOLY
 70
     0
  9
$TDCREATE
 40
2455397.8646990740671754
  9
$TDUPDATE
 40
2459388.3274768521077931
  9
$TDINDWG
 40
0.1041128704
  9
$TDUSRTIMER
 40
0.1041128704
  9
$USRTIMER
 70
     1
  9
$ANGBASE
 50
0.0
  9
$ANGDIR
 70
     0
  9
$PDMODE
 70
     0
  9
$PDSIZE
 40
0.0
  9
$PLINEWID
 40
0.0
  9
$COORDS
 70
     1
  9
$SPLFRAME
 70
     0
  9
$SPLINETYPE
 70
     6
  9
$SPLINESEGS
 70
     8
  9
$ATTDIA
 70
     1
  9
$ATTREQ
 70
     1
  9
$HANDLING
 70
     1
  9
$HANDSEED
  5
1296
  9
$SURFTAB1
 70
     6
  9
$SURFTAB2
 70
     6
  9
$SURFTYPE
 70
     6
  9
$SURFU
 70
     6
  9
$SURFV
 70
     6
  9
$UCSNAME
  2

  9
$UCSORG
 10
0.0
 20
0.0
 30
0.0
  9
$UCSXDIR
 10
1.0
 20
0.0
 30
0.0
  9
$UCSYDIR
 10
0.0
 20
1.0
 30
0.0
  9
$PUCSNAME
  2

  9
$PUCSORG
 10
0.0
 20
0.0
 30
0.0
  9
$PUCSXDIR
 10
1.0
 20
0.0
 30
0.0
  9
$PUCSYDIR
 10
0.0
 20
1.0
 30
0.0
  9
$USERI1
 70
     0
  9
$USERI2
 70
     0
  9
$USERI3
 70
     0
  9
$USERI4
 70
     0
  9
$USERI5
 70
     0
  9
$USERR1
 40
0.0
  9
$USERR2
 40
0.0
  9
$USERR3
 40
0.0
  9
$USERR4
 40
0.0
  9
$USERR5
 40
0.0
  9
$WORLDVIEW
 70
     1
  9
$SHADEDGE
 70
     3
  9
$SHADEDIF
 70
    70
  9
$TILEMODE
 70
     1
  9
$MAXACTVP
 70
    16
  9
$PLIMCHECK
 70
     0
  9
$PEXTMIN
 10
-144.9141323959306078
 20
-0.1493604905373331
 30
-0.0015258207003583
  9
$PEXTMAX
 10
209.9307309590462864
 20
296.8732967365148738
 30
0.0000000349246037
  9
$PLIMMIN
 10
-0.069270693404107
 20
-0.1267046466679886
  9
$PLIMMAX
 10
209.9307293065959072
 20
296.8732953533320256
  9
$UNITMODE
 70
     0
  9
$VISRETAIN
 70
     0
  9
$PLINEGEN
 70
     0
  9
$PSLTSCALE
 70
     0
  0
ENDSEC
  0
SECTION
  2
TABLES
  0
TABLE
  2
VPORT
 70
     1
  0
VPORT
  2
*ACTIVE
 70
     0
 10
0.0
 20
0.0
 11
1.0
 21
1.0
 12
175.3601415740722018
 22
-94.4021486553313025
 13
0.0
 23
0.0
 14
1.0
 24
1.0
 15
10.0
 25
10.0
 16
0.0000000000002274
 26
0.0
 36
987.1193528396302099
 17
259.1623197883574221
 27
-55.2895064161043521
 37
-49.5632539360200823
 40
504.7618810394026809
 41
1.7852028639618129
 42
50.0
 43
0.0
 44
0.0
 50
0.0
 51
0.0
 71
     0
 72
  1500
 73
     1
 74
     0
 75
     0
 76
     0
 77
     0
 78
     0
  0
ENDTAB
  0
TABLE
  2
LTYPE
 70
     6
  0
LTYPE
  2
CONTINUOUS
 70
     0
  3
Solid line
 72
    65
 73
     0
 40
0.0
  0
LTYPE
  2
PHANTOM2
 70
     0
  3
Phantom (.5x) ___ _ _ ___ _ _ ___ _ _ ___ _ _
 72
    65
 73
     6
 40
1.25
 49
0.625
 49
-0.125
 49
0.125
 49
-0.125
 49
0.125
 49
-0.125
  0
LTYPE
  2
VERDECKT
 70
     0
  3
Verdeckt __ __ __ __ __ __ __ __ __ __ __ __ __
 72
    65
 73
     2
 40
0.375
 49
0.25
 49
-0.125
  0
ENDTAB
  0
TABLE
  2
LAYER
 70
    14
  0
LAYER
  2
0
 70
     0
 62
     7
  6
CONTINUOUS
  0
LAYER
  2
VOLL
 70
     0
 62
     1
  6
CONTINUOUS
  0
LAYER
  2
STEMPEL
 70
     0
 62
     3
  6
CONTINUOUS
  0
LAYER
  2
ADSK_ASSOC_ENTITY_BACKUPS
 70
     1
 62
    -7
  6
CONTINUOUS
  0
LAYER
  2
DEFPOINTS
 70
     0
 62
     7
  6
CONTINUOUS
  0
ENDTAB
  0
TABLE
  2
STYLE
 70
     4
  0
STYLE
  2
STANDARD
 70
     0
 40
0.0
 41
0.8
 50
0.0
 71
     0
 42
3.5
  3
simplex.shx
  4

  0
STYLE
  2
GREEKS
 70
     0
 40
0.0
 41
0.8
 50
0.0
 71
     0
 42
2.5
  3
SIMPLEX.shx
  4

  0
ENDTAB
  0
TABLE
  2
VIEW
 70
     1
  0
ENDTAB
  0
TABLE
  2
UCS
 70
     0
  0
ENDTAB
  0
TABLE
  2
APPID
 70
    17
  0
APPID
  2
ACAD
 70
     0
  0
APPID
  2
ACAD_NAV_VCDISPLAY
 70
     0
  0
APPID
  2
ACAD_MLEADERVER
 70
     0
  0
APPID
  2
ACAD_EXEMPT_FROM_CAD_STANDARDS
 70
     0
  0
APPID
  2
ACAD_PSEXT
 70
     0
  0
APPID
  2
ACAECLAYERSTANDARD
 70
     0
  0
APPID
  2
ACAUTHENVIRON
 70
     0
  0
APPID
  2
ACCMTRANSPARENCY
 70
     0
  0
APPID
  2
ACSYNERGY
 70
     0
  0
APPID
  2
SYNERGY_BODY_TBR_ID
 70
     0
  0
APPID
  2
ACAD_VIEW_EDGE_ID
 70
     0
  0
APPID
  2
ACAD_DSTYLE_DIMJAG
 70
     0
  0
APPID
  2
ACAD_DSTYLE_DIMTALN
 70
     0
  0
APPID
  2
ACADANNOMONITORALERTICONDI
 70
     0
  0
APPID
  2
ACSYNERGYSKETCH
 70
     0
  0
APPID
  2
ACAD_MODELDOC_XFORM
 70
     0
  0
APPID
  2
AcDbAttr
 70
     0
  0
ENDTAB
  0
TABLE
  2
DIMSTYLE
 70
     2
  0
DIMSTYLE
  2
STANDARD
 70
     0
  3

  4

  5

  6

  7

 40
1.0
 41
0.18
 42
0.0625
 43
0.38
 44
0.18
 45
0.0
 46
0.0
 47
0.0
 48
0.0
140
0.18
141
0.09
142
0.0
143
25.3999999999999986
144
1.0
145
0.0
146
1.0
147
0.09
 71
     0
 72
     0
 73
     1
 74
     1
 75
     0
 76
     0
 77
     0
 78
     0
170
     0
171
     2
172
     0
173
     0
174
     0
175
     0
176
     0
177
     0
178
     0
  0
ENDTAB
  0
ENDSEC
  0
SECTION
  2
BLOCKS
  0
BLOCK
  8
0
  2
$MODEL_SPACE
 70
     0
 10
0.0
 20
0.0
 30
0.0
  3
$MODEL_SPACE
  1

  0
ENDBLK
  5
36
  8
0
  0
BLOCK
 67
     1
  8
0
  2
$PAPER_SPACE
 70
     0
 10
0.0
 20
0.0
 30
0.0
  3
$PAPER_SPACE
  1

  0
ENDBLK
  5
34
 67
     1
  8
0
  0
BLOCK
  8
0
  2
*S2
 70
     1
 10
0.0
 20
0.0
 30
0.0
  3
*S2
  1

  0
ENDBLK
  5
A2F
  8
0
  0
BLOCK
  8
0
  2
A$C29B3665C
 70
     0
 10
0.0
 20
0.0
 30
0.0
  3
A$C29B3665C
  1

  0
ARC
  5
11A4
  8
0
 10
-0.2528456513137812
 20
-111.7204051341214068
 30
0.0
 40
100.0
 50
23.2105916177454397
 51
336.7894083822545213
  0
CIRCLE
  5
11A5
  8
0
 10
47.7471543486862231
 20
-111.7204051341214068
 30
0.0
 40
49.0000000000000284
  0
CIRCLE
  5
11A6
  8
0
 10
47.7471543486862302
 20
-111.7204051341214068
 30
0.0
 40
53.0000000000000426
  0
CIRCLE
  5
11A7
  8
0
 10
47.7471543486862373
 20
-111.7204051341214068
 30
0.0
 40
53.8941402638517104
  0
CIRCLE
  5
11A8
  8
0
 10
47.7471543486862373
 20
-111.7204051341214068
 30
0.0
 40
55.7067558379250372
  0
CIRCLE
  5
11A9
  8
0
 10
47.7471543486862373
 20
-111.7204051341214068
 30
0.0
 40
59.0
  0
ARC
  5
11AA
  8
0
 10
-0.2528456513141917
 20
-111.7204051341214068
 30
0.0
 40
96.2360362933454923
 50
352.7293277488747094
 51
7.2706722511254176
  0
ARC
  5
11AB
  8
0
  6
VERDECKT
 62
     1
 10
-0.2528456513138789
 20
-111.7204051341214068
 30
0.0
 40
100.0000000000000995
 50
0.0000000000000127
 51
23.2105916177454397
  0
ARC
  5
11AC
  8
0
  6
VERDECKT
 62
     1
 10
-0.2528456513136374
 20
-111.7204051341214068
 30
0.0
 40
99.9999999999998437
 50
336.7894083822545213
 51
0.0
  0
CIRCLE
  5
11AD
  8
0
  6
VERDECKT
 62
     1
 10
47.7471543486862373
 20
-111.7204051341214068
 30
0.0
 40
57.0000000000000213
  0
CIRCLE
  5
11AE
  8
0
  6
VERDECKT
 62
     1
 10
47.7471543486862302
 20
-111.7204051341214068
 30
0.0
 40
55.0
  0
CIRCLE
  5
11AF
  8
0
  6
VERDECKT
 62
     1
 10
47.7471543486862231
 20
-111.7204051341214068
 30
0.0
 40
51.0000000000000284
  0
CIRCLE
  5
11B0
  8
0
  6
VERDECKT
 62
     1
 10
-0.2528456513138081
 20
-111.7204051341214068
 30
0.0
 40
99.125000917811164
  0
ARC
  5
11B1
  8
0
  6
VERDECKT
 62
     1
 10
-0.252845651313808
 20
-111.7204051341214068
 30
0.0
 40
96.2360362933450944
 50
7.2706722511254176
 51
180.0
  0
ARC
  5
11B2
  8
0
  6
VERDECKT
 62
     1
 10
-0.252845651313808
 20
-111.7204051341214068
 30
0.0
 40
96.2360362933451228
 50
180.0
 51
352.7293277488745957
  0
CIRCLE
  5
11B3
  8
0
  6
VERDECKT
 62
     1
 10
-0.2528456513137804
 20
-111.7204051341214068
 30
0.0
 40
97.0999999999999943
  0
ENDBLK
  5
11B5
  8
0
  0
BLOCK
  8
0
  2
A$C42DAE319
 70
     0
 10
0.0
 20
0.0
 30
0.0
  3
A$C42DAE319
  1

  0
LINE
  5
11B9
  8
0
 10
-100.2528456513138053
 20
112.5
 30
-0.000000000000025
 11
99.7471543486861947
 21
112.5
 31
-0.000000000000025
210
0.0
220
1.0
230
-0.0000000000000002
  0
LINE
  5
11BA
  8
0
 10
99.7471543486861947
 20
116.5
 30
-0.0000000000000259
 11
-100.2528456513138053
 21
116.5
 31
-0.0000000000000259
210
0.0
220
1.0
230
-0.0000000000000002
  0
LINE
  5
11BB
  8
0
 10
-100.2528456513138053
 20
112.5
 30
-0.000000000000025
 11
-100.2528456513138053
 21
116.5
 31
-0.0000000000000259
210
0.0
220
1.0
230
-0.0000000000000002
  0
LINE
  5
11BC
  8
0
 10
99.7471543486861947
 20
112.5
 30
-0.000000000000025
 11
99.7471543486861947
 21
116.5
 31
-0.0000000000000259
210
0.0
220
1.0
230
-0.0000000000000002
  0
LINE
  5
11BD
  8
0
 10
-7.9596014892388487
 20
212.5
 30
-0.0000000000000472
 11
103.4539101866111963
 21
212.5
 31
-0.0000000000000472
210
0.0
220
1.0
230
-0.0000000000000002
  0
LINE
  5
11BE
  8
0
 10
103.4539101866111963
 20
212.5
 30
-0.0000000000000472
 11
104.4048490246025978
 21
210.4607050809460986
 31
-0.0000000000000467
210
0.0
220
1.0
230
-0.0000000000000002
  0
LINE
  5
11BF
  8
0
 10
-7.9596014892388487
 20
212.5
 30
-0.0000000000000472
 11
-8.9105403272302244
 21
210.4607050809460986
 31
-0.0000000000000467
210
0.0
220
1.0
230
-0.0000000000000002
  0
ARC
  5
11C0
  8
0
 10
-13.7471543486865997
 20
199.8952485374288983
 30
0.0
 40
25.0000000000004015
210
0.0
220
-0.0000000000000002
230
-1.0
 50
0.0000000000001399
 51
24.9999999999987885
  0
ARC
  5
11C1
  8
0
 10
-81.7471543486861947
 20
199.895248537429012
 30
0.0
 40
25.0
210
0.0
220
-0.0000000000000002
230
-1.0
 50
155.0000000000009948
 51
180.0
  0
LINE
  5
11C2
  8
0
 10
106.7471543486861947
 20
199.8952485374288983
 30
-0.0000000000000444
 11
106.7471543486861947
 21
184.7332005306815006
 31
-0.000000000000041
210
0.0
220
1.0
230
-0.0000000000000002
  0
LINE
  5
11C3
  8
0
 10
-11.2528456513138195
 20
199.8952485374288983
 30
-0.0000000000000444
 11
-11.2528456513138195
 21
184.7332005306815006
 31
-0.000000000000041
210
0.0
220
1.0
230
-0.0000000000000002
  0
ARC
  5
11C4
  8
0
 10
-13.7471543486803398
 20
184.7332005306801079
 30
0.0
 40
24.99999999999417
210
0.0
220
-0.0000000000000002
230
-1.0
 50
333.1119523822737278
 51
0.0000000000031933
  0
ARC
  5
11C5
  8
0
 10
-81.7471543486920353
 20
184.7332005306801932
 30
0.0
 40
24.9999999999941913
210
0.0
220
-0.0000000000000002
230
-1.0
 50
179.9999999999967883
 51
206.8880476177263859
  0
ARC
  5
11C6
  8
0
 10
19.2528456513137485
 20
168.0
 30
0.0
 40
11.9999999999999503
210
0.0
220
-0.0000000000000002
230
-1.0
 50
153.1119523822736994
 51
180.0000000000001137
  0
ARC
  5
11C7
  8
0
 10
-114.7471543486860952
 20
168.0
 30
0.0
 40
11.9999999999999307
210
0.0
220
-0.0000000000000002
230
-1.0
 50
359.9999999999997726
 51
26.888047617726059
  0
LINE
  5
11C8
  8
0
 10
102.7471543486861947
 20
167.9999999999998863
 30
-0.0000000000000373
 11
102.7471543486861947
 21
149.4274888769475069
 31
-0.0000000000000332
210
0.0
220
1.0
230
-0.0000000000000002
  0
LINE
  5
11C9
  8
0
 10
-7.2528456513138186
 20
168.0
 30
-0.0000000000000373
 11
-7.2528456513138186
 21
149.4274888769475069
 31
-0.0000000000000332
210
0.0
220
1.0
230
-0.0000000000000002
  0
ARC
  5
11CA
  8
0
 10
-7.7471543486860242
 20
149.4274888769473932
 30
0.0
 40
14.9999999999998597
210
0.0
220
-0.0000000000000002
230
-1.0
 50
325.6988472432083199
 51
0.0000000000001145
  0
ARC
  5
11CB
  8
0
 10
-87.7471543486862657
 20
149.4274888769475069
 30
0.0
 40
14.9999999999999591
210
0.0
220
-0.0000000000000002
230
-1.0
 50
180.0
 51
214.3011527567915948
  0
ARC
  5
11CC
  8
0
 10
11.2528456513137005
 20
136.4660074801317933
 30
0.0
 40
7.9999999999998659
210
0.0
220
-0.0000000000000002
230
-1.0
 50
145.6988472432082915
 51
180.0
  0
ARC
  5
11CD
  8
0
 10
-106.7471543486859957
 20
136.466007480131907
 30
0.0
 40
7.9999999999997859
210
0.0
220
-0.0000000000000002
230
-1.0
 50
359.9999999999996021
 51
34.3011527567916517
  0
LINE
  5
11CE
  8
0
 10
98.7471543486862231
 20
136.4660074801317933
 30
-0.0000000000000303
 11
98.7471543486862231
 21
116.5
 31
-0.0000000000000259
210
0.0
220
1.0
230
-0.0000000000000002
  0
LINE
  5
11CF
  8
0
 10
-3.2528456513138329
 20
136.4660074801317933
 30
-0.0000000000000303
 11
-3.2528456513138329
 21
116.5
 31
-0.0000000000000259
210
0.0
220
1.0
230
-0.0000000000000002
  0
LINE
  5
11D0
  8
0
 10
-99.3778465691249977
 20
-12.5
 30
0.0000000000000028
 11
98.8721552664973586
 21
-12.5
 31
0.0000000000000028
210
0.0
220
1.0
230
-0.0000000000000002
  0
LINE
  5
11D1
  8
0
 10
-100.2528456513138053
 20
112.5
 30
-0.000000000000025
 11
99.7471543486861947
 21
112.5
 31
-0.000000000000025
210
0.0
220
1.0
230
-0.0000000000000002
  0
ARC
  5
11D2
  8
0
 10
77.352845651316656
 20
-1.4988791331085749
 30
0.0
 40
22.8999999999971493
210
0.0
220
-0.0000000000000002
230
-1.0
 50
354.9999999999992042
 51
360.0
  0
ARC
  5
11D3
  8
0
 10
-76.8471543486890454
 20
-1.4988791331085729
 30
0.0
 40
22.8999999999971386
210
0.0
220
-0.0000000000000002
230
-1.0
 50
180.0
 51
185.0000000000007105
  0
LINE
  5
11D4
  8
0
 10
-99.3778465691249835
 20
-12.5
 30
0.0000000000000028
 11
-100.1657042376147047
 21
-3.4947456420300118
 31
0.0000000000000008
210
0.0
220
1.0
230
-0.0000000000000002
  0
LINE
  5
11D5
  8
0
 10
98.8721552664973586
 20
-12.5
 30
0.0000000000000028
 11
99.6600129349871509
 21
-3.4947456420300118
 31
0.0000000000000008
210
0.0
220
1.0
230
-0.0000000000000002
  0
LINE
  5
11D6
  8
0
 10
99.7471543486861947
 20
112.5
 30
-0.000000000000025
 11
99.7471543486861947
 21
-1.498879133108602
 31
0.0000000000000003
210
0.0
220
1.0
230
-0.0000000000000002
  0
LINE
  5
11D7
  8
0
 10
-100.2528456513138053
 20
112.5
 30
-0.000000000000025
 11
-100.2528456513138053
 21
-1.498879133108602
 31
0.0000000000000003
210
0.0
220
1.0
230
-0.0000000000000002
  0
LINE
  5
11D8
  8
0
  6
VERDECKT
 62
     1
 10
-1.2528456513138051
 20
112.5
 30
-0.000000000000025
 11
-1.2528456513138051
 21
116.5
 31
-0.0000000000000259
210
0.0
220
1.0
230
-0.0000000000000002
  0
LINE
  5
11D9
  8
0
  6
VERDECKT
 62
     1
 10
96.7471543486861947
 20
112.5
 30
-0.000000000000025
 11
96.7471543486861947
 21
116.5
 31
-0.0000000000000259
210
0.0
220
1.0
230
-0.0000000000000002
  0
LINE
  5
11DA
  8
0
  6
VERDECKT
 62
     1
 10
-6.1469859151655148
 20
211.6547634765186956
 30
-0.000000000000047
 11
101.6412946125379051
 21
211.6547634765186956
 31
-0.000000000000047
210
0.0
220
1.0
230
-0.0000000000000002
  0
LINE
  5
11DB
  8
0
  6
VERDECKT
 62
     1
 10
96.7471543486862231
 20
136.4660074801317933
 30
-0.0000000000000303
 11
96.7471543486862231
 21
116.5
 31
-0.0000000000000259
210
0.0
220
1.0
230
-0.0000000000000002
  0
LINE
  5
11DC
  8
0
  6
VERDECKT
 62
     1
 10
-1.2528456513138331
 20
136.4660074801317933
 30
-0.0000000000000303
 11
-1.2528456513138331
 21
116.5
 31
-0.0000000000000259
210
0.0
220
1.0
230
-0.0000000000000002
  0
ARC
  5
11DD
  8
0
  6
VERDECKT
 62
     1
 10
11.2528456513144093
 20
136.466007480131708
 30
0.0
 40
10.0000000000005809
210
0.0
220
-0.0000000000000002
230
-1.0
 50
145.6988472432088031
 51
179.9999999999990052
  0
ARC
  5
11DE
  8
0
  6
VERDECKT
 62
     1
 10
-106.7471543486869052
 20
136.4660074801315943
 30
0.0
 40
10.0000000000006803
210
0.0
220
-0.0000000000000002
230
-1.0
 50
0.0000000000014631
 51
34.3011527567911614
  0
ARC
  5
11DF
  8
0
  6
VERDECKT
 62
     1
 10
-7.7471543486860996
 20
149.4274888769475069
 30
0.0
 40
12.9999999999999396
210
0.0
220
-0.0000000000000002
230
-1.0
 50
325.698847243209002
 51
0.0000000000001272
  0
ARC
  5
11E0
  8
0
  6
VERDECKT
 62
     1
 10
-87.7471543486862515
 20
149.4274888769475069
 30
0.0
 40
12.9999999999999698
210
0.0
220
-0.0000000000000002
230
-1.0
 50
180.0
 51
214.3011527567911116
  0
LINE
  5
11E1
  8
0
  6
VERDECKT
 62
     1
 10
100.7471543486861947
 20
167.9997994693185035
 30
-0.0000000000000373
 11
100.7471543486861947
 21
149.4274888769475069
 31
-0.0000000000000332
210
0.0
220
1.0
230
-0.0000000000000002
  0
LINE
  5
11E2
  8
0
  6
VERDECKT
 62
     1
 10
-5.2528456513138329
 20
167.9997994693185035
 30
-0.0000000000000373
 11
-5.2528456513138329
 21
149.4274888769475069
 31
-0.0000000000000332
210
0.0
220
1.0
230
-0.0000000000000002
  0
ARC
  5
11E3
  8
0
  6
VERDECKT
 62
     1
 10
19.2528456513127715
 20
167.9997994693185888
 30
0.0
 40
13.9999999999989306
210
0.0
220
-0.0000000000000002
230
-1.0
 50
153.1119523822756889
 51
180.0000000000007105
  0
ARC
  5
11E4
  8
0
  6
VERDECKT
 62
     1
 10
-114.747154348685001
 20
167.9997994693187024
 30
0.0
 40
13.9999999999987494
210
0.0
220
-0.0000000000000002
230
-1.0
 50
359.9999999999988063
 51
26.8880476177243111
  0
ARC
  5
11E5
  8
0
  6
VERDECKT
 62
     1
 10
-13.7471543486866192
 20
184.7330000000000041
 30
0.0
 40
23.0000000000004583
210
0.0
220
-0.0000000000000002
230
-1.0
 50
333.1119523822757742
 51
359.9999999999997158
  0
ARC
  5
11E6
  8
0
  6
VERDECKT
 62
     1
 10
-81.7471543486858252
 20
184.7330000000000041
 30
0.0
 40
23.0000000000004015
210
0.0
220
-0.0000000000000002
230
-1.0
 50
180.000000000000199
 51
206.8880476177243111
  0
LINE
  5
11E7
  8
0
  6
VERDECKT
 62
     1
 10
104.7471543486861947
 20
199.8952485374288983
 30
-0.0000000000000444
 11
104.7471543486861947
 21
184.7329999999998904
 31
-0.000000000000041
210
0.0
220
1.0
230
-0.0000000000000002
  0
LINE
  5
11E8
  8
0
  6
VERDECKT
 62
     1
 10
-9.2528456513138337
 20
199.8952485374288983
 30
-0.0000000000000444
 11
-9.2528456513138337
 21
184.7329999999998904
 31
-0.000000000000041
210
0.0
220
1.0
230
-0.0000000000000002
  0
ARC
  5
11E9
  8
0
  6
VERDECKT
 62
     1
 10
-13.7471543486867898
 20
199.8952485374288131
 30
0.0
 40
23.0000000000006217
210
0.0
220
-0.0000000000000002
230
-1.0
 50
0.0000000000003562
 51
24.9999999999999289
  0
ARC
  5
11EA
  8
0
  6
VERDECKT
 62
     1
 10
-81.7471543486858536
 20
199.8952485374288983
 30
0.0
 40
23.0000000000003801
210
0.0
220
-0.0000000000000002
230
-1.0
 50
154.9999999999998863
 51
179.999999999999801
  0
LINE
  5
11EB
  8
0
  6
VERDECKT
 62
     1
 10
101.6412946125379051
 20
211.6547634765186956
 30
-0.000000000000047
 11
102.5922334505290934
 21
209.6154685574651921
 31
-0.0000000000000465
210
0.0
220
1.0
230
-0.0000000000000002
  0
LINE
  5
11EC
  8
0
  6
VERDECKT
 62
     1
 10
-6.1469859151655131
 20
211.6547634765186956
 30
-0.000000000000047
 11
-7.0979247531567493
 21
209.6154685574651921
 31
-0.0000000000000465
210
0.0
220
1.0
230
-0.0000000000000002
  0
LINE
  5
11ED
  8
0
  6
VERDECKT
 62
     1
 10
-6.1469859151655184
 20
211.6547634765186956
 30
-0.000000000000047
 11
-7.959601489238846
 21
212.5
 31
-0.0000000000000472
210
0.0
220
1.0
230
-0.0000000000000002
  0
LINE
  5
11EE
  8
0
  6
VERDECKT
 62
     1
 10
101.6412946125379051
 20
211.6547634765186956
 30
-0.000000000000047
 11
103.4539101866111963
 21
212.5
 31
-0.0000000000000472
210
0.0
220
1.0
230
-0.0000000000000002
  0
LINE
  5
11EF
  8
0
  6
VERDECKT
 62
     1
 10
-96.4888819446589139
 20
-12.2472483460317996
 30
0.0000000000000027
 11
95.983190642031289
 21
-12.2472483460317996
 31
0.0000000000000027
210
0.0
220
1.0
230
-0.0000000000000002
  0
LINE
  5
11F0
  8
0
  6
VERDECKT
 62
     1
 10
95.983190642031289
 20
-12.2472483460318102
 30
0.0000000000000027
 11
98.8721552664973586
 21
-12.5000000000000107
 31
0.0000000000000028
210
0.0
220
1.0
230
-0.0000000000000002
  0
LINE
  5
11F1
  8
0
  6
VERDECKT
 62
     1
 10
-96.4888819446589139
 20
-12.2472483460318102
 30
0.0000000000000027
 11
-99.3778465691249835
 21
-12.5000000000000107
 31
0.0000000000000028
210
0.0
220
1.0
230
-0.0000000000000002
  0
LINE
  5
11F2
  8
0
  6
VERDECKT
 62
     1
 10
-96.4888819446589139
 20
-12.2472483460317996
 30
0.0000000000000027
 11
-97.2767396131487061
 21
-3.2419939880619499
 31
0.0000000000000007
210
0.0
220
1.0
230
-0.0000000000000002
  0
LINE
  5
11F3
  8
0
  6
VERDECKT
 62
     1
 10
95.983190642031289
 20
-12.2472483460317996
 30
0.0000000000000027
 11
96.7710483105210955
 21
-3.2419939880619499
 31
0.0000000000000007
210
0.0
220
1.0
230
-0.0000000000000002
  0
ARC
  5
11F4
  8
0
  6
VERDECKT
 62
     1
 10
77.3528456513075611
 20
-1.498879133108465
 30
0.0
 40
20.0000000000062386
210
0.0
220
-0.0000000000000002
230
-1.0
 50
355.0000000000006253
 51
359.9999999999992042
  0
ARC
  5
11F5
  8
0
  6
VERDECKT
 62
     1
 10
-76.8471543486799362
 20
-1.4988791331084661
 30
0.0
 40
20.0000000000062492
210
0.0
220
-0.0000000000000002
230
-1.0
 50
180.0000000000007958
 51
184.9999999999992895
  0
LINE
  5
11F6
  8
0
  6
VERDECKT
 62
     1
 10
96.847154348686189
 20
112.5
 30
-0.000000000000025
 11
96.847154348686189
 21
-1.4988791331087721
 31
0.0000000000000003
210
0.0
220
1.0
230
-0.0000000000000002
  0
LINE
  5
11F7
  8
0
  6
VERDECKT
 62
     1
 10
-97.3528456513137854
 20
112.5
 30
-0.000000000000025
 11
-97.3528456513137854
 21
-1.4988791331087721
 31
0.0000000000000003
210
0.0
220
1.0
230
-0.0000000000000002
  0
ENDBLK
  5
11F9
  8
0
  0
BLOCK
  8
0
  2
A$C7F1F7B43
 70
     0
 10
0.0
 20
0.0
 30
0.0
  3
A$C7F1F7B43
  1

  0
LINE
  5
11FD
  8
0
 10
11.7204051341214193
 20
112.5
 30
-0.000000000000025
 11
211.7204051341215063
 21
112.5000000000000995
 31
-0.000000000000025
210
-0.0000000000000002
220
1.0
230
-0.0000000000000002
  0
LINE
  5
11FE
  8
0
 10
211.7204051341215063
 20
116.5000000000000995
 30
-0.0000000000000259
 11
11.7204051341214193
 21
116.5
 31
-0.0000000000000259
210
-0.0000000000000002
220
1.0
230
-0.0000000000000002
  0
LINE
  5
11FF
  8
0
 10
11.7204051341214193
 20
112.5
 30
-0.000000000000025
 11
11.7204051341214193
 21
116.5
 31
-0.0000000000000259
210
-0.0000000000000002
220
1.0
230
-0.0000000000000002
  0
LINE
  5
1200
  8
0
 10
211.7204051341215063
 20
112.5000000000000995
 30
-0.000000000000025
 11
211.7204051341215063
 21
116.5000000000000995
 31
-0.0000000000000259
210
-0.0000000000000002
220
1.0
230
-0.0000000000000002
  0
LINE
  5
1201
  8
0
 10
56.0136492961963768
 20
212.5000000000001137
 30
-0.0000000000000472
 11
111.7204051341214068
 21
212.5000000000001137
 31
-0.0000000000000472
210
-0.0000000000000002
220
1.0
230
-0.0000000000000002
  0
LINE
  5
1202
  8
0
 10
111.7204051341214068
 20
212.5000000000001137
 30
-0.0000000000000472
 11
167.4271609720464085
 21
212.5000000000001137
 31
-0.0000000000000472
210
-0.0000000000000002
220
1.0
230
-0.0000000000000002
  0
LINE
  5
1203
  8
0
 10
167.4271609720464085
 20
212.5000000000001137
 30
-0.0000000000000472
 11
168.3780998100378099
 21
210.4607050809460986
 31
-0.0000000000000467
210
-0.0000000000000002
220
1.0
230
-0.0000000000000002
  0
LINE
  5
1204
  8
0
 10
56.0136492961963697
 20
212.5000000000001137
 30
-0.0000000000000472
 11
55.0627104582049967
 21
210.4607050809460986
 31
-0.0000000000000467
210
-0.0000000000000002
220
1.0
230
-0.0000000000000002
  0
ARC
  5
1205
  8
0
 10
-77.7204051341216626
 20
199.895248537429012
 30
0.0
 40
25.0000000000002487
210
0.0
220
-0.0000000000000002
230
-1.0
 50
0.0
 51
24.9999999999988702
  0
ARC
  5
1206
  8
0
 10
-145.7204051341211084
 20
199.8952485374288983
 30
0.0
 40
25.0000000000002984
210
0.0
220
-0.0000000000000002
230
-1.0
 50
155.0000000000009948
 51
179.9999999999998863
  0
LINE
  5
1207
  8
0
 10
170.7204051341213926
 20
199.895248537429012
 30
-0.0000000000000444
 11
170.7204051341213926
 21
184.7332005306815859
 31
-0.000000000000041
210
-0.0000000000000002
220
1.0
230
-0.0000000000000002
  0
LINE
  5
1208
  8
0
 10
52.7204051341213997
 20
199.895248537429012
 30
-0.0000000000000444
 11
52.7204051341213997
 21
184.7332005306815859
 31
-0.000000000000041
210
-0.0000000000000002
220
1.0
230
-0.0000000000000002
  0
ARC
  5
1209
  8
0
 10
-77.7204051341157083
 20
184.7332005306801932
 30
0.0
 40
24.9999999999943086
210
0.0
220
-0.0000000000000002
230
-1.0
 50
333.1119523822737278
 51
0.0000000000031169
  0
ARC
  5
120A
  8
0
 10
-145.7204051341267075
 20
184.7332005306803069
 30
0.0
 40
24.9999999999947207
210
0.0
220
-0.0000000000000002
230
-1.0
 50
179.999999999997101
 51
206.8880476177259879
  0
ARC
  5
120B
  8
0
 10
-44.7204051341213784
 20
168.0000000000001137
 30
0.0
 40
12.0000000000000409
210
0.0
220
-0.0000000000000002
230
-1.0
 50
153.1119523822740121
 51
180.0
  0
ARC
  5
120C
  8
0
 10
-178.7204051341211084
 20
168.0000000000001137
 30
0.0
 40
11.9999999999996607
210
0.0
220
-0.0000000000000002
230
-1.0
 50
359.9999999999997158
 51
26.8880476177266807
  0
LINE
  5
120D
  8
0
 10
166.7204051341213926
 20
168.0
 30
-0.0000000000000373
 11
166.7204051341213926
 21
149.4274888769475922
 31
-0.0000000000000332
210
-0.0000000000000002
220
1.0
230
-0.0000000000000002
  0
LINE
  5
120E
  8
0
 10
56.720405134121421
 20
168.0
 30
-0.0000000000000373
 11
56.720405134121421
 21
149.4274888769475069
 31
-0.0000000000000332
210
-0.0000000000000002
220
1.0
230
-0.0000000000000002
  0
ARC
  5
120F
  8
0
 10
-71.7204051341212647
 20
149.4274888769475069
 30
0.0
 40
14.9999999999998792
210
0.0
220
-0.0000000000000002
230
-1.0
 50
325.6988472432083199
 51
0.0
  0
ARC
  5
1210
  8
0
 10
-151.7204051341213926
 20
149.4274888769475922
 30
0.0
 40
15.0000000000000604
210
0.0
220
-0.0000000000000002
230
-1.0
 50
180.0000000000001137
 51
214.3011527567915948
  0
ARC
  5
1211
  8
0
 10
-52.7204051341214708
 20
136.4660074801317933
 30
0.0
 40
7.9999999999999378
210
0.0
220
-0.0000000000000002
230
-1.0
 50
145.6988472432082915
 51
179.9999999999996874
  0
ARC
  5
1212
  8
0
 10
-170.7204051341213074
 20
136.466007480131907
 30
0.0
 40
7.9999999999998019
210
0.0
220
-0.0000000000000002
230
-1.0
 50
0.0
 51
34.3011527567920211
  0
LINE
  5
1213
  8
0
 10
162.7204051341213926
 20
136.466007480131907
 30
-0.0000000000000303
 11
162.7204051341213926
 21
116.5000000000000995
 31
-0.0000000000000259
210
-0.0000000000000002
220
1.0
230
-0.0000000000000002
  0
LINE
  5
1214
  8
0
 10
60.7204051341213997
 20
136.4660074801317933
 30
-0.0000000000000303
 11
60.7204051341213997
 21
116.5
 31
-0.0000000000000259
210
-0.0000000000000002
220
1.0
230
-0.0000000000000002
  0
LINE
  5
1215
  8
0
 10
12.5954042163103193
 20
-12.5000000000000107
 30
0.0000000000000028
 11
111.7204051341214068
 21
-12.4999999999999805
 31
0.0000000000000028
210
-0.0000000000000002
220
1.0
230
-0.0000000000000002
  0
LINE
  5
1216
  8
0
 10
111.7204051341215063
 20
-12.4999999999999805
 30
0.0000000000000028
 11
210.8454060519327129
 21
-12.4999999999999503
 31
0.0000000000000028
210
-0.0000000000000002
220
1.0
230
-0.0000000000000002
  0
LINE
  5
1217
  8
0
 10
11.7204051341214193
 20
112.5
 30
-0.000000000000025
 11
111.7204051341214068
 21
112.5000000000000995
 31
-0.000000000000025
210
-0.0000000000000002
220
1.0
230
-0.0000000000000002
  0
LINE
  5
1218
  8
0
 10
111.7204051341214068
 20
112.5000000000000995
 30
-0.000000000000025
 11
211.7204051341215063
 21
112.5000000000000995
 31
-0.000000000000025
210
-0.0000000000000002
220
1.0
230
-0.0000000000000002
  0
ARC
  5
1219
  8
0
 10
-34.6204051341185988
 20
-1.4988791331085729
 30
0.0
 40
22.8999999999971493
210
0.0
220
-0.0000000000000002
230
-1.0
 50
354.9999999999990905
 51
359.9999999999997726
  0
ARC
  5
121A
  8
0
 10
-188.820405134124286
 20
-1.4988791331085281
 30
0.0
 40
22.8999999999971706
210
0.0
220
-0.0000000000000002
230
-1.0
 50
180.0
 51
185.0000000000007105
  0
LINE
  5
121B
  8
0
 10
12.5954042163102997
 20
-12.5000000000000107
 30
0.0000000000000028
 11
11.8075465478205004
 21
-3.4947456420300131
 31
0.0000000000000008
210
-0.0000000000000002
220
1.0
230
-0.0000000000000002
  0
LINE
  5
121C
  8
0
 10
210.8454060519327129
 20
-12.4999999999999503
 30
0.0000000000000028
 11
211.6332637204224909
 21
-3.4947456420299599
 31
0.0000000000000008
210
-0.0000000000000002
220
1.0
230
-0.0000000000000002
  0
LINE
  5
121D
  8
0
 10
211.7204051341215063
 20
112.5000000000000995
 30
-0.000000000000025
 11
211.7204051341215063
 21
-1.4988791331085549
 31
0.0000000000000003
210
-0.0000000000000002
220
1.0
230
-0.0000000000000002
  0
LINE
  5
121E
  8
0
 10
11.7204051341214193
 20
112.5
 30
-0.000000000000025
 11
11.7204051341214495
 21
-1.4988791331086
 31
0.0000000000000003
210
-0.0000000000000002
220
1.0
230
-0.0000000000000002
  0
LINE
  5
121F
  8
0
  6
VERDECKT
 62
     1
 10
62.7204051341214281
 20
112.5
 30
-0.000000000000025
 11
62.7204051341214281
 21
116.5
 31
-0.0000000000000259
210
-0.0000000000000002
220
1.0
230
-0.0000000000000002
  0
LINE
  5
1220
  8
0
  6
VERDECKT
 62
     1
 10
160.7204051341213926
 20
112.5000000000000995
 30
-0.000000000000025
 11
160.7204051341213926
 21
116.5000000000000995
 31
-0.0000000000000259
210
-0.0000000000000002
220
1.0
230
-0.0000000000000002
  0
LINE
  5
1221
  8
0
  6
VERDECKT
 62
     1
 10
57.8262648702697035
 20
211.6547634765186956
 30
-0.000000000000047
 11
111.7204051341214068
 21
211.6547634765186956
 31
-0.000000000000047
210
-0.0000000000000002
220
1.0
230
-0.0000000000000002
  0
LINE
  5
1222
  8
0
  6
VERDECKT
 62
     1
 10
111.7204051341214068
 20
211.6547634765186956
 30
-0.000000000000047
 11
165.614545397973103
 21
211.6547634765186956
 31
-0.000000000000047
210
-0.0000000000000002
220
1.0
230
-0.0000000000000002
  0
LINE
  5
1223
  8
0
  6
VERDECKT
 62
     1
 10
160.7204051341215063
 20
136.466007480131907
 30
-0.0000000000000303
 11
160.7204051341215063
 21
116.5000000000000995
 31
-0.0000000000000259
210
-0.0000000000000002
220
1.0
230
-0.0000000000000002
  0
LINE
  5
1224
  8
0
  6
VERDECKT
 62
     1
 10
62.7204051341213997
 20
136.4660074801317933
 30
-0.0000000000000303
 11
62.7204051341213997
 21
116.5
 31
-0.0000000000000259
210
-0.0000000000000002
220
1.0
230
-0.0000000000000002
  0
ARC
  5
1225
  8
0
  6
VERDECKT
 62
     1
 10
-52.7204051341206466
 20
136.4660074801315943
 30
0.0
 40
10.0000000000007496
210
0.0
220
-0.0000000000000002
230
-1.0
 50
145.698847243209002
 51
179.9999999999984936
  0
ARC
  5
1226
  8
0
  6
VERDECKT
 62
     1
 10
-170.7204051341221032
 20
136.466007480131708
 30
0.0
 40
10.0000000000006803
210
0.0
220
-0.0000000000000002
230
-1.0
 50
0.0000000000014503
 51
34.3011527567911401
  0
ARC
  5
1227
  8
0
  6
VERDECKT
 62
     1
 10
-71.7204051341213642
 20
149.4274888769475922
 30
0.0
 40
12.9999999999999591
210
0.0
220
-0.0000000000000002
230
-1.0
 50
325.698847243209002
 51
0.0000000000001145
  0
ARC
  5
1228
  8
0
  6
VERDECKT
 62
     1
 10
-151.7204051341211937
 20
149.4274888769477059
 30
0.0
 40
13.0000000000002593
210
0.0
220
-0.0000000000000002
230
-1.0
 50
180.0000000000003126
 51
214.3011527567906001
  0
LINE
  5
1229
  8
0
  6
VERDECKT
 62
     1
 10
164.7204051341213926
 20
167.9997994693185888
 30
-0.0000000000000373
 11
164.7204051341213926
 21
149.4274888769475922
 31
-0.0000000000000332
210
-0.0000000000000002
220
1.0
230
-0.0000000000000002
  0
LINE
  5
122A
  8
0
  6
VERDECKT
 62
     1
 10
58.7204051341213997
 20
167.9997994693185035
 30
-0.0000000000000373
 11
58.7204051341213997
 21
149.4274888769475069
 31
-0.0000000000000332
210
-0.0000000000000002
220
1.0
230
-0.0000000000000002
  0
ARC
  5
122B
  8
0
  6
VERDECKT
 62
     1
 10
-44.7204051341223803
 20
167.9997994693187024
 30
0.0
 40
13.9999999999989999
210
0.0
220
-0.0000000000000002
230
-1.0
 50
153.1119523822756037
 51
180.0000000000005969
  0
ARC
  5
122C
  8
0
  6
VERDECKT
 62
     1
 10
-178.7204051341209095
 20
167.9997994693185888
 30
0.0
 40
13.9999999999994902
210
0.0
220
-0.0000000000000002
230
-1.0
 50
359.9999999999997158
 51
26.8880476177237995
  0
ARC
  5
122D
  8
0
  6
VERDECKT
 62
     1
 10
-77.7204051341217905
 20
184.7330000000000894
 30
0.0
 40
23.0000000000004086
210
0.0
220
-0.0000000000000002
230
-1.0
 50
333.1119523822757174
 51
359.9999999999997158
  0
ARC
  5
122E
  8
0
  6
VERDECKT
 62
     1
 10
-145.7204051341205968
 20
184.733000000000203
 30
0.0
 40
23.0000000000008917
210
0.0
220
-0.0000000000000002
230
-1.0
 50
180.0000000000005116
 51
206.8880476177239132
  0
LINE
  5
122F
  8
0
  6
VERDECKT
 62
     1
 10
168.7204051341213926
 20
199.895248537429012
 30
-0.0000000000000444
 11
168.7204051341215063
 21
184.7330000000000041
 31
-0.000000000000041
210
-0.0000000000000002
220
1.0
230
-0.0000000000000002
  0
LINE
  5
1230
  8
0
  6
VERDECKT
 62
     1
 10
54.7204051341213926
 20
199.8952485374288983
 30
-0.0000000000000444
 11
54.7204051341213926
 21
184.7329999999998904
 31
-0.000000000000041
210
-0.0000000000000002
220
1.0
230
-0.0000000000000002
  0
ARC
  5
1231
  8
0
  6
VERDECKT
 62
     1
 10
-77.7204051341223305
 20
199.8952485374288131
 30
0.0
 40
23.0000000000009415
210
0.0
220
-0.0000000000000002
230
-1.0
 50
0.0000000000004198
 51
24.9999999999997087
  0
ARC
  5
1232
  8
0
  6
VERDECKT
 62
     1
 10
-145.7204051341207958
 20
199.8952485374288131
 30
0.0
 40
23.0000000000006786
210
0.0
220
-0.0000000000000002
230
-1.0
 50
154.9999999999998863
 51
179.9999999999994884
  0
LINE
  5
1233
  8
0
  6
VERDECKT
 62
     1
 10
165.614545397973103
 20
211.6547634765186956
 30
-0.000000000000047
 11
166.5654842359643908
 21
209.6154685574651921
 31
-0.0000000000000465
210
-0.0000000000000002
220
1.0
230
-0.0000000000000002
  0
LINE
  5
1234
  8
0
  6
VERDECKT
 62
     1
 10
57.8262648702697035
 20
211.6547634765186956
 30
-0.000000000000047
 11
56.8753260322784726
 21
209.6154685574651921
 31
-0.0000000000000465
210
-0.0000000000000002
220
1.0
230
-0.0000000000000002
  0
LINE
  5
1235
  8
0
  6
VERDECKT
 62
     1
 10
57.8262648702697035
 20
211.6547634765186956
 30
-0.000000000000047
 11
56.0136492961963697
 21
212.5000000000001137
 31
-0.0000000000000472
210
-0.0000000000000002
220
1.0
230
-0.0000000000000002
  0
LINE
  5
1236
  8
0
  6
VERDECKT
 62
     1
 10
165.614545397973103
 20
211.6547634765186956
 30
-0.000000000000047
 11
167.4271609720464085
 21
212.5000000000001137
 31
-0.0000000000000472
210
-0.0000000000000002
220
1.0
230
-0.0000000000000002
  0
LINE
  5
1237
  8
0
  6
VERDECKT
 62
     1
 10
15.4843688407763693
 20
-12.2472483460317996
 30
0.0000000000000027
 11
111.7204051341214068
 21
-12.24724834603178
 31
0.0000000000000027
210
-0.0000000000000002
220
1.0
230
-0.0000000000000002
  0
LINE
  5
1238
  8
0
  6
VERDECKT
 62
     1
 10
111.7204051341215063
 20
-12.24724834603178
 30
0.0000000000000027
 11
207.9564414274665864
 21
-12.2472483460317498
 31
0.0000000000000027
210
-0.0000000000000002
220
1.0
230
-0.0000000000000002
  0
LINE
  5
1239
  8
0
  6
VERDECKT
 62
     1
 10
207.9564414274665864
 20
-12.2472483460317694
 30
0.0000000000000027
 11
210.8454060519327129
 21
-12.4999999999999698
 31
0.0000000000000028
210
-0.0000000000000002
220
1.0
230
-0.0000000000000002
  0
LINE
  5
123A
  8
0
  6
VERDECKT
 62
     1
 10
15.4843688407763604
 20
-12.2472483460318209
 30
0.0000000000000027
 11
12.5954042163103104
 21
-12.5000000000000195
 31
0.0000000000000028
210
-0.0000000000000002
220
1.0
230
-0.0000000000000002
  0
LINE
  5
123B
  8
0
  6
VERDECKT
 62
     1
 10
15.4843688407763693
 20
-12.2472483460317996
 30
0.0000000000000027
 11
14.69651117228657
 21
-3.2419939880619508
 31
0.0000000000000007
210
-0.0000000000000002
220
1.0
230
-0.0000000000000002
  0
LINE
  5
123C
  8
0
  6
VERDECKT
 62
     1
 10
207.9564414274665864
 20
-12.2472483460317498
 30
0.0000000000000027
 11
208.7442990959563929
 21
-3.2419939880618989
 31
0.0000000000000007
210
-0.0000000000000002
220
1.0
230
-0.0000000000000002
  0
ARC
  5
123D
  8
0
  6
VERDECKT
 62
     1
 10
-34.6204051341257397
 20
-1.4988791331085889
 30
0.0
 40
20.000000000004281
210
0.0
220
-0.0000000000000002
230
-1.0
 50
355.0000000000005116
 51
359.9999999999993747
  0
ARC
  5
123E
  8
0
  6
VERDECKT
 62
     1
 10
-188.8204051341078866
 20
-1.4988791331082589
 30
0.0
 40
20.0000000000135607
210
0.0
220
-0.0000000000000002
230
-1.0
 50
180.0000000000013074
 51
184.9999999999978968
  0
LINE
  5
123F
  8
0
  6
VERDECKT
 62
     1
 10
208.8204051341215006
 20
112.5000000000000995
 30
-0.000000000000025
 11
208.8204051341215006
 21
-1.4988791331087259
 31
0.0000000000000003
210
-0.0000000000000002
220
1.0
230
-0.0000000000000002
  0
LINE
  5
1240
  8
0
  6
VERDECKT
 62
     1
 10
14.6204051341214303
 20
112.5
 30
-0.000000000000025
 11
14.6204051341214605
 21
-1.498879133108769
 31
0.0000000000000003
210
-0.0000000000000002
220
1.0
230
-0.0000000000000002
  0
ENDBLK
  5
1242
  8
0
  0
ENDSEC
  0
SECTION
  2
ENTITIES
  0
TEXT
  5
8F
  8
VOLL
 10
78.076754716981128
 20
31.025947764705851
 30
0.0
 40
1.8
  1

  7
GREEKS
  0
INSERT
  5
A31
  8
ADSK_ASSOC_ENTITY_BACKUPS
  2
*S2
 10
0.0
 20
0.0
 30
0.0
  0
INSERT
  5
11B6
  8
STEMPEL
  2
A$C29B3665C
 10
264.4066170176146215
 20
-188.5601364414910108
 30
-55.6136783486677118
  0
INSERT
  5
11FA
  8
STEMPEL
  2
A$C42DAE319
 10
264.4066170176146215
 20
-111.6027685672588063
 30
-55.6136783486676904
  0
INSERT
  5
1243
  8
STEMPEL
  2
A$C7F1F7B43
 10
493.1707462244370959
 20
-111.6027685672589058
 30
-55.6136783486676904
  0
VIEWPORT
  5
928
 67
     1
  8
0
 10
82.2504099827600044
 20
164.6091008305571108
 30
0.0
 40
821.5131554712799016
 41
460.1791606182704868
 68
     1
 69
     1
1001
ACAD
1000
MVIEW
1002
{
1070
    16
1010
0.0
1020
0.0
1030
0.0
1010
0.0
1020
0.0
1030
1.0
1040
0.0
1040
460.1791606182704868
1040
82.2504099827600044
1040
164.6091008305571108
1040
50.0
1040
0.0
1040
0.0
1070
     0
1070
  1500
1070
     1
1070
     1
1070
     0
1070
     0
1070
     0
1070
     0
1040
0.0
1040
0.0
1040
0.0
1040
10.0
1040
10.0
1040
10.0
1040
10.0
1070
     0
1002
{
1002
}
1002
}
  0
ENDSEC
  0
EOF
