  0
SECTION
  2
HEADER
  9
$ACADVER
  1
AC1009
  9
$INSBASE
 10
0.0
 20
0.0
 30
0.0
  9
$EXTMIN
 10
-287.5086203543569923
 20
-225.0249919896305073
 30
-8.0050350162259747
  9
$EXTMAX
 10
69.2348105905516604
 20
157.006715265343189
 30
0.0012514221030528
  9
$LIMMIN
 10
0.0
 20
0.0
  9
$LIMMAX
 10
419.9999999999998863
 20
594.0
  9
$ORTHOMODE
 70
     1
  9
$REGENMODE
 70
     1
  9
$FILLMODE
 70
     1
  9
$QTEXTMODE
 70
     0
  9
$MIRRTEXT
 70
     1
  9
$DRAGMODE
 70
     2
  9
$LTSCALE
 40
20.0
  9
$OSMODE
 70
  2559
  9
$ATTMODE
 70
     1
  9
$TEXTSIZE
 40
3.5
  9
$TRACEWID
 40
0.5
  9
$TEXTSTYLE
  7
STANDARD
  9
$CLAYER
  8
STEMPEL
  9
$CELTYPE
  6
BYLAYER
  9
$CECOLOR
 62
   256
  9
$DIMSCALE
 40
2.0
  9
$DIMASZ
 40
3.5
  9
$DIMEXO
 40
1.0
  9
$DIMDLI
 40
7.0
  9
$DIMRND
 40
0.0
  9
$DIMDLE
 40
0.0
  9
$DIMEXE
 40
1.0
  9
$DIMTP
 40
0.3
  9
$DIMTM
 40
0.8
  9
$DIMTXT
 40
3.5
  9
$DIMCEN
 40
1.5
  9
$DIMTSZ
 40
0.0
  9
$DIMTOL
 70
     1
  9
$DIMLIM
 70
     0
  9
$DIMTIH
 70
     0
  9
$DIMTOH
 70
     0
  9
$DIMSE1
 70
     0
  9
$DIMSE2
 70
     0
  9
$DIMTAD
 70
     1
  9
$DIMZIN
 70
     8
  9
$DIMBLK
  1

  9
$DIMASO
 70
     1
  9
$DIMSHO
 70
     0
  9
$DIMPOST
  1

  9
$DIMAPOST
  1

  9
$DIMALT
 70
     0
  9
$DIMALTD
 70
     2
  9
$DIMALTF
 40
25.3999999999999986
  9
$DIMLFAC
 40
1.0
  9
$DIMTOFL
 70
     1
  9
$DIMTVP
 40
0.0
  9
$DIMTIX
 70
     0
  9
$DIMSOXD
 70
     0
  9
$DIMSAH
 70
     0
  9
$DIMBLK1
  1

  9
$DIMBLK2
  1

  9
$DIMSTYLE
  2
STANDARD
  9
$DIMCLRD
 70
     0
  9
$DIMCLRE
 70
     0
  9
$DIMCLRT
 70
     1
  9
$DIMTFAC
 40
0.5
  9
$DIMGAP
 40
1.5
  9
$LUNITS
 70
     2
  9
$LUPREC
 70
     2
  9
$SKETCHINC
 40
1.0
  9
$FILLETRAD
 40
0.0
  9
$AUNITS
 70
     0
  9
$AUPREC
 70
     0
  9
$MENU
  1
ACAD
  9
$ELEVATION
 40
0.0
  9
$PELEVATION
 40
0.0
  9
$THICKNESS
 40
0.0
  9
$LIMCHECK
 70
     0
  9
$BLIPMODE
 70
     0
  9
$CHAMFERA
 40
0.0
  9
$CHAMFERB
 40
0.0
  9
$SKPOLY
 70
     0
  9
$TDCREATE
 40
2455397.8646990740671754
  9
$TDUPDATE
 40
2458376.3986342591233552
  9
$TDINDWG
 40
0.1157075579
  9
$TDUSRTIMER
 40
0.1157075579
  9
$USRTIMER
 70
     1
  9
$ANGBASE
 50
0.0
  9
$ANGDIR
 70
     0
  9
$PDMODE
 70
     0
  9
$PDSIZE
 40
0.0
  9
$PLINEWID
 40
0.0
  9
$COORDS
 70
     1
  9
$SPLFRAME
 70
     0
  9
$SPLINETYPE
 70
     6
  9
$SPLINESEGS
 70
     8
  9
$ATTDIA
 70
     1
  9
$ATTREQ
 70
     1
  9
$HANDLING
 70
     1
  9
$HANDSEED
  5
E2B
  9
$SURFTAB1
 70
     6
  9
$SURFTAB2
 70
     6
  9
$SURFTYPE
 70
     6
  9
$SURFU
 70
     6
  9
$SURFV
 70
     6
  9
$UCSNAME
  2

  9
$UCSORG
 10
0.0
 20
0.0
 30
0.0
  9
$UCSXDIR
 10
1.0
 20
0.0
 30
0.0
  9
$UCSYDIR
 10
0.0
 20
1.0
 30
0.0
  9
$PUCSNAME
  2

  9
$PUCSORG
 10
0.0
 20
0.0
 30
0.0
  9
$PUCSXDIR
 10
1.0
 20
0.0
 30
0.0
  9
$PUCSYDIR
 10
0.0
 20
1.0
 30
0.0
  9
$USERI1
 70
     0
  9
$USERI2
 70
     0
  9
$USERI3
 70
     0
  9
$USERI4
 70
     0
  9
$USERI5
 70
     0
  9
$USERR1
 40
0.0
  9
$USERR2
 40
0.0
  9
$USERR3
 40
0.0
  9
$USERR4
 40
0.0
  9
$USERR5
 40
0.0
  9
$WORLDVIEW
 70
     1
  9
$SHADEDGE
 70
     3
  9
$SHADEDIF
 70
    70
  9
$TILEMODE
 70
     1
  9
$MAXACTVP
 70
    16
  9
$PLIMCHECK
 70
     0
  9
$PEXTMIN
 10
-0.1810925694742735
 20
-0.1970287749604154
 30
-0.0000000349181948
  9
$PEXTMAX
 10
17.6000717433382512
 20
24.9047768892203898
 30
0.0000000814935746
  9
$PLIMMIN
 10
-0.2500002402958907
 20
-0.2499999962453767
  9
$PLIMMAX
 10
10.7499995194082203
 20
8.2499997634587334
  9
$UNITMODE
 70
     0
  9
$VISRETAIN
 70
     0
  9
$PLINEGEN
 70
     0
  9
$PSLTSCALE
 70
     0
  0
ENDSEC
  0
SECTION
  2
TABLES
  0
TABLE
  2
VPORT
 70
     1
  0
VPORT
  2
*ACTIVE
 70
     0
 10
0.0
 20
0.0
 11
1.0
 21
1.0
 12
-111.4369048819025068
 22
-0.0111982986670682
 13
0.0
 23
0.0
 14
1.0
 24
1.0
 15
10.0
 25
10.0
 16
0.0000000000002487
 26
0.0
 36
1120.8040934777029634
 17
2.299999999999947
 27
-33.9979400634765767
 37
74.5000000000000568
 40
383.9791925935717245
 41
1.868197278911564
 42
50.0
 43
0.0
 44
0.0
 50
0.0
 51
0.0
 71
     0
 72
  1500
 73
     1
 74
     0
 75
     0
 76
     0
 77
     0
 78
     0
  0
ENDTAB
  0
TABLE
  2
LTYPE
 70
     3
  0
LTYPE
  2
CONTINUOUS
 70
     0
  3
Solid line
 72
    65
 73
     0
 40
0.0
  0
LTYPE
  2
VERDECKT
 70
     0
  3
_ _ _ _ _ _ _ _ _ _ _ _ _ _ _ _ _ _ _ _ _ _ _
 72
    65
 73
     2
 40
0.375
 49
0.25
 49
-0.125
  0
ENDTAB
  0
TABLE
  2
LAYER
 70
    10
  0
LAYER
  2
0
 70
     0
 62
     7
  6
CONTINUOUS
  0
LAYER
  2
VOLL
 70
     0
 62
     1
  6
CONTINUOUS
  0
LAYER
  2
STEMPEL
 70
     0
 62
     3
  6
CONTINUOUS
  0
LAYER
  2
TEXT
 70
     0
 62
     7
  6
CONTINUOUS
  0
LAYER
  2
DEFPOINTS
 70
     0
 62
     7
  6
CONTINUOUS
  0
ENDTAB
  0
TABLE
  2
STYLE
 70
     2
  0
STYLE
  2
STANDARD
 70
     0
 40
0.0
 41
0.8
 50
0.0
 71
     0
 42
3.5
  3
simplex.shx
  4

  0
STYLE
  2
GREEKS
 70
     0
 40
0.0
 41
0.8
 50
0.0
 71
     0
 42
2.5
  3
SIMPLEX.shx
  4

  0
ENDTAB
  0
TABLE
  2
VIEW
 70
     1
  0
ENDTAB
  0
TABLE
  2
UCS
 70
     0
  0
ENDTAB
  0
TABLE
  2
APPID
 70
    13
  0
APPID
  2
ACAD
 70
     0
  0
APPID
  2
ACAD_NAV_VCDISPLAY
 70
     0
  0
APPID
  2
ACAD_PSEXT
 70
     0
  0
APPID
  2
ACAD_EXEMPT_FROM_CAD_STANDARDS
 70
     0
  0
APPID
  2
ACAD_MLEADERVER
 70
     0
  0
APPID
  2
ACAD_DSTYLE_DIMRADIAL_EXTENSION
 70
     0
  0
APPID
  2
GRADIENTCOLOR1ACI
 70
     0
  0
APPID
  2
GRADIENTCOLOR2ACI
 70
     0
  0
APPID
  2
ACAECLAYERSTANDARD
 70
     0
  0
APPID
  2
ACCMTRANSPARENCY
 70
     0
  0
APPID
  2
ACAD_STEPID
 70
     0
  0
APPID
  2
ACAD_ASSOCPERSSUBENTMANAGER
 70
     0
  0
APPID
  2
ACAD_OBJECT_CHANGE_GUID
 70
     0
  0
ENDTAB
  0
TABLE
  2
DIMSTYLE
 70
     1
  0
DIMSTYLE
  2
STANDARD
 70
     0
  3

  4

  5

  6

  7

 40
1.0
 41
0.18
 42
0.0625
 43
0.38
 44
0.18
 45
0.0
 46
0.0
 47
0.0
 48
0.0
140
0.18
141
0.09
142
0.0
143
25.3999999999999986
144
1.0
145
0.0
146
1.0
147
0.09
 71
     0
 72
     0
 73
     1
 74
     1
 75
     0
 76
     0
 77
     0
 78
     0
170
     0
171
     2
172
     0
173
     0
174
     0
175
     0
176
     0
177
     0
178
     0
  0
ENDTAB
  0
ENDSEC
  0
SECTION
  2
BLOCKS
  0
BLOCK
  8
0
  2
$MODEL_SPACE
 70
     0
 10
0.0
 20
0.0
 30
0.0
  3
$MODEL_SPACE
  1

  0
ENDBLK
  5
36
  8
0
  0
BLOCK
 67
     1
  8
0
  2
$PAPER_SPACE
 70
     0
 10
0.0
 20
0.0
 30
0.0
  3
$PAPER_SPACE
  1

  0
ENDBLK
  5
34
 67
     1
  8
0
  0
BLOCK
  8
0
  2
A$C6B334DBA
 70
     0
 10
0.0
 20
0.0
 30
0.0
  3
A$C6B334DBA
  1

  0
LINE
  5
D55
  8
0
  6
CONTINUOUS
 62
     3
 10
-62.4999999999999929
 20
88.0000000000000853
 30
-0.0000000000000195
 11
62.5000000000000071
 21
88.0000000000000568
 31
-0.0000000000000195
210
0.0000000000000002
220
1.0
230
-0.0000000000000002
  0
LINE
  5
D56
  8
0
  6
CONTINUOUS
 62
     3
 10
62.5000000000000284
 20
92.0000000000000568
 30
-0.0000000000000204
 11
-62.4999999999999716
 21
92.0000000000000853
 31
-0.0000000000000204
210
0.0000000000000002
220
1.0
230
-0.0000000000000002
  0
LINE
  5
D57
  8
0
  6
CONTINUOUS
 62
     3
 10
-62.4999999999999787
 20
88.0000000000000853
 30
-0.0000000000000195
 11
-62.4999999999999787
 21
92.0000000000000853
 31
-0.0000000000000204
210
0.0000000000000002
220
1.0
230
-0.0000000000000002
  0
LINE
  5
D58
  8
0
  6
CONTINUOUS
 62
     3
 10
62.5000000000000213
 20
88.0000000000000568
 30
-0.0000000000000195
 11
62.5000000000000213
 21
92.0000000000000568
 31
-0.0000000000000204
210
0.0000000000000002
220
1.0
230
-0.0000000000000002
  0
LINE
  5
D59
  8
0
  6
CONTINUOUS
 62
     3
 10
-62.4999999999999787
 20
88.0000000000000853
 30
-0.0000000000000195
 11
62.5000000000000213
 21
88.0000000000000568
 31
-0.0000000000000195
210
0.0000000000000002
220
1.0
230
-0.0000000000000002
  0
LINE
  5
D5A
  8
0
  6
CONTINUOUS
 62
     3
 10
-61.8000906917925406
 20
0.0000000000000137
 30
0.0
 11
61.8000906917925406
 21
-0.0000000000000137
 31
0.0
210
0.0000000000000002
220
1.0
230
-0.0000000000000002
  0
LINE
  5
D5B
  8
0
  6
CONTINUOUS
 62
     3
 10
62.5000000000000213
 20
88.0000000000000568
 30
-0.0000000000000195
 11
62.5
 21
8.0000000000000444
 31
-0.0000000000000018
210
0.0000000000000002
220
1.0
230
-0.0000000000000002
  0
LINE
  5
D5C
  8
0
  6
CONTINUOUS
 62
     3
 10
-62.4999999999999787
 20
88.0000000000000853
 30
-0.0000000000000195
 11
-62.5
 21
8.0000000000000728
 31
-0.0000000000000018
210
0.0000000000000002
220
1.0
230
-0.0000000000000002
  0
LINE
  5
D5D
  8
0
  6
CONTINUOUS
 62
     3
 10
-61.8000906917925477
 20
0.0000000000000137
 30
0.0
 11
-62.5
 21
8.0000000000000728
 31
-0.0000000000000018
210
0.0000000000000002
220
1.0
230
-0.0000000000000002
  0
LINE
  5
D5E
  8
0
  6
CONTINUOUS
 62
     3
 10
61.8000906917925477
 20
-0.0000000000000137
 30
0.0
 11
62.5
 21
8.0000000000000444
 31
-0.0000000000000018
210
0.0000000000000002
220
1.0
230
-0.0000000000000002
  0
LINE
  5
D5F
  8
0
  6
CONTINUOUS
 62
     3
 10
-14.7653973282767392
 20
156.9999999999969873
 30
-0.0000000000000349
 11
64.765397328276805
 21
156.9999999999969873
 31
-0.0000000000000349
210
0.0000000000000002
220
1.0
230
-0.0000000000000002
  0
ARC
  5
D60
  8
0
  6
CONTINUOUS
 62
     3
 10
-7.900000000002497
 20
146.4510775928812052
 30
0.0
 40
25.0000000000023803
210
0.0
220
-0.0000000000000002
230
-1.0
 50
0.0000000000007379
 51
24.9581963123057911
  0
ARC
  5
D61
  8
0
  6
CONTINUOUS
 62
     3
 10
-42.0999999999974079
 20
146.4510775928810915
 30
0.0
 40
25.0000000000025402
210
0.0
220
-0.0000000000000002
230
-1.0
 50
155.041803687694312
 51
179.9999999999992042
  0
LINE
  5
D62
  8
0
  6
CONTINUOUS
 62
     3
 10
67.0999999999999233
 20
146.4510775928814894
 30
-0.0000000000000325
 11
67.0999999999999233
 21
141.631719951778706
 31
-0.0000000000000314
210
0.0000000000000002
220
1.0
230
-0.0000000000000002
  0
LINE
  5
D63
  8
0
  6
CONTINUOUS
 62
     3
 10
-17.09999999999987
 20
146.4510775928814894
 30
-0.0000000000000325
 11
-17.09999999999987
 21
141.631719951778706
 31
-0.0000000000000314
210
0.0000000000000002
220
1.0
230
-0.0000000000000002
  0
ARC
  5
D64
  8
0
  6
CONTINUOUS
 62
     3
 10
-7.8999999999967931
 20
141.6999999999999034
 30
0.0
 40
25.0000932431225102
210
0.0
220
-0.0000000000000002
230
-1.0
 50
338.8168456069635113
 51
359.8435140455786154
  0
ARC
  5
D65
  8
0
  6
CONTINUOUS
 62
     3
 10
-42.1000000000033481
 20
141.6999999999999034
 30
0.0
 40
25.0000932431224214
210
0.0
220
-0.0000000000000002
230
-1.0
 50
180.1564859544212993
 51
201.1831543930364887
  0
ARC
  5
D66
  8
0
  6
CONTINUOUS
 62
     3
 10
26.6000000000009109
 20
128.3300000000002115
 30
0.0
 40
12.0000000000010303
210
0.0
220
-0.0000000000000002
230
-1.0
 50
158.8168456069635113
 51
180.0000000000001137
  0
ARC
  5
D67
  8
0
  6
CONTINUOUS
 62
     3
 10
-76.6000000000011312
 20
128.3300000000000978
 30
0.0
 40
12.0000000000011902
210
0.0
220
-0.0000000000000002
230
-1.0
 50
0.0000000000001527
 51
21.1831543930364603
  0
LINE
  5
D68
  8
0
  6
CONTINUOUS
 62
     3
 10
64.5999999999999233
 20
128.3300000000000978
 30
-0.0000000000000285
 11
64.5999999999999233
 21
107.3887264174171037
 31
-0.0000000000000238
210
0.0000000000000002
220
1.0
230
-0.0000000000000002
  0
LINE
  5
D69
  8
0
  6
CONTINUOUS
 62
     3
 10
-14.5999999999998806
 20
128.3300000000002115
 30
-0.0000000000000285
 11
-14.5999999999998806
 21
107.3887264174172032
 31
-0.0000000000000238
210
0.0000000000000002
220
1.0
230
-0.0000000000000002
  0
ARC
  5
D6A
  8
0
  6
CONTINUOUS
 62
     3
 10
2.599999999996685
 20
107.3887264174178995
 30
0.0
 40
12.0000000000031903
210
0.0
220
-0.0000000000000002
230
-1.0
 50
327.6719358778407809
 51
359.9999999999964189
  0
ARC
  5
D6B
  8
0
  6
CONTINUOUS
 62
     3
 10
-52.5999999999967116
 20
107.3887264174178995
 30
0.0
 40
12.0000000000032099
210
0.0
220
-0.0000000000000002
230
-1.0
 50
180.0000000000034959
 51
212.3280641221589917
  0
ARC
  5
D6C
  8
0
  6
CONTINUOUS
 62
     3
 10
19.4999999999983906
 20
96.6934003354320737
 30
0.0
 40
7.9999999999984128
210
0.0
220
-0.0000000000000002
230
-1.0
 50
147.6719358778375124
 51
180.0000000000036096
  0
ARC
  5
D6D
  8
0
  6
CONTINUOUS
 62
     3
 10
-69.4999999999984794
 20
96.6934003354320453
 30
0.0
 40
7.999999999998451
210
0.0
220
-0.0000000000000002
230
-1.0
 50
359.9999999999964189
 51
32.3280641221624307
  0
LINE
  5
D6E
  8
0
  6
CONTINUOUS
 62
     3
 10
61.5000000000000213
 20
96.6934003354315479
 30
-0.0000000000000215
 11
61.5000000000000213
 21
92.0000000000000568
 31
-0.0000000000000204
210
0.0000000000000002
220
1.0
230
-0.0000000000000002
  0
LINE
  5
D6F
  8
0
  6
CONTINUOUS
 62
     3
 10
-11.4999999999999805
 20
96.6934003354315763
 30
-0.0000000000000215
 11
-11.4999999999999805
 21
92.0000000000000853
 31
-0.0000000000000204
210
0.0000000000000002
220
1.0
230
-0.0000000000000002
  0
LINE
  5
D70
  8
0
  6
VERDECKT
 62
     1
 10
-10.4999999999999805
 20
88.0000000000000711
 30
-0.0000000000000195
 11
-10.4999999999999805
 21
92.0000000000000853
 31
-0.0000000000000204
210
0.0000000000000002
220
1.0
230
-0.0000000000000002
  0
LINE
  5
D71
  8
0
  6
VERDECKT
 62
     1
 10
60.5000000000000213
 20
88.0000000000000568
 30
-0.0000000000000195
 11
60.5000000000000213
 21
92.0000000000000568
 31
-0.0000000000000204
210
0.0000000000000002
220
1.0
230
-0.0000000000000002
  0
LINE
  5
D72
  8
0
  6
VERDECKT
 62
     1
 10
-59.2905410979342307
 20
0.0000000000000132
 30
0.0
 11
-60.0
 21
8.1091523572714124
 31
-0.0000000000000018
210
0.0000000000000002
220
1.0
230
-0.0000000000000002
  0
LINE
  5
D73
  8
0
  6
VERDECKT
 62
     1
 10
59.2905410979342307
 20
-0.0000000000000132
 30
0.0
 11
60.0
 21
8.1091523572713875
 31
-0.0000000000000018
210
0.0000000000000002
220
1.0
230
-0.0000000000000002
  0
LINE
  5
D74
  8
0
  6
VERDECKT
 62
     1
 10
60.0000000000000213
 20
88.0000000000000568
 30
-0.0000000000000195
 11
60.0
 21
8.1091523572713875
 31
-0.0000000000000018
210
0.0000000000000002
220
1.0
230
-0.0000000000000002
  0
LINE
  5
D75
  8
0
  6
VERDECKT
 62
     1
 10
-59.9999999999999787
 20
88.0000000000000853
 30
-0.0000000000000195
 11
-60.0
 21
8.1091523572714124
 31
-0.0000000000000018
210
0.0000000000000002
220
1.0
230
-0.0000000000000002
  0
LINE
  5
D76
  8
0
  6
VERDECKT
 62
     1
 10
59.9000000000001123
 20
96.6934003354315479
 30
-0.0000000000000215
 11
59.9000000000001123
 21
92.0000000000000568
 31
-0.0000000000000204
210
0.0000000000000002
220
1.0
230
-0.0000000000000002
  0
LINE
  5
D77
  8
0
  6
VERDECKT
 62
     1
 10
-9.9000000000000696
 20
96.6934003354315763
 30
-0.0000000000000215
 11
-9.9000000000000714
 21
92.0000000000000853
 31
-0.0000000000000204
210
0.0000000000000002
220
1.0
230
-0.0000000000000002
  0
ARC
  5
D78
  8
0
  6
VERDECKT
 62
     1
 10
21.0855417096115687
 20
96.2153415226824364
 30
0.0
 40
11.1957529253688701
210
0.0
220
-0.0000000000000002
230
-1.0
 50
148.8899649235818003
 51
177.5527253144936992
  0
ARC
  5
D79
  8
0
  6
VERDECKT
 62
     1
 10
-71.0855417096116753
 20
96.2153415226823938
 30
0.0
 40
11.1957529253689305
210
0.0
220
-0.0000000000000002
230
-1.0
 50
2.4472746855064238
 51
31.1100350764182387
  0
ARC
  5
D7A
  8
0
  6
VERDECKT
 62
     1
 10
2.5705425327461962
 20
107.3887264174163931
 30
0.0
 40
10.4294574672537692
210
0.0
220
-0.0000000000000002
230
-1.0
 50
328.8899649235739844
 51
0.0000000000040711
  0
ARC
  5
D7B
  8
0
  6
VERDECKT
 62
     1
 10
-52.5705425327462592
 20
107.3887264174163931
 30
0.0
 40
10.4294574672537603
210
0.0
220
-0.0000000000000002
230
-1.0
 50
179.9999999999959073
 51
211.1100350764259872
  0
LINE
  5
D7C
  8
0
  6
VERDECKT
 62
     1
 10
63.0000000000000284
 20
128.3300000000002115
 30
-0.0000000000000285
 11
63.0000000000000213
 21
107.3887264174171037
 31
-0.0000000000000238
210
0.0000000000000002
220
1.0
230
-0.0000000000000002
  0
LINE
  5
D7D
  8
0
  6
VERDECKT
 62
     1
 10
-12.9999999999999698
 20
128.3300000000002115
 30
-0.0000000000000285
 11
-12.9999999999999805
 21
107.3887264174172032
 31
-0.0000000000000238
210
0.0000000000000002
220
1.0
230
-0.0000000000000002
  0
ARC
  5
D7E
  8
0
  6
VERDECKT
 62
     1
 10
26.808466641439491
 20
128.2910182466962112
 30
0.0
 40
13.8085216647126607
210
0.0
220
-0.0000000000000002
230
-1.0
 50
158.9785930382404047
 51
179.838252568725693
  0
ARC
  5
D7F
  8
0
  6
VERDECKT
 62
     1
 10
-76.8084666414394945
 20
128.2910182466962112
 30
0.0
 40
13.8085216647126003
210
0.0
220
-0.0000000000000002
230
-1.0
 50
0.1617474312742098
 51
21.0214069617596202
  0
ARC
  5
D80
  8
0
  6
VERDECKT
 62
     1
 10
-8.2560510658307411
 20
141.7660589659228947
 30
0.0
 40
23.7560510658307109
210
0.0
220
-0.0000000000000002
230
-1.0
 50
338.9785930382374772
 51
359.9999999999993747
  0
ARC
  5
D81
  8
0
  6
VERDECKT
 62
     1
 10
-41.743948934169012
 20
141.7660589659228947
 30
0.0
 40
23.75605106583102
210
0.0
220
-0.0000000000000002
230
-1.0
 50
180.0000000000007105
 51
201.0214069617624091
  0
LINE
  5
D82
  8
0
  6
VERDECKT
 62
     1
 10
65.5000000000000284
 20
146.4510775928814894
 30
-0.0000000000000325
 11
65.5000000000000284
 21
141.7660589659226105
 31
-0.0000000000000315
210
0.0000000000000002
220
1.0
230
-0.0000000000000002
  0
LINE
  5
D83
  8
0
  6
VERDECKT
 62
     1
 10
-15.4999999999999698
 20
146.4510775928814894
 30
-0.0000000000000325
 11
-15.4999999999999698
 21
141.7660589659226105
 31
-0.0000000000000315
210
0.0000000000000002
220
1.0
230
-0.0000000000000002
  0
ARC
  5
D84
  8
0
  6
VERDECKT
 62
     1
 10
-7.9000000000288901
 20
146.4510775928746966
 30
0.0
 40
23.4000000000288502
210
0.0
220
-0.0000000000000002
230
-1.0
 50
0.0000000000165134
 51
24.9999999999854516
  0
ARC
  5
D85
  8
0
  6
VERDECKT
 62
     1
 10
-42.0999999999713168
 20
146.4510775928748103
 30
0.0
 40
23.4000000000287116
210
0.0
220
-0.0000000000000002
230
-1.0
 50
155.0000000000144098
 51
179.999999999983487
  0
LINE
  5
D86
  8
0
  6
VERDECKT
 62
     1
 10
63.0000000000000426
 20
157.000000000000199
 30
-0.0000000000000349
 11
63.3076022166574504
 21
156.3403449176138906
 31
-0.0000000000000347
210
0.0000000000000002
220
1.0
230
-0.0000000000000002
  0
LINE
  5
D87
  8
0
  6
VERDECKT
 62
     1
 10
-12.9999999999999591
 20
157.000000000000199
 30
-0.0000000000000349
 11
-13.3076022166573793
 21
156.3403449176138906
 31
-0.0000000000000347
210
0.0000000000000002
220
1.0
230
-0.0000000000000002
  0
ENDBLK
  5
D89
  8
0
  0
BLOCK
  8
0
  2
A$C41D06A57
 70
     0
 10
0.0
 20
0.0
 30
0.0
  3
A$C41D06A57
  1

  0
ARC
  5
D8D
  8
0
  6
CONTINUOUS
 62
     3
 10
0.0000000000000182
 20
-0.0000000000000084
 30
0.0
 40
62.5
 50
28.0144944045656317
 51
331.9855055954345175
  0
ARC
  5
D8E
  8
0
  6
CONTINUOUS
 62
     3
 10
0.0000000000002274
 20
0.0000000000000394
 30
0.0
 40
59.2905410979340104
 50
350.3245394786786733
 51
9.6754605213212788
  0
CIRCLE
  5
D8F
  8
0
  6
CONTINUOUS
 62
     3
 10
25.0000000000000213
 20
0.0000000000000249
 30
0.0
 40
34.9000000000000909
  0
CIRCLE
  5
D90
  8
0
  6
CONTINUOUS
 62
     3
 10
25.0000000000000284
 20
0.0000000000000286
 30
0.0
 40
38.0
  0
CIRCLE
  5
D91
  8
0
  6
CONTINUOUS
 62
     3
 10
25.0000000000000284
 20
0.0000000000000286
 30
0.0
 40
39.7653973282767765
  0
CIRCLE
  5
D92
  8
0
  6
CONTINUOUS
 62
     3
 10
25.0000000000000284
 20
0.000000000000028
 30
0.0
 40
42.0999999999999091
  0
CIRCLE
  5
D93
  8
0
  6
VERDECKT
 62
     1
 10
25.0000000000000213
 20
0.0000000000000005
 30
0.0
 40
35.5
  0
ARC
  5
D94
  8
0
  6
VERDECKT
 62
     1
 10
-0.0000000000000364
 20
-0.0000000000000137
 30
0.0
 40
62.5000000000000568
 50
0.0
 51
28.0144944045655997
  0
ARC
  5
D95
  8
0
  6
VERDECKT
 62
     1
 10
-0.0000000000000719
 20
0.0000000000000218
 30
0.0
 40
62.5000000000000924
 50
331.9855055954345175
 51
0.0
  0
ARC
  5
D96
  8
0
  6
VERDECKT
 62
     1
 10
0.0
 20
-0.0000000000000165
 30
0.0
 40
59.2905410979342307
 50
9.6754605213212788
 51
179.9999999999998863
  0
ARC
  5
D97
  8
0
  6
VERDECKT
 62
     1
 10
0.0
 20
0.0000000000000474
 30
0.0
 40
59.2905410979342307
 50
180.0
 51
350.3245394786786733
  0
CIRCLE
  5
D98
  8
0
  6
VERDECKT
 62
     1
 10
0.0000000000000195
 20
0.0000000000000244
 30
0.0
 40
60.0
  0
CIRCLE
  5
D99
  8
0
  6
VERDECKT
 62
     1
 10
0.0
 20
0.000000000000019
 30
0.0
 40
61.8000906917925477
  0
CIRCLE
  5
D9A
  8
0
  6
VERDECKT
 62
     1
 10
25.0000000000000284
 20
0.000000000000028
 30
0.0
 40
40.4999999999999929
  0
CIRCLE
  5
D9B
  8
0
  6
VERDECKT
 62
     1
 10
25.0000000000000284
 20
0.0000000000000269
 30
0.0
 40
39.5999999999999091
  0
CIRCLE
  5
D9C
  8
0
  6
VERDECKT
 62
     1
 10
25.0000000000000213
 20
0.0000000000000249
 30
0.0
 40
36.5
  0
ENDBLK
  5
D9E
  8
0
  0
BLOCK
  8
0
  2
A$C5F8758E2
 70
     0
 10
0.0
 20
0.0
 30
0.0
  3
A$C5F8758E2
  1

  0
LINE
  5
DA2
  8
0
  6
CONTINUOUS
 62
     3
 10
-62.4999999999999574
 20
88.0000000000000853
 30
-0.0000000000000195
 11
0.0000000000000195
 21
88.0000000000000711
 31
-0.0000000000000195
210
0.0000000000000002
220
1.0
230
-0.0000000000000002
  0
LINE
  5
DA3
  8
0
  6
CONTINUOUS
 62
     3
 10
0.000000000000034
 20
88.0000000000000711
 30
-0.0000000000000195
 11
62.5000000000000071
 21
88.0000000000000426
 31
-0.0000000000000195
210
0.0000000000000002
220
1.0
230
-0.0000000000000002
  0
LINE
  5
DA4
  8
0
  6
CONTINUOUS
 62
     3
 10
62.5000000000000213
 20
92.0000000000000426
 30
-0.0000000000000204
 11
0.0000000000000204
 21
92.0000000000000853
 31
-0.0000000000000204
210
0.0000000000000002
220
1.0
230
-0.0000000000000002
  0
LINE
  5
DA5
  8
0
  6
CONTINUOUS
 62
     3
 10
0.0000000000000059
 20
92.0000000000000853
 30
-0.0000000000000204
 11
-62.4999999999999716
 21
92.0000000000000853
 31
-0.0000000000000204
210
0.0000000000000002
220
1.0
230
-0.0000000000000002
  0
LINE
  5
DA6
  8
0
  6
CONTINUOUS
 62
     3
 10
-62.4999999999999787
 20
88.0000000000000853
 30
-0.0000000000000195
 11
-62.4999999999999787
 21
92.0000000000000853
 31
-0.0000000000000204
210
0.0000000000000002
220
1.0
230
-0.0000000000000002
  0
LINE
  5
DA7
  8
0
  6
CONTINUOUS
 62
     3
 10
62.5000000000000213
 20
88.0000000000000426
 30
-0.0000000000000195
 11
62.5000000000000213
 21
92.0000000000000426
 31
-0.0000000000000204
210
0.0000000000000002
220
1.0
230
-0.0000000000000002
  0
LINE
  5
DA8
  8
0
  6
CONTINUOUS
 62
     3
 10
-62.4999999999999574
 20
88.0000000000000853
 30
-0.0000000000000195
 11
62.5000000000000426
 21
88.0000000000000568
 31
-0.0000000000000195
210
0.0000000000000002
220
1.0
230
-0.0000000000000002
  0
LINE
  5
DA9
  8
0
  6
CONTINUOUS
 62
     3
 10
-61.8000906917925192
 20
0.0000000000000175
 30
0.0
 11
61.8000906917925619
 21
-0.0000000000000175
 31
0.0
210
0.0000000000000002
220
1.0
230
-0.0000000000000002
  0
LINE
  5
DAA
  8
0
  6
CONTINUOUS
 62
     3
 10
62.5000000000000426
 20
88.0000000000000568
 30
-0.0000000000000195
 11
62.5000000000000213
 21
8.0000000000000444
 31
-0.0000000000000018
210
0.0000000000000002
220
1.0
230
-0.0000000000000002
  0
LINE
  5
DAB
  8
0
  6
CONTINUOUS
 62
     3
 10
-62.4999999999999574
 20
88.0000000000000853
 30
-0.0000000000000195
 11
-62.4999999999999787
 21
8.0000000000000728
 31
-0.0000000000000018
210
0.0000000000000002
220
1.0
230
-0.0000000000000002
  0
LINE
  5
DAC
  8
0
  6
CONTINUOUS
 62
     3
 10
-61.8000906917925192
 20
0.0000000000000182
 30
0.0
 11
-62.4999999999999787
 21
8.0000000000000764
 31
-0.0000000000000018
210
0.0000000000000002
220
1.0
230
-0.0000000000000002
  0
LINE
  5
DAD
  8
0
  6
CONTINUOUS
 62
     3
 10
61.800090691792569
 20
-0.0000000000000177
 30
0.0
 11
62.5000000000000213
 21
8.0000000000000409
 31
-0.0000000000000018
210
0.0000000000000002
220
1.0
230
-0.0000000000000002
  0
LINE
  5
DAE
  8
0
  6
CONTINUOUS
 62
     3
 10
-39.7653973282766415
 20
156.9999999999969873
 30
-0.0000000000000349
 11
0.0000000000000633
 21
156.9999999999969873
 31
-0.0000000000000349
210
0.0000000000000002
220
1.0
230
-0.0000000000000002
  0
LINE
  5
DAF
  8
0
  6
CONTINUOUS
 62
     3
 10
0.0000000000000726
 20
156.9999999999969873
 30
-0.0000000000000349
 11
39.7653973282768405
 21
156.9999999999969873
 31
-0.0000000000000349
210
0.0000000000000002
220
1.0
230
-0.0000000000000002
  0
ARC
  5
DB0
  8
0
  6
CONTINUOUS
 62
     3
 10
17.0999999999974683
 20
146.4510775928812052
 30
0.0
 40
25.0000000000023803
210
0.0
220
-0.0000000000000002
230
-1.0
 50
0.0000000000007379
 51
24.9581963123057911
  0
ARC
  5
DB1
  8
0
  6
CONTINUOUS
 62
     3
 10
-17.0999999999975891
 20
146.4510775928812052
 30
0.0
 40
25.0000000000023803
210
0.0
220
-0.0000000000000002
230
-1.0
 50
155.0418036876941983
 51
179.9999999999992895
  0
LINE
  5
DB2
  8
0
  6
CONTINUOUS
 62
     3
 10
42.099999999999973
 20
146.4510775928814894
 30
-0.0000000000000325
 11
42.0999999999999588
 21
141.631719951778706
 31
-0.0000000000000314
210
0.0000000000000002
220
1.0
230
-0.0000000000000002
  0
LINE
  5
DB3
  8
0
  6
CONTINUOUS
 62
     3
 10
-42.099999999999838
 20
146.4510775928814894
 30
-0.0000000000000325
 11
-42.0999999999998522
 21
141.631719951778706
 31
-0.0000000000000314
210
0.0000000000000002
220
1.0
230
-0.0000000000000002
  0
ARC
  5
DB4
  8
0
  6
CONTINUOUS
 62
     3
 10
17.1000000000032699
 20
141.6999999999999034
 30
0.0
 40
25.0000932431224108
210
0.0
220
-0.0000000000000002
230
-1.0
 50
338.8168456069635113
 51
359.8435140455786723
  0
ARC
  5
DB5
  8
0
  6
CONTINUOUS
 62
     3
 10
-17.1000000000031918
 20
141.6999999999999886
 30
0.0
 40
25.000093243122631
210
0.0
220
-0.0000000000000002
230
-1.0
 50
180.156485954421413
 51
201.1831543930364887
  0
ARC
  5
DB6
  8
0
  6
CONTINUOUS
 62
     3
 10
51.6000000000008328
 20
128.3300000000002115
 30
0.0
 40
12.0000000000009805
210
0.0
220
-0.0000000000000002
230
-1.0
 50
158.8168456069633976
 51
180.0000000000001137
  0
ARC
  5
DB7
  8
0
  6
CONTINUOUS
 62
     3
 10
-51.6000000000009535
 20
128.3300000000002115
 30
0.0
 40
12.0000000000009805
210
0.0
220
-0.0000000000000002
230
-1.0
 50
359.9999999999998863
 51
21.1831543930365704
  0
LINE
  5
DB8
  8
0
  6
CONTINUOUS
 62
     3
 10
39.599999999999973
 20
128.3300000000002115
 30
-0.0000000000000285
 11
39.5999999999999588
 21
107.3887264174171037
 31
-0.0000000000000238
210
0.0000000000000002
220
1.0
230
-0.0000000000000002
  0
LINE
  5
DB9
  8
0
  6
CONTINUOUS
 62
     3
 10
-39.5999999999998522
 20
128.3300000000002115
 30
-0.0000000000000285
 11
-39.5999999999998593
 21
107.3887264174172032
 31
-0.0000000000000238
210
0.0000000000000002
220
1.0
230
-0.0000000000000002
  0
ARC
  5
DBA
  8
0
  6
CONTINUOUS
 62
     3
 10
27.5999999999966299
 20
107.3887264174178995
 30
0.0
 40
12.0000000000032099
210
0.0
220
-0.0000000000000002
230
-1.0
 50
327.6719358778408946
 51
359.9999999999964189
  0
ARC
  5
DBB
  8
0
  6
CONTINUOUS
 62
     3
 10
-27.59999999999674
 20
107.3887264174178995
 30
0.0
 40
12.0000000000032099
210
0.0
220
-0.0000000000000002
230
-1.0
 50
180.0000000000034959
 51
212.3280641221589917
  0
ARC
  5
DBC
  8
0
  6
CONTINUOUS
 62
     3
 10
44.4999999999984084
 20
96.6934003354320737
 30
0.0
 40
7.9999999999984626
210
0.0
220
-0.0000000000000002
230
-1.0
 50
147.6719358778375977
 51
180.0000000000034959
  0
ARC
  5
DBD
  8
0
  6
CONTINUOUS
 62
     3
 10
-44.4999999999985008
 20
96.6934003354320453
 30
0.0
 40
7.999999999998459
210
0.0
220
-0.0000000000000002
230
-1.0
 50
359.9999999999964189
 51
32.3280641221624094
  0
LINE
  5
DBE
  8
0
  6
CONTINUOUS
 62
     3
 10
36.5000000000000426
 20
96.6934003354315479
 30
-0.0000000000000215
 11
36.5000000000000426
 21
92.0000000000000568
 31
-0.0000000000000204
210
0.0000000000000002
220
1.0
230
-0.0000000000000002
  0
LINE
  5
DBF
  8
0
  6
CONTINUOUS
 62
     3
 10
-36.4999999999999574
 20
96.6934003354315763
 30
-0.0000000000000215
 11
-36.4999999999999574
 21
92.0000000000000853
 31
-0.0000000000000204
210
0.0000000000000002
220
1.0
230
-0.0000000000000002
  0
LINE
  5
DC0
  8
0
  6
VERDECKT
 62
     1
 10
-35.4999999999999787
 20
88.0000000000000853
 30
-0.0000000000000195
 11
-35.4999999999999787
 21
92.0000000000000853
 31
-0.0000000000000204
210
0.0000000000000002
220
1.0
230
-0.0000000000000002
  0
LINE
  5
DC1
  8
0
  6
VERDECKT
 62
     1
 10
35.5000000000000213
 20
88.0000000000000426
 30
-0.0000000000000195
 11
35.5000000000000213
 21
92.0000000000000426
 31
-0.0000000000000204
210
0.0000000000000002
220
1.0
230
-0.0000000000000002
  0
LINE
  5
DC2
  8
0
  6
VERDECKT
 62
     1
 10
-59.2905410979342165
 20
0.0000000000000167
 30
0.0
 11
-59.9999999999999787
 21
8.1091523572714141
 31
-0.0000000000000018
210
0.0000000000000002
220
1.0
230
-0.0000000000000002
  0
LINE
  5
DC3
  8
0
  6
VERDECKT
 62
     1
 10
59.2905410979342591
 20
-0.0000000000000167
 30
0.0
 11
60.0000000000000213
 21
8.1091523572713822
 31
-0.0000000000000018
210
0.0000000000000002
220
1.0
230
-0.0000000000000002
  0
LINE
  5
DC4
  8
0
  6
VERDECKT
 62
     1
 10
60.0000000000000426
 20
88.0000000000000568
 30
-0.0000000000000195
 11
60.0000000000000213
 21
8.1091523572713857
 31
-0.0000000000000018
210
0.0000000000000002
220
1.0
230
-0.0000000000000002
  0
LINE
  5
DC5
  8
0
  6
VERDECKT
 62
     1
 10
-59.9999999999999574
 20
88.0000000000000853
 30
-0.0000000000000195
 11
-59.9999999999999787
 21
8.1091523572714124
 31
-0.0000000000000018
210
0.0000000000000002
220
1.0
230
-0.0000000000000002
  0
LINE
  5
DC6
  8
0
  6
VERDECKT
 62
     1
 10
34.9000000000001265
 20
96.6934003354315479
 30
-0.0000000000000215
 11
34.9000000000001265
 21
92.0000000000000568
 31
-0.0000000000000204
210
0.0000000000000002
220
1.0
230
-0.0000000000000002
  0
LINE
  5
DC7
  8
0
  6
VERDECKT
 62
     1
 10
-34.9000000000000483
 20
96.6934003354315763
 30
-0.0000000000000215
 11
-34.9000000000000483
 21
92.0000000000000853
 31
-0.0000000000000204
210
0.0000000000000002
220
1.0
230
-0.0000000000000002
  0
ARC
  5
DC8
  8
0
  6
VERDECKT
 62
     1
 10
46.0855417096115971
 20
96.2153415226824222
 30
0.0
 40
11.1957529253689394
210
0.0
220
-0.0000000000000002
230
-1.0
 50
148.8899649235818003
 51
177.552725314493614
  0
ARC
  5
DC9
  8
0
  6
VERDECKT
 62
     1
 10
-46.0855417096116966
 20
96.2153415226823938
 30
0.0
 40
11.1957529253689394
210
0.0
220
-0.0000000000000002
230
-1.0
 50
2.4472746855064109
 51
31.1100350764182103
  0
ARC
  5
DCA
  8
0
  6
VERDECKT
 62
     1
 10
27.5705425327462805
 20
107.3887264174163931
 30
0.0
 40
10.4294574672536609
210
0.0
220
-0.0000000000000002
230
-1.0
 50
328.8899649235739844
 51
0.0000000000043128
  0
ARC
  5
DCB
  8
0
  6
VERDECKT
 62
     1
 10
-27.5705425327462912
 20
107.3887264174163931
 30
0.0
 40
10.4294574672537603
210
0.0
220
-0.0000000000000002
230
-1.0
 50
179.9999999999959073
 51
211.1100350764259872
  0
LINE
  5
DCC
  8
0
  6
VERDECKT
 62
     1
 10
38.0000000000000568
 20
128.3300000000002115
 30
-0.0000000000000285
 11
38.0000000000000497
 21
107.3887264174171037
 31
-0.0000000000000238
210
0.0000000000000002
220
1.0
230
-0.0000000000000002
  0
LINE
  5
DCD
  8
0
  6
VERDECKT
 62
     1
 10
-37.9999999999999432
 20
128.3300000000002115
 30
-0.0000000000000285
 11
-37.9999999999999503
 21
107.3887264174172032
 31
-0.0000000000000238
210
0.0000000000000002
220
1.0
230
-0.0000000000000002
  0
ARC
  5
DCE
  8
0
  6
VERDECKT
 62
     1
 10
51.8084666414392032
 20
128.2910182466962965
 30
0.0
 40
13.8085216647123801
210
0.0
220
-0.0000000000000002
230
-1.0
 50
158.978593038240291
 51
179.8382525687260056
  0
ARC
  5
DCF
  8
0
  6
VERDECKT
 62
     1
 10
-51.808466641439523
 20
128.2910182466962965
 30
0.0
 40
13.8085216647126003
210
0.0
220
-0.0000000000000002
230
-1.0
 50
0.1617474312742098
 51
21.0214069617596309
  0
ARC
  5
DD0
  8
0
  6
VERDECKT
 62
     1
 10
16.7439489341689303
 20
141.7660589659228947
 30
0.0
 40
23.75605106583102
210
0.0
220
-0.0000000000000002
230
-1.0
 50
338.9785930382377046
 51
359.9999999999993179
  0
ARC
  5
DD1
  8
0
  6
VERDECKT
 62
     1
 10
-16.7439489341690404
 20
141.7660589659228947
 30
0.0
 40
23.75605106583102
210
0.0
220
-0.0000000000000002
230
-1.0
 50
180.0000000000007105
 51
201.0214069617624091
  0
LINE
  5
DD2
  8
0
  6
VERDECKT
 62
     1
 10
40.5000000000000568
 20
146.4510775928814894
 30
-0.0000000000000325
 11
40.5000000000000568
 21
141.7660589659226105
 31
-0.0000000000000315
210
0.0000000000000002
220
1.0
230
-0.0000000000000002
  0
LINE
  5
DD3
  8
0
  6
VERDECKT
 62
     1
 10
-40.4999999999999289
 20
146.4510775928814894
 30
-0.0000000000000325
 11
-40.4999999999999432
 21
141.7660589659226105
 31
-0.0000000000000315
210
0.0000000000000002
220
1.0
230
-0.0000000000000002
  0
ARC
  5
DD4
  8
0
  6
VERDECKT
 62
     1
 10
17.0999999999710788
 20
146.4510775928746966
 30
0.0
 40
23.4000000000288502
210
0.0
220
-0.0000000000000002
230
-1.0
 50
0.0000000000165134
 51
24.9999999999854587
  0
ARC
  5
DD5
  8
0
  6
VERDECKT
 62
     1
 10
-17.0999999999711996
 20
146.4510775928746966
 30
0.0
 40
23.4000000000288502
210
0.0
220
-0.0000000000000002
230
-1.0
 50
155.0000000000146088
 51
179.999999999983487
  0
LINE
  5
DD6
  8
0
  6
VERDECKT
 62
     1
 10
38.0000000000000568
 20
157.000000000000199
 30
-0.0000000000000349
 11
38.3076022166574788
 21
156.3403449176138906
 31
-0.0000000000000347
210
0.0000000000000002
220
1.0
230
-0.0000000000000002
  0
LINE
  5
DD7
  8
0
  6
VERDECKT
 62
     1
 10
-37.9999999999999432
 20
157.000000000000199
 30
-0.0000000000000349
 11
-38.3076022166573509
 21
156.3403449176138906
 31
-0.0000000000000347
210
0.0000000000000002
220
1.0
230
-0.0000000000000002
  0
ENDBLK
  5
DD9
  8
0
  0
ENDSEC
  0
SECTION
  2
ENTITIES
  0
TEXT
  5
8F
  8
VOLL
 10
78.076754716981128
 20
31.025947764705851
 30
0.0
 40
1.8
  1

  7
GREEKS
  0
TEXT
  5
97
  8
TEXT
 10
225.1296391125314926
 20
62.1158070677485625
 30
0.0
 40
5.0
  1

 41
0.8
  7
GREEKS
  0
TEXT
  5
8F9
  8
VOLL
 10
526.9521474932091678
 20
450.2053732994443749
 30
0.0
 40
1.8
  1

  7
GREEKS
  0
INSERT
  5
D8A
  8
STEMPEL
  2
A$C6B334DBA
 10
0.0
 20
0.0
 30
0.0
  0
INSERT
  5
D9F
  8
STEMPEL
  2
A$C41D06A57
 10
-0.0000000000000139
 20
-162.5
 30
-8.0000000000000533
  0
INSERT
  5
DDA
  8
STEMPEL
  2
A$C5F8758E2
 10
-225.0
 20
0.0000000000000426
 30
0.0
  0
VIEWPORT
  5
BA7
 67
     1
  8
0
 10
8.7092161524856593
 20
12.3551049284451793
 30
0.0
 40
49.67371429143558
 41
25.2986313821587601
 68
     1
 69
     1
1001
ACAD
1000
MVIEW
1002
{
1070
    16
1010
0.0
1020
0.0
1030
0.0
1010
0.0
1020
0.0
1030
1.0
1040
0.0
1040
25.2986313821587601
1040
8.7092161524856593
1040
12.3551049284451793
1040
50.0
1040
0.0
1040
0.0
1070
     0
1070
  1500
1070
     1
1070
     1
1070
     0
1070
     0
1070
     0
1070
     0
1040
0.0
1040
0.0
1040
0.0
1040
10.0
1040
10.0
1040
10.0
1040
10.0
1070
     0
1002
{
1002
}
1002
}
  0
VIEWPORT
  5
BAB
 67
     1
  8
DEFPOINTS
 10
8.709342217837392
 20
12.3546787410639691
 30
0.0
 40
17.77928002064845
 41
25.0999955448496692
 68
     2
 69
     2
1001
ACAD
1000
MVIEW
1002
{
1070
    16
1010
710.0696621869758474
1020
367.7088718146027873
1030
-47.7951237010475225
1010
0.0
1020
0.0
1030
1.0
1040
0.0
1040
610.7707351956003095
1040
-498.7218203673471066
1040
-66.870591297086051
1040
50.0
1040
0.0
1040
0.0
1070
     0
1070
  1500
1070
     1
1070
     0
1070
     0
1070
     0
1070
     0
1070
     0
1040
0.0
1040
0.0
1040
0.0
1040
1.0
1040
1.0
1040
10.0
1040
10.0
1070
     0
1002
{
1002
}
1002
}
  0
VIEWPORT
  5
BAF
 67
     1
  8
DEFPOINTS
 10
12.5998827273221199
 20
9.9191873623127123
 30
0.0
 40
5.2407741303870941
 41
5.8303416364461071
 68
     3
 69
     3
1001
ACAD
1000
MVIEW
1002
{
1070
    16
1010
759.1345695047481286
1020
373.2190936684414169
1030
-42.6721759618940979
1010
0.0
1020
180.8316873183474058
1030
561.2075559063144965
1040
3.1415926535897918
1040
189.0195827185733037
1040
0.0
1040
0.0
1040
50.0
1040
0.0
1040
0.0
1070
     0
1070
  1500
1070
     1
1070
     0
1070
     0
1070
     0
1070
     0
1070
     0
1040
0.0
1040
0.0
1040
0.0
1040
1.0
1040
1.0
1040
10.0
1040
10.0
1070
     0
1002
{
1002
}
1002
}
  0
ENDSEC
  0
EOF
