  0
SECTION
  2
HEADER
  9
$ACADVER
  1
AC1009
  9
$INSBASE
 10
0.0
 20
0.0
 30
0.0
  9
$EXTMIN
 10
386.953886811075904
 20
-130.0167446671557911
 30
-43.316092368958877
  9
$EXTMAX
 10
519.9538868110760177
 20
248.5377456507376053
 30
-43.3160923689588415
  9
$LIMMIN
 10
0.0
 20
0.0
  9
$LIMMAX
 10
210.0
 20
297.0
  9
$ORTHOMODE
 70
     1
  9
$REGENMODE
 70
     1
  9
$FILLMODE
 70
     1
  9
$QTEXTMODE
 70
     0
  9
$MIRRTEXT
 70
     1
  9
$DRAGMODE
 70
     2
  9
$LTSCALE
 40
10.0
  9
$OSMODE
 70
  2495
  9
$ATTMODE
 70
     1
  9
$TEXTSIZE
 40
3.5
  9
$TRACEWID
 40
0.5
  9
$TEXTSTYLE
  7
STANDARD
  9
$CLAYER
  8
STEMPEL
  9
$CELTYPE
  6
BYLAYER
  9
$CECOLOR
 62
   256
  9
$DIMSCALE
 40
1.0
  9
$DIMASZ
 40
3.5
  9
$DIMEXO
 40
1.0
  9
$DIMDLI
 40
7.0
  9
$DIMRND
 40
0.0
  9
$DIMDLE
 40
0.0
  9
$DIMEXE
 40
1.0
  9
$DIMTP
 40
0.5
  9
$DIMTM
 40
0.6
  9
$DIMTXT
 40
3.5
  9
$DIMCEN
 40
1.5
  9
$DIMTSZ
 40
0.0
  9
$DIMTOL
 70
     0
  9
$DIMLIM
 70
     0
  9
$DIMTIH
 70
     0
  9
$DIMTOH
 70
     0
  9
$DIMSE1
 70
     0
  9
$DIMSE2
 70
     0
  9
$DIMTAD
 70
     1
  9
$DIMZIN
 70
     8
  9
$DIMBLK
  1

  9
$DIMASO
 70
     1
  9
$DIMSHO
 70
     0
  9
$DIMPOST
  1

  9
$DIMAPOST
  1

  9
$DIMALT
 70
     0
  9
$DIMALTD
 70
     2
  9
$DIMALTF
 40
25.3999999999999986
  9
$DIMLFAC
 40
2.0
  9
$DIMTOFL
 70
     1
  9
$DIMTVP
 40
0.0
  9
$DIMTIX
 70
     0
  9
$DIMSOXD
 70
     0
  9
$DIMSAH
 70
     0
  9
$DIMBLK1
  1

  9
$DIMBLK2
  1

  9
$DIMSTYLE
  2
STANDARD
  9
$DIMCLRD
 70
     0
  9
$DIMCLRE
 70
     0
  9
$DIMCLRT
 70
     1
  9
$DIMTFAC
 40
0.5
  9
$DIMGAP
 40
1.5
  9
$LUNITS
 70
     2
  9
$LUPREC
 70
     2
  9
$SKETCHINC
 40
1.0
  9
$FILLETRAD
 40
0.0
  9
$AUNITS
 70
     0
  9
$AUPREC
 70
     0
  9
$MENU
  1
ACAD
  9
$ELEVATION
 40
0.0
  9
$PELEVATION
 40
0.0
  9
$THICKNESS
 40
0.0
  9
$LIMCHECK
 70
     0
  9
$BLIPMODE
 70
     0
  9
$CHAMFERA
 40
0.0
  9
$CHAMFERB
 40
0.0
  9
$SKPOLY
 70
     0
  9
$TDCREATE
 40
2455397.8646990740671754
  9
$TDUPDATE
 40
2459388.3216782407835126
  9
$TDINDWG
 40
0.0881637963
  9
$TDUSRTIMER
 40
0.0881637963
  9
$USRTIMER
 70
     1
  9
$ANGBASE
 50
0.0
  9
$ANGDIR
 70
     0
  9
$PDMODE
 70
     0
  9
$PDSIZE
 40
0.0
  9
$PLINEWID
 40
0.0
  9
$COORDS
 70
     1
  9
$SPLFRAME
 70
     0
  9
$SPLINETYPE
 70
     6
  9
$SPLINESEGS
 70
     8
  9
$ATTDIA
 70
     1
  9
$ATTREQ
 70
     1
  9
$HANDLING
 70
     1
  9
$HANDSEED
  5
FEB
  9
$SURFTAB1
 70
     6
  9
$SURFTAB2
 70
     6
  9
$SURFTYPE
 70
     6
  9
$SURFU
 70
     6
  9
$SURFV
 70
     6
  9
$UCSNAME
  2

  9
$UCSORG
 10
0.0
 20
0.0
 30
0.0
  9
$UCSXDIR
 10
1.0
 20
0.0
 30
0.0
  9
$UCSYDIR
 10
0.0
 20
1.0
 30
0.0
  9
$PUCSNAME
  2

  9
$PUCSORG
 10
0.0
 20
0.0
 30
0.0
  9
$PUCSXDIR
 10
1.0
 20
0.0
 30
0.0
  9
$PUCSYDIR
 10
0.0
 20
1.0
 30
0.0
  9
$USERI1
 70
     0
  9
$USERI2
 70
     0
  9
$USERI3
 70
     0
  9
$USERI4
 70
     0
  9
$USERI5
 70
     0
  9
$USERR1
 40
0.0
  9
$USERR2
 40
0.0
  9
$USERR3
 40
0.0
  9
$USERR4
 40
0.0
  9
$USERR5
 40
0.0
  9
$WORLDVIEW
 70
     1
  9
$SHADEDGE
 70
     3
  9
$SHADEDIF
 70
    70
  9
$TILEMODE
 70
     1
  9
$MAXACTVP
 70
    16
  9
$PLIMCHECK
 70
     0
  9
$PEXTMIN
 10
1.0000000000000000E+20
 20
1.0000000000000000E+20
 30
1.0000000000000000E+20
  9
$PEXTMAX
 10
-1.0000000000000000E+20
 20
-1.0000000000000000E+20
 30
-1.0000000000000000E+20
  9
$PLIMMIN
 10
2.8297646957026918
 20
-28.5766407794994706
  9
$PLIMMAX
 10
212.8297646957026927
 20
268.4233592205005152
  9
$UNITMODE
 70
     0
  9
$VISRETAIN
 70
     0
  9
$PLINEGEN
 70
     0
  9
$PSLTSCALE
 70
     0
  0
ENDSEC
  0
SECTION
  2
TABLES
  0
TABLE
  2
VPORT
 70
     1
  0
VPORT
  2
*ACTIVE
 70
     0
 10
0.0
 20
0.0
 11
1.0
 21
1.0
 12
1.15067297265972
 22
-84.7022459218860462
 13
0.0
 23
0.0
 14
1.0
 24
1.0
 15
10.0
 25
10.0
 16
-0.0000000000001137
 26
0.0
 36
628.7399190319985109
 17
452.3032138384161271
 27
143.9627464136769106
 37
-21.6580461844794101
 40
381.2616738005004891
 41
1.7852028639618129
 42
50.0
 43
0.0
 44
0.0
 50
0.0
 51
0.0
 71
     0
 72
  1500
 73
     1
 74
     0
 75
     0
 76
     0
 77
     0
 78
     0
  0
ENDTAB
  0
TABLE
  2
LTYPE
 70
     7
  0
LTYPE
  2
CONTINUOUS
 70
     0
  3
Solid line
 72
    65
 73
     0
 40
0.0
  0
LTYPE
  2
PHANTOM2
 70
     0
  3
Phantom (.5x) ___ _ _ ___ _ _ ___ _ _ ___ _ _
 72
    65
 73
     6
 40
1.25
 49
0.625
 49
-0.125
 49
0.125
 49
-0.125
 49
0.125
 49
-0.125
  0
LTYPE
  2
AUSGEZOGEN
 70
     0
  3
Ausgezogene Linie
 72
    65
 73
     0
 40
0.0
  0
LTYPE
  2
VERDECKT
 70
     0
  3
Verdeckt __ __ __ __ __ __ __ __ __ __ __ __ __
 72
    65
 73
     2
 40
0.375
 49
0.25
 49
-0.125
  0
ENDTAB
  0
TABLE
  2
LAYER
 70
    11
  0
LAYER
  2
0
 70
     0
 62
     7
  6
CONTINUOUS
  0
LAYER
  2
VOLL
 70
     0
 62
     1
  6
CONTINUOUS
  0
LAYER
  2
STEMPEL
 70
     0
 62
     3
  6
CONTINUOUS
  0
LAYER
  2
DEFPOINTS
 70
     0
 62
     7
  6
AUSGEZOGEN
  0
LAYER
  2
ADSK_ASSOC_ENTITY_BACKUPS
 70
     1
 62
    -7
  6
CONTINUOUS
  0
ENDTAB
  0
TABLE
  2
STYLE
 70
     4
  0
STYLE
  2
STANDARD
 70
     0
 40
0.0
 41
0.8
 50
0.0
 71
     0
 42
3.5
  3
simplex.shx
  4

  0
STYLE
  2
GREEKS
 70
     0
 40
0.0
 41
0.8
 50
0.0
 71
     0
 42
2.5
  3
SIMPLEX.shx
  4

  0
ENDTAB
  0
TABLE
  2
VIEW
 70
     1
  0
ENDTAB
  0
TABLE
  2
UCS
 70
     0
  0
ENDTAB
  0
TABLE
  2
APPID
 70
    16
  0
APPID
  2
ACAD
 70
     0
  0
APPID
  2
ACAD_NAV_VCDISPLAY
 70
     0
  0
APPID
  2
ACAD_MLEADERVER
 70
     0
  0
APPID
  2
ACAD_EXEMPT_FROM_CAD_STANDARDS
 70
     0
  0
APPID
  2
ACAD_PSEXT
 70
     0
  0
APPID
  2
ACAECLAYERSTANDARD
 70
     0
  0
APPID
  2
ACAUTHENVIRON
 70
     0
  0
APPID
  2
ACCMTRANSPARENCY
 70
     0
  0
APPID
  2
ACSYNERGY
 70
     0
  0
APPID
  2
SYNERGY_BODY_TBR_ID
 70
     0
  0
APPID
  2
ACAD_VIEW_EDGE_ID
 70
     0
  0
APPID
  2
ACAD_DSTYLE_DIMJAG
 70
     0
  0
APPID
  2
ACAD_DSTYLE_DIMTALN
 70
     0
  0
APPID
  2
ACAD_STEPID
 70
     0
  0
APPID
  2
ACADANNOMONITORALERTICONDI
 70
     0
  0
APPID
  2
AcDbAttr
 70
     0
  0
ENDTAB
  0
TABLE
  2
DIMSTYLE
 70
     2
  0
DIMSTYLE
  2
STANDARD
 70
     0
  3

  4

  5

  6

  7

 40
1.0
 41
0.18
 42
0.0625
 43
0.38
 44
0.18
 45
0.0
 46
0.0
 47
0.0
 48
0.0
140
0.18
141
0.09
142
0.0
143
25.3999999999999986
144
1.0
145
0.0
146
1.0
147
0.09
 71
     0
 72
     0
 73
     1
 74
     1
 75
     0
 76
     0
 77
     0
 78
     0
170
     0
171
     2
172
     0
173
     0
174
     0
175
     0
176
     0
177
     0
178
     0
  0
ENDTAB
  0
ENDSEC
  0
SECTION
  2
BLOCKS
  0
BLOCK
  8
0
  2
$MODEL_SPACE
 70
     0
 10
0.0
 20
0.0
 30
0.0
  3
$MODEL_SPACE
  1

  0
ENDBLK
  5
36
  8
0
  0
BLOCK
 67
     1
  8
0
  2
$PAPER_SPACE
 70
     0
 10
0.0
 20
0.0
 30
0.0
  3
$PAPER_SPACE
  1

  0
ENDBLK
  5
34
 67
     1
  8
0
  0
BLOCK
  8
0
  2
*S4
 70
     1
 10
0.0
 20
0.0
 30
0.0
  3
*S4
  1

  0
ENDBLK
  5
B48
  8
0
  0
BLOCK
  8
0
  2
A$CEE0795E1
 70
     0
 10
0.0
 20
0.0
 30
0.0
  3
A$CEE0795E1
  1

  0
CIRCLE
  5
F21
  8
0
 10
259.1201781216383893
 20
151.5394234402494931
 30
0.0000000000000604
 40
49.0
  0
CIRCLE
  5
F22
  8
0
 10
259.1201781216383893
 20
151.5394234402494931
 30
0.0000000000000639
 40
53.0
  0
CIRCLE
  5
F23
  8
0
 10
259.1201781216383893
 20
151.5394234402496068
 30
0.0000000000000568
 40
53.8941402638517175
  0
CIRCLE
  5
F24
  8
0
 10
259.1201781216383893
 20
151.5394234402496068
 30
0.0000000000000568
 40
55.7067558379250087
  0
CIRCLE
  5
F25
  8
0
 10
259.1201781216383893
 20
151.5394234402496068
 30
0.0000000000000568
 40
59.0
  0
CIRCLE
  5
F26
  8
0
 10
259.1201781216383893
 20
151.5394234402494931
 30
0.0000000000000622
 40
66.4999999999999858
  0
CIRCLE
  5
F27
  8
0
  6
VERDECKT
 62
     1
 10
259.1201781216383893
 20
151.5394234402494931
 30
0.0000000000000639
 40
55.0
  0
CIRCLE
  5
F28
  8
0
  6
VERDECKT
 62
     1
 10
259.1201781216383893
 20
151.5394234402494931
 30
0.0000000000000604
 40
50.9999999999999929
  0
CIRCLE
  5
F29
  8
0
  6
VERDECKT
 62
     1
 10
259.1201781216383893
 20
151.5394234402494931
 30
0.0000000000000622
 40
57.6053068990242707
  0
CIRCLE
  5
F2A
  8
0
  6
VERDECKT
 62
     1
 10
259.1201781216383893
 20
151.5394234402494931
 30
0.0000000000000622
 40
55.7929406190337502
  0
CIRCLE
  5
F2B
  8
0
  6
VERDECKT
 62
     1
 10
259.1201781216383893
 20
151.5394234402496068
 30
0.0000000000000568
 40
57.0
  0
CIRCLE
  5
F2C
  8
0
  6
VERDECKT
 62
     1
 10
259.1201781216383893
 20
151.5394234402494931
 30
0.0000000000000604
 40
62.4999999999999716
  0
CIRCLE
  5
F2D
  8
0
  6
VERDECKT
 62
     1
 10
259.1201781216383893
 20
151.5394234402494931
 30
0.0000000000000568
 40
61.6770083410371228
  0
CIRCLE
  5
F2E
  8
0
  6
VERDECKT
 62
     1
 10
259.1201781216383893
 20
151.5394234402494931
 30
0.0000000000000568
 40
59.1865215958077613
  0
CIRCLE
  5
F2F
  8
0
  6
VERDECKT
 62
     1
 10
259.1201781216383893
 20
151.5394234402494931
 30
0.0000000000000604
 40
59.9999999999999716
  0
CIRCLE
  5
F30
  8
0
  6
VERDECKT
 62
     1
 10
259.1201781216383893
 20
151.5394234402494931
 30
0.0000000000000617
 40
56.8800042399872865
  0
CIRCLE
  5
F31
  8
0
  6
VERDECKT
 62
     1
 10
259.1201781216383893
 20
151.5394234402494931
 30
0.0000000000000622
 40
63.9996643453646428
  0
CIRCLE
  5
F32
  8
0
  6
VERDECKT
 62
     1
 10
259.1201781216383893
 20
151.5394234402494931
 30
0.0000000000000622
 40
63.9999999999997087
  0
ENDBLK
  5
F34
  8
0
  0
BLOCK
  8
0
  2
A$CAF91310A
 70
     0
 10
0.0
 20
0.0
 30
0.0
  3
A$CAF91310A
  1

  0
LINE
  5
F38
  8
0
 10
203.4134222837134018
 20
104.1500000000001052
 30
-0.0000000000000231
 11
314.8269339595634051
 21
104.1500000000001052
 31
-0.0000000000000231
210
0.0
220
1.0
230
-0.0000000000000002
  0
LINE
  5
F39
  8
0
 10
314.1201781216383893
 20
59.6500000000000199
 30
-0.0000000000000132
 11
314.1201781216383893
 21
41.0774888769475197
 31
-0.0000000000000091
210
0.0
220
1.0
230
-0.0000000000000002
  0
LINE
  5
F3A
  8
0
 10
204.1201781216383893
 20
59.6500000000000199
 30
-0.0000000000000132
 11
204.1201781216383893
 21
41.0774888769475197
 31
-0.0000000000000091
210
0.0
220
1.0
230
-0.0000000000000002
  0
ARC
  5
F3B
  8
0
 10
-219.1201781216383893
 20
41.077488876947541
 30
0.0
 40
15.0000000000000195
210
0.0
220
-0.0000000000000002
230
-1.0
 50
325.6988472432103094
 51
359.9999999999998863
  0
ARC
  5
F3C
  8
0
 10
-299.1201781216389008
 20
41.0774888769473705
 30
0.0
 40
14.9999999999995399
210
0.0
220
-0.0000000000000002
230
-1.0
 50
179.9999999999994031
 51
214.3011527567902874
  0
ARC
  5
F3D
  8
0
 10
-200.1201781216375934
 20
28.1160074801315396
 30
0.0
 40
8.000000000000826
210
0.0
220
-0.0000000000000002
230
-1.0
 50
145.6988472432068988
 51
179.9999999999976978
  0
ARC
  5
F3E
  8
0
 10
-318.1201781216396967
 20
28.1160074801313797
 30
0.0
 40
8.0000000000013642
210
0.0
220
-0.0000000000000002
230
-1.0
 50
0.0000000000034859
 51
34.3011527567919003
  0
LINE
  5
F3F
  8
0
 10
310.1201781216383893
 20
28.1160074801318594
 30
-0.0000000000000062
 11
310.1201781216383893
 21
20.9247946939963505
 31
-0.0000000000000046
210
0.0
220
1.0
230
-0.0000000000000002
  0
LINE
  5
F40
  8
0
 10
208.1201781216383893
 20
28.1160074801318594
 30
-0.0000000000000062
 11
208.1201781216383893
 21
20.9247946939963505
 31
-0.0000000000000046
210
0.0
220
1.0
230
-0.0000000000000002
  0
ARC
  5
F41
  8
0
 10
-200.1201781216383893
 20
20.9247946939964109
 30
0.0
 40
8.0000000000000284
210
0.0
220
-0.0000000000000002
230
-1.0
 50
180.0000000000003979
 51
205.0168934780982966
  0
ARC
  5
F42
  8
0
 10
-318.1201781216385029
 20
20.9247946939964109
 30
0.0
 40
8.0000000000001101
210
0.0
220
-0.0000000000000002
230
-1.0
 50
334.9831065219019024
 51
359.9999999999996021
  0
LINE
  5
F43
  8
0
 10
310.8707130016762221
 20
17.5417109713476087
 30
-0.0000000000000039
 11
316.7235114549716855
 21
4.9999999999999449
 31
-0.0000000000000011
210
0.0
220
1.0
230
-0.0000000000000002
  0
LINE
  5
F44
  8
0
 10
207.3696432416006132
 20
17.5417109713476194
 30
-0.0000000000000039
 11
201.5168447883050078
 21
4.9999999999999467
 31
-0.0000000000000011
210
0.0
220
1.0
230
-0.0000000000000002
  0
LINE
  5
F45
  8
0
 10
314.8269339595634051
 20
104.1500000000001052
 30
-0.0000000000000231
 11
315.7778727975547213
 21
102.1107050809463033
 31
-0.0000000000000227
210
0.0
220
1.0
230
-0.0000000000000002
  0
LINE
  5
F46
  8
0
 10
203.4134222837134018
 20
104.1500000000001052
 30
-0.0000000000000231
 11
202.4624834457221141
 21
102.1107050809463033
 31
-0.0000000000000227
210
0.0
220
1.0
230
-0.0000000000000002
  0
ARC
  5
F47
  8
0
 10
-225.1201781216387019
 20
91.545248537428904
 30
0.0
 40
25.0000000000002807
210
0.0
220
-0.0000000000000002
230
-1.0
 50
0.0000000000001399
 51
24.9999999999995701
  0
ARC
  5
F48
  8
0
 10
-293.1201781216385029
 20
91.5452485374289466
 30
0.0
 40
24.9999999999998295
210
0.0
220
-0.0000000000000002
230
-1.0
 50
155.0
 51
179.9999999999998863
  0
LINE
  5
F49
  8
0
 10
318.1201781216383893
 20
91.5452485374289466
 30
-0.0000000000000203
 11
318.1201781216383893
 21
76.3832005306816058
 31
-0.000000000000017
210
0.0
220
1.0
230
-0.0000000000000002
  0
LINE
  5
F4A
  8
0
 10
200.1201781216383893
 20
91.5452485374289466
 30
-0.0000000000000203
 11
200.1201781216383893
 21
76.3832005306816058
 31
-0.000000000000017
210
0.0
220
1.0
230
-0.0000000000000002
  0
ARC
  5
F4B
  8
0
 10
-225.1201781216379914
 20
76.3832005306813642
 30
0.0
 40
24.9999999999996305
210
0.0
220
-0.0000000000000002
230
-1.0
 50
333.1119523822760016
 51
0.0000000000005598
  0
ARC
  5
F4C
  8
0
 10
-293.1201781216386735
 20
76.3832005306813784
 30
0.0
 40
24.9999999999997193
210
0.0
220
-0.0000000000000002
230
-1.0
 50
179.9999999999994884
 51
206.8880476177239132
  0
ARC
  5
F4D
  8
0
 10
-192.1201781216389008
 20
59.6500000000001407
 30
0.0
 40
11.9999999999994902
210
0.0
220
-0.0000000000000002
230
-1.0
 50
153.1119523822750921
 51
180.0000000000003979
  0
ARC
  5
F4E
  8
0
 10
-326.1201781216374229
 20
59.650000000000297
 30
0.0
 40
11.9999999999989697
210
0.0
220
-0.0000000000000002
230
-1.0
 50
359.9999999999985789
 51
26.8880476177251708
  0
LINE
  5
F4F
  8
0
 10
197.4431697806012949
 20
-105.0000000000000995
 30
0.0000000000000233
 11
320.7971864626755973
 21
-105.0000000000000995
 31
0.0000000000000233
210
0.0
220
1.0
230
-0.0000000000000002
  0
LINE
  5
F50
  8
0
 10
200.1201781216383893
 20
4.999999999999944
 30
-0.0000000000000011
 11
318.1201781216383893
 21
4.999999999999944
 31
-0.0000000000000011
210
0.0
220
1.0
230
-0.0000000000000002
  0
LINE
  5
F51
  8
0
 10
321.6201781216382756
 20
-20.0000000000000604
 30
0.0000000000000044
 11
321.6201781216382756
 21
-94.960078621144973
 31
0.0000000000000211
210
0.0
220
1.0
230
-0.0000000000000002
  0
LINE
  5
F52
  8
0
 10
196.6201781216383893
 20
-20.0000000000000604
 30
0.0000000000000044
 11
196.6201781216383893
 21
-94.960078621144973
 31
0.0000000000000211
210
0.0
220
1.0
230
-0.0000000000000002
  0
ARC
  5
F53
  8
0
 10
-211.1201781216275037
 20
-94.9600786211455841
 30
0.0
 40
14.4999999999890505
210
0.0
220
-0.0000000000000002
230
-1.0
 50
354.9999999999985789
 51
0.0000000000023777
  0
ARC
  5
F54
  8
0
 10
-307.1201781216789755
 20
-94.9600786211468488
 30
0.0
 40
14.4999999999593001
210
0.0
220
-0.0000000000000002
230
-1.0
 50
179.9999999999924967
 51
185.0000000000065086
  0
LINE
  5
F55
  8
0
 10
197.4431697806012949
 20
-105.0000000000000995
 30
0.0000000000000233
 11
196.6753549993080981
 21
-96.2238368909860355
 31
0.0000000000000214
210
0.0
220
1.0
230
-0.0000000000000002
  0
LINE
  5
F56
  8
0
 10
320.7971864626754837
 20
-105.0000000000000995
 30
0.0000000000000233
 11
321.5650012439687089
 21
-96.2238368909860355
 31
0.0000000000000214
210
0.0
220
1.0
230
-0.0000000000000002
  0
LINE
  5
F57
  8
0
 10
318.1201781216383893
 20
4.999999999999944
 30
-0.0000000000000011
 11
324.4041645536790952
 21
-5.054378291265154
 31
0.0000000000000011
210
0.0
220
1.0
230
-0.0000000000000002
  0
LINE
  5
F58
  8
0
 10
200.1201781216383893
 20
4.999999999999944
 30
-0.0000000000000011
 11
193.8361916895977117
 21
-5.054378291265154
 31
0.0000000000000011
210
0.0
220
1.0
230
-0.0000000000000002
  0
ARC
  5
F59
  8
0
 10
-200.6201781216377071
 20
-9.2943698112904052
 30
0.0
 40
7.9999999999993463
210
0.0
220
-0.0000000000000002
230
-1.0
 50
359.9999999999985221
 51
32.0053832080848295
  0
ARC
  5
F5A
  8
0
 10
-317.6201781216398103
 20
-9.2943698112901014
 30
0.0
 40
7.999999999998523
210
0.0
220
-0.0000000000000002
230
-1.0
 50
147.9946167919142965
 51
180.0000000000036096
  0
LINE
  5
F5B
  8
0
 10
325.6201781216383893
 20
-9.2943698112906095
 30
0.0000000000000021
 11
325.6201781216383893
 21
-9.4169947557417704
 31
0.0000000000000021
210
0.0
220
1.0
230
-0.0000000000000002
  0
LINE
  5
F5C
  8
0
 10
192.6201781216383893
 20
-9.2943698112906095
 30
0.0000000000000021
 11
192.6201781216383893
 21
-9.4169947557417704
 31
0.0000000000000021
210
0.0
220
1.0
230
-0.0000000000000002
  0
ARC
  5
F5D
  8
0
 10
-200.6201781216385029
 20
-9.4169947557417366
 30
0.0
 40
8.0000000000000817
210
0.0
220
-0.0000000000000002
230
-1.0
 50
318.5903778907281207
 51
359.9999999999997158
  0
ARC
  5
F5E
  8
0
 10
-317.6201781216386166
 20
-9.4169947557418663
 30
0.0
 40
7.9999999999997717
210
0.0
220
-0.0000000000000002
230
-1.0
 50
179.9999999999992895
 51
221.4096221092725898
  0
ARC
  5
F5F
  8
0
 10
-188.620178121638304
 20
-20.0000000000001101
 30
0.0
 40
8.0000000000000853
210
0.0
220
-0.0000000000000002
230
-1.0
 50
138.5903778907305934
 51
179.9999999999996021
  0
ARC
  5
F60
  8
0
 10
-329.6201781216382756
 20
-20.0000000000000284
 30
0.0
 40
7.9999999999999432
210
0.0
220
-0.0000000000000002
230
-1.0
 50
359.9999999999997158
 51
41.4096221092692076
  0
LINE
  5
F61
  8
0
  6
VERDECKT
 62
     1
 10
201.5148712226140901
 20
4.9957709306622178
 30
-0.0000000000000011
 11
316.7254850206625747
 21
4.9957709306622178
 31
-0.0000000000000011
210
0.0
220
1.0
230
-0.0000000000000002
  0
LINE
  5
F62
  8
0
  6
VERDECKT
 62
     1
 10
203.3272375026045893
 20
4.1499999999999488
 30
-0.0000000000000009
 11
314.9131187406720755
 21
4.1499999999999488
 31
-0.0000000000000009
210
0.0
220
1.0
230
-0.0000000000000002
  0
LINE
  5
F63
  8
0
  6
VERDECKT
 62
     1
 10
205.2260378577865936
 20
103.3047634765186018
 30
-0.0000000000000229
 11
313.0143183854901281
 21
103.3047634765186018
 31
-0.0000000000000229
210
0.0
220
1.0
230
-0.0000000000000002
  0
LINE
  5
F64
  8
0
  6
VERDECKT
 62
     1
 10
316.7235114549716855
 20
4.9999999999999449
 30
-0.0000000000000011
 11
316.7254850206626884
 21
4.9957709306622151
 31
-0.0000000000000011
210
0.0
220
1.0
230
-0.0000000000000002
  0
LINE
  5
F65
  8
0
  6
VERDECKT
 62
     1
 10
201.5168447883050078
 20
4.9999999999999467
 30
-0.0000000000000011
 11
201.5148712226140901
 21
4.9957709306622258
 31
-0.0000000000000011
210
0.0
220
1.0
230
-0.0000000000000002
  0
LINE
  5
F66
  8
0
  6
VERDECKT
 62
     1
 10
203.3272375026045893
 20
4.1499999999999551
 30
-0.0000000000000009
 11
201.5148712226140901
 21
4.9957709306622249
 31
-0.0000000000000011
210
0.0
220
1.0
230
-0.0000000000000002
  0
LINE
  5
F67
  8
0
  6
VERDECKT
 62
     1
 10
314.9131187406720755
 20
4.1499999999999551
 30
-0.0000000000000009
 11
316.7254850206626884
 21
4.9957709306622364
 31
-0.0000000000000011
210
0.0
220
1.0
230
-0.0000000000000002
  0
LINE
  5
F68
  8
0
  6
VERDECKT
 62
     1
 10
309.058346721685723
 20
16.6959400406850698
 30
-0.0000000000000037
 11
314.9131187406720755
 21
4.1499999999999462
 31
-0.0000000000000009
210
0.0
220
1.0
230
-0.0000000000000002
  0
LINE
  5
F69
  8
0
  6
VERDECKT
 62
     1
 10
209.1820095215909987
 20
16.6959400406850804
 30
-0.0000000000000037
 11
203.3272375026045893
 21
4.1499999999999462
 31
-0.0000000000000009
210
0.0
220
1.0
230
-0.0000000000000002
  0
ARC
  5
F6A
  8
0
  6
VERDECKT
 62
     1
 10
-200.1201781216377924
 20
20.9247946939964891
 30
0.0
 40
10.0000000000005898
210
0.0
220
-0.0000000000000002
230
-1.0
 50
180.0000000000007105
 51
205.0168934780994903
  0
ARC
  5
F6B
  8
0
  6
VERDECKT
 62
     1
 10
-318.1201781216407198
 20
20.9247946939969189
 30
0.0
 40
10.0000000000022702
210
0.0
220
-0.0000000000000002
230
-1.0
 50
334.9831065219023003
 51
359.9999999999967031
  0
LINE
  5
F6C
  8
0
  6
VERDECKT
 62
     1
 10
308.1201781216383893
 20
28.1160074801318594
 30
-0.0000000000000062
 11
308.1201781216383893
 21
20.9247946939963505
 31
-0.0000000000000046
210
0.0
220
1.0
230
-0.0000000000000002
  0
LINE
  5
F6D
  8
0
  6
VERDECKT
 62
     1
 10
210.1201781216383893
 20
28.1160074801318594
 30
-0.0000000000000062
 11
210.1201781216383893
 21
20.9247946939963505
 31
-0.0000000000000046
210
0.0
220
1.0
230
-0.0000000000000002
  0
ARC
  5
F6E
  8
0
  6
VERDECKT
 62
     1
 10
-200.120178121638105
 20
28.1160074801317705
 30
0.0
 40
10.0000000000002807
210
0.0
220
-0.0000000000000002
230
-1.0
 50
145.6988472432107926
 51
179.9999999999994031
  0
ARC
  5
F6F
  8
0
  6
VERDECKT
 62
     1
 10
-318.1201781216383893
 20
28.1160074801319197
 30
0.0
 40
10.0
210
0.0
220
-0.0000000000000002
230
-1.0
 50
359.9999999999997158
 51
34.3011527567894277
  0
ARC
  5
F70
  8
0
  6
VERDECKT
 62
     1
 10
-219.1201781216396114
 20
41.0774888769479531
 30
0.0
 40
13.0000000000012204
210
0.0
220
-0.0000000000000002
230
-1.0
 50
325.6988472432087178
 51
359.9999999999980105
  0
ARC
  5
F71
  8
0
  6
VERDECKT
 62
     1
 10
-299.1201781216374798
 20
41.0774888769479105
 30
0.0
 40
13.0000000000009592
210
0.0
220
-0.0000000000000002
230
-1.0
 50
180.0000000000015916
 51
214.3011527567919074
  0
LINE
  5
F72
  8
0
  6
VERDECKT
 62
     1
 10
312.1201781216383893
 20
59.6500000000000199
 30
-0.0000000000000132
 11
312.1201781216383893
 21
41.0774888769475197
 31
-0.0000000000000091
210
0.0
220
1.0
230
-0.0000000000000002
  0
LINE
  5
F73
  8
0
  6
VERDECKT
 62
     1
 10
206.1201781216383893
 20
59.6500000000000199
 30
-0.0000000000000132
 11
206.1201781216383893
 21
41.0774888769475197
 31
-0.0000000000000091
210
0.0
220
1.0
230
-0.0000000000000002
  0
ARC
  5
F74
  8
0
  6
VERDECKT
 62
     1
 10
-192.1201781216383893
 20
59.6500000000000483
 30
0.0
 40
13.9999999999999698
210
0.0
220
-0.0000000000000002
230
-1.0
 50
153.1119523822758879
 51
180.0
  0
ARC
  5
F75
  8
0
  6
VERDECKT
 62
     1
 10
-326.1201781216378777
 20
59.6500000000002188
 30
0.0
 40
13.9999999999994902
210
0.0
220
-0.0000000000000002
230
-1.0
 50
359.9999999999992042
 51
26.8880476177243288
  0
ARC
  5
F76
  8
0
  6
VERDECKT
 62
     1
 10
-225.1201781216385029
 20
76.3832005306816342
 30
0.0
 40
23.0000000000001386
210
0.0
220
-0.0000000000000002
230
-1.0
 50
333.1119523822758879
 51
359.9999999999998863
  0
ARC
  5
F77
  8
0
  6
VERDECKT
 62
     1
 10
-293.1201781216382187
 20
76.3832005306816484
 30
0.0
 40
23.0000000000001705
210
0.0
220
-0.0000000000000002
230
-1.0
 50
180.0
 51
206.8880476177241121
  0
LINE
  5
F78
  8
0
  6
VERDECKT
 62
     1
 10
316.1201781216383893
 20
91.5452485374289466
 30
-0.0000000000000203
 11
316.1201781216383893
 21
76.3832005306816058
 31
-0.000000000000017
210
0.0
220
1.0
230
-0.0000000000000002
  0
LINE
  5
F79
  8
0
  6
VERDECKT
 62
     1
 10
202.1201781216383893
 20
91.5452485374289466
 30
-0.0000000000000203
 11
202.1201781216383893
 21
76.3832005306816058
 31
-0.000000000000017
210
0.0
220
1.0
230
-0.0000000000000002
  0
ARC
  5
F7A
  8
0
  6
VERDECKT
 62
     1
 10
-225.1201781216387872
 20
91.5452485374289324
 30
0.0
 40
23.0000000000003695
210
0.0
220
-0.0000000000000002
230
-1.0
 50
0.0000000000000382
 51
24.999999999998689
  0
ARC
  5
F7B
  8
0
  6
VERDECKT
 62
     1
 10
-293.1201781216385029
 20
91.5452485374289751
 30
0.0
 40
22.9999999999998899
210
0.0
220
-0.0000000000000002
230
-1.0
 50
155.0000000000009095
 51
180.0
  0
LINE
  5
F7C
  8
0
  6
VERDECKT
 62
     1
 10
313.0143183854901281
 20
103.3047634765186018
 30
-0.0000000000000229
 11
313.9652572234816148
 21
101.2654685574647004
 31
-0.0000000000000225
210
0.0
220
1.0
230
-0.0000000000000002
  0
LINE
  5
F7D
  8
0
  6
VERDECKT
 62
     1
 10
205.2260378577865936
 20
103.3047634765186018
 30
-0.0000000000000229
 11
204.2750990197951921
 21
101.2654685574647004
 31
-0.0000000000000225
210
0.0
220
1.0
230
-0.0000000000000002
  0
LINE
  5
F7E
  8
0
  6
VERDECKT
 62
     1
 10
205.2260378577865936
 20
103.3047634765187013
 30
-0.0000000000000229
 11
203.4134222837134018
 21
104.1500000000001052
 31
-0.0000000000000231
210
0.0
220
1.0
230
-0.0000000000000002
  0
LINE
  5
F7F
  8
0
  6
VERDECKT
 62
     1
 10
313.0143183854901281
 20
103.3047634765187013
 30
-0.0000000000000229
 11
314.8269339595634051
 21
104.1500000000001052
 31
-0.0000000000000231
210
0.0
220
1.0
230
-0.0000000000000002
  0
LINE
  5
F80
  8
0
  6
VERDECKT
 62
     1
 10
199.9336565258305995
 20
-104.7821106431309062
 30
0.0000000000000233
 11
318.3066997174461221
 21
-104.7821106431309062
 31
0.0000000000000233
210
0.0
220
1.0
230
-0.0000000000000002
  0
LINE
  5
F81
  8
0
  6
VERDECKT
 62
     1
 10
202.2401738816510885
 20
3.6750026499919959
 30
-0.0000000000000008
 11
316.0001823616257184
 21
3.6750026499919959
 31
-0.0000000000000008
210
0.0
220
1.0
230
-0.0000000000000002
  0
ARC
  5
F82
  8
0
  6
VERDECKT
 62
     1
 10
-195.0205137760443108
 20
-9.3556822835022491
 30
0.0
 40
0.1000000002294428
210
0.0
220
-0.0000000000000002
230
-1.0
 50
179.3726757017149964
 51
180.6273242982848899
  0
ARC
  5
F83
  8
0
  6
VERDECKT
 62
     1
 10
-323.2198424662842058
 20
-9.3556822835022491
 30
0.0
 40
0.099999999281124
210
0.0
220
-0.0000000000000002
230
-1.0
 50
359.3726756957657926
 51
0.6273243042342437
  0
LINE
  5
F84
  8
0
  6
VERDECKT
 62
     1
 10
318.3066997174461221
 20
-104.7821106431309062
 30
0.0000000000000233
 11
320.7971864626755973
 21
-105.0
 31
0.0000000000000233
210
0.0
220
1.0
230
-0.0000000000000002
  0
LINE
  5
F85
  8
0
  6
VERDECKT
 62
     1
 10
199.9336565258305995
 20
-104.7821106431309062
 30
0.0000000000000233
 11
197.4431697806012949
 21
-105.0
 31
0.0000000000000233
210
0.0
220
1.0
230
-0.0000000000000002
  0
LINE
  5
F86
  8
0
  6
VERDECKT
 62
     1
 10
199.9336565258305995
 20
-104.7821106431309062
 30
0.0000000000000233
 11
199.1658417445374027
 21
-96.0059475341169133
 31
0.0000000000000213
210
0.0
220
1.0
230
-0.0000000000000002
  0
LINE
  5
F87
  8
0
  6
VERDECKT
 62
     1
 10
318.306699717446179
 20
-104.7821106431309062
 30
0.0000000000000233
 11
319.0745144987392905
 21
-96.0059475341169133
 31
0.0000000000000213
210
0.0
220
1.0
230
-0.0000000000000002
  0
ARC
  5
F88
  8
0
  6
VERDECKT
 62
     1
 10
-211.1201781216315112
 20
-94.9600786211454135
 30
0.0
 40
11.9999999999931504
210
0.0
220
-0.0000000000000002
230
-1.0
 50
354.9999999999992042
 51
0.0000000000020724
  0
ARC
  5
F89
  8
0
  6
VERDECKT
 62
     1
 10
-307.1201781216452105
 20
-94.9600786211454135
 30
0.0
 40
11.9999999999931202
210
0.0
220
-0.0000000000000002
230
-1.0
 50
179.9999999999978115
 51
185.0000000000007105
  0
LINE
  5
F8A
  8
0
  6
VERDECKT
 62
     1
 10
319.1201781216382756
 20
-20.0000000000000604
 30
0.0000000000000044
 11
319.1201781216382756
 21
-94.960078621144973
 31
0.0000000000000211
210
0.0
220
1.0
230
-0.0000000000000002
  0
LINE
  5
F8B
  8
0
  6
VERDECKT
 62
     1
 10
199.1201781216383893
 20
-20.0000000000000604
 30
0.0000000000000044
 11
199.1201781216383893
 21
-94.960078621144973
 31
0.0000000000000211
210
0.0
220
1.0
230
-0.0000000000000002
  0
ARC
  5
F8C
  8
0
  6
VERDECKT
 62
     1
 10
-188.6201781216383893
 20
-20.0000000000000817
 30
0.0
 40
10.4999999999999698
210
0.0
220
-0.0000000000000002
230
-1.0
 50
138.5903778907303945
 51
179.999999999999801
  0
ARC
  5
F8D
  8
0
  6
VERDECKT
 62
     1
 10
-329.6201781216387872
 20
-20.0000000000002984
 30
0.0
 40
10.5000000000004494
210
0.0
220
-0.0000000000000002
230
-1.0
 50
0.0000000000012977
 51
41.4096221092689802
  0
ARC
  5
F8E
  8
0
  6
VERDECKT
 62
     1
 10
-200.6201781216387019
 20
-9.4169947557415679
 30
0.0
 40
5.5000000000003562
210
0.0
220
-0.0000000000000002
230
-1.0
 50
318.5903778907277228
 51
0.6273242998612546
  0
ARC
  5
F8F
  8
0
  6
VERDECKT
 62
     1
 10
-317.6201781216378777
 20
-9.4169947557415359
 30
0.0
 40
5.5000000000005009
210
0.0
220
-0.0000000000000002
230
-1.0
 50
179.3726757001390979
 51
221.4096221092713108
  0
ARC
  5
F90
  8
0
  6
VERDECKT
 62
     1
 10
-200.620178121638304
 20
-9.2943698112900233
 30
0.0
 40
5.499999999999666
210
0.0
220
-0.0000000000000002
230
-1.0
 50
359.3726757004209276
 51
32.0053832080785909
  0
ARC
  5
F91
  8
0
  6
VERDECKT
 62
     1
 10
-317.6201781216378208
 20
-9.2943698112902045
 30
0.0
 40
5.500000000000373
210
0.0
220
-0.0000000000000002
230
-1.0
 50
147.9946167919235052
 51
180.6273242995769976
  0
LINE
  5
F92
  8
0
  6
VERDECKT
 62
     1
 10
316.0001823616257184
 20
3.6750026499919959
 30
-0.0000000000000008
 11
322.2841687936664243
 21
-6.3793756412731009
 31
0.0000000000000014
210
0.0
220
1.0
230
-0.0000000000000002
  0
LINE
  5
F93
  8
0
  6
VERDECKT
 62
     1
 10
202.2401738816510885
 20
3.6750026499919959
 30
-0.0000000000000008
 11
195.956187449610411
 21
-6.3793756412731151
 31
0.0000000000000014
210
0.0
220
1.0
230
-0.0000000000000002
  0
LINE
  5
F94
  8
0
  6
VERDECKT
 62
     1
 10
202.2401738816510885
 20
3.6750026499919932
 30
-0.0000000000000008
 11
200.1201781216383893
 21
4.9999999999999458
 31
-0.0000000000000011
210
0.0
220
1.0
230
-0.0000000000000002
  0
LINE
  5
F95
  8
0
  6
VERDECKT
 62
     1
 10
316.0001823616257184
 20
3.6750026499919799
 30
-0.0000000000000008
 11
318.1201781216383893
 21
4.9999999999999343
 31
-0.0000000000000011
210
0.0
220
1.0
230
-0.0000000000000002
  0
ENDBLK
  5
F97
  8
0
  0
ENDSEC
  0
SECTION
  2
ENTITIES
  0
TEXT
  5
8F
  8
VOLL
 10
78.076754716981128
 20
31.025947764705851
 30
0.0
 40
1.8
  1

  7
GREEKS
  0
INSERT
  5
B4A
  8
ADSK_ASSOC_ENTITY_BACKUPS
  2
*S4
 10
0.0
 20
0.0
 30
0.0
  0
INSERT
  5
F35
  8
STEMPEL
  2
A$CEE0795E1
 10
194.3337086894374863
 20
-215.0561681074053979
 30
-43.3160923689588984
  0
INSERT
  5
F98
  8
STEMPEL
  2
A$CAF91310A
 10
194.3337086894374863
 20
144.3877456507374006
 30
-43.3160923689588628
  0
VIEWPORT
  5
928
 67
     1
  8
0
 10
107.8297646957027069
 20
119.923359220500501
 30
0.0
 40
533.9969448798290159
 41
299.1239570917758783
 68
     1
 69
     1
1001
ACAD
1000
MVIEW
1002
{
1070
    16
1010
0.0
1020
0.0
1030
0.0
1010
0.0
1020
0.0
1030
1.0
1040
0.0
1040
299.1239570917758783
1040
107.8297646957027069
1040
119.923359220500501
1040
50.0
1040
0.0
1040
0.0
1070
     0
1070
  1500
1070
     1
1070
     1
1070
     0
1070
     0
1070
     0
1070
     0
1040
0.0
1040
0.0
1040
0.0
1040
10.0
1040
10.0
1040
10.0
1040
10.0
1070
     0
1002
{
1002
}
1002
}
  0
ENDSEC
  0
EOF
