  0
SECTION
  2
HEADER
  9
$ACADVER
  1
AC1009
  9
$INSBASE
 10
0.0
 20
0.0
 30
0.0
  9
$EXTMIN
 10
222.5223146050390142
 20
-97.5573572101506556
 30
-18.2812636840747196
  9
$EXTMAX
 10
383.8009214432016165
 20
241.5164343427358915
 30
0.0005579254324886
  9
$LIMMIN
 10
0.0
 20
0.0
  9
$LIMMAX
 10
210.0
 20
297.0
  9
$ORTHOMODE
 70
     1
  9
$REGENMODE
 70
     1
  9
$FILLMODE
 70
     1
  9
$QTEXTMODE
 70
     0
  9
$MIRRTEXT
 70
     1
  9
$DRAGMODE
 70
     2
  9
$LTSCALE
 40
10.0
  9
$OSMODE
 70
  2495
  9
$ATTMODE
 70
     1
  9
$TEXTSIZE
 40
3.5
  9
$TRACEWID
 40
0.5
  9
$TEXTSTYLE
  7
STANDARD
  9
$CLAYER
  8
STEMPEL
  9
$CELTYPE
  6
BYLAYER
  9
$CECOLOR
 62
   256
  9
$DIMSCALE
 40
1.0
  9
$DIMASZ
 40
3.5
  9
$DIMEXO
 40
1.0
  9
$DIMDLI
 40
7.0
  9
$DIMRND
 40
0.0
  9
$DIMDLE
 40
0.0
  9
$DIMEXE
 40
1.0
  9
$DIMTP
 40
0.0
  9
$DIMTM
 40
0.0
  9
$DIMTXT
 40
3.5
  9
$DIMCEN
 40
1.5
  9
$DIMTSZ
 40
0.0
  9
$DIMTOL
 70
     0
  9
$DIMLIM
 70
     0
  9
$DIMTIH
 70
     0
  9
$DIMTOH
 70
     0
  9
$DIMSE1
 70
     0
  9
$DIMSE2
 70
     0
  9
$DIMTAD
 70
     1
  9
$DIMZIN
 70
     8
  9
$DIMBLK
  1

  9
$DIMASO
 70
     1
  9
$DIMSHO
 70
     0
  9
$DIMPOST
  1

  9
$DIMAPOST
  1

  9
$DIMALT
 70
     0
  9
$DIMALTD
 70
     2
  9
$DIMALTF
 40
25.3999999999999986
  9
$DIMLFAC
 40
1.0
  9
$DIMTOFL
 70
     1
  9
$DIMTVP
 40
0.0
  9
$DIMTIX
 70
     0
  9
$DIMSOXD
 70
     0
  9
$DIMSAH
 70
     0
  9
$DIMBLK1
  1

  9
$DIMBLK2
  1

  9
$DIMSTYLE
  2
STANDARD
  9
$DIMCLRD
 70
     0
  9
$DIMCLRE
 70
     0
  9
$DIMCLRT
 70
     1
  9
$DIMTFAC
 40
0.5
  9
$DIMGAP
 40
1.5
  9
$LUNITS
 70
     2
  9
$LUPREC
 70
     2
  9
$SKETCHINC
 40
1.0
  9
$FILLETRAD
 40
0.0
  9
$AUNITS
 70
     0
  9
$AUPREC
 70
     0
  9
$MENU
  1
ACAD
  9
$ELEVATION
 40
0.0
  9
$PELEVATION
 40
0.0
  9
$THICKNESS
 40
0.0
  9
$LIMCHECK
 70
     0
  9
$BLIPMODE
 70
     0
  9
$CHAMFERA
 40
0.0
  9
$CHAMFERB
 40
0.0
  9
$SKPOLY
 70
     0
  9
$TDCREATE
 40
2455397.8646990740671754
  9
$TDUPDATE
 40
2459221.5295138889923692
  9
$TDINDWG
 40
0.0541823148
  9
$TDUSRTIMER
 40
0.0541823148
  9
$USRTIMER
 70
     1
  9
$ANGBASE
 50
0.0
  9
$ANGDIR
 70
     0
  9
$PDMODE
 70
     0
  9
$PDSIZE
 40
0.0
  9
$PLINEWID
 40
0.0
  9
$COORDS
 70
     1
  9
$SPLFRAME
 70
     0
  9
$SPLINETYPE
 70
     6
  9
$SPLINESEGS
 70
     8
  9
$ATTDIA
 70
     1
  9
$ATTREQ
 70
     1
  9
$HANDLING
 70
     1
  9
$HANDSEED
  5
CE5
  9
$SURFTAB1
 70
     6
  9
$SURFTAB2
 70
     6
  9
$SURFTYPE
 70
     6
  9
$SURFU
 70
     6
  9
$SURFV
 70
     6
  9
$UCSNAME
  2

  9
$UCSORG
 10
0.0
 20
0.0
 30
0.0
  9
$UCSXDIR
 10
1.0
 20
0.0
 30
0.0
  9
$UCSYDIR
 10
0.0
 20
1.0
 30
0.0
  9
$PUCSNAME
  2

  9
$PUCSORG
 10
0.0
 20
0.0
 30
0.0
  9
$PUCSXDIR
 10
1.0
 20
0.0
 30
0.0
  9
$PUCSYDIR
 10
0.0
 20
1.0
 30
0.0
  9
$USERI1
 70
     0
  9
$USERI2
 70
     0
  9
$USERI3
 70
     0
  9
$USERI4
 70
     0
  9
$USERI5
 70
     0
  9
$USERR1
 40
0.0
  9
$USERR2
 40
0.0
  9
$USERR3
 40
0.0
  9
$USERR4
 40
0.0
  9
$USERR5
 40
0.0
  9
$WORLDVIEW
 70
     1
  9
$SHADEDGE
 70
     3
  9
$SHADEDIF
 70
    70
  9
$TILEMODE
 70
     1
  9
$MAXACTVP
 70
    16
  9
$PLIMCHECK
 70
     0
  9
$PEXTMIN
 10
1.0000000000000000E+20
 20
1.0000000000000000E+20
 30
1.0000000000000000E+20
  9
$PEXTMAX
 10
-1.0000000000000000E+20
 20
-1.0000000000000000E+20
 30
-1.0000000000000000E+20
  9
$PLIMMIN
 10
-6.2179210150568656
 20
-22.7995102156478389
  9
$PLIMMAX
 10
203.782078984943098
 20
274.2004897843521007
  9
$UNITMODE
 70
     0
  9
$VISRETAIN
 70
     0
  9
$PLINEGEN
 70
     0
  9
$PSLTSCALE
 70
     0
  0
ENDSEC
  0
SECTION
  2
TABLES
  0
TABLE
  2
VPORT
 70
     1
  0
VPORT
  2
*ACTIVE
 70
     0
 10
0.0
 20
0.0
 11
1.0
 21
1.0
 12
-1.0650179901148811
 22
-105.5102224825863999
 13
0.0
 23
0.0
 14
1.0
 24
1.0
 15
10.0
 25
10.0
 16
-0.0000000000001137
 26
0.0
 36
540.0046319783964464
 17
304.2266360142352255
 27
177.4897610488789894
 37
-9.140352921884201
 40
341.4986339239442259
 41
1.7852028639618129
 42
50.0
 43
0.0
 44
0.0
 50
0.0
 51
0.0
 71
     0
 72
  1500
 73
     1
 74
     0
 75
     0
 76
     0
 77
     0
 78
     0
  0
ENDTAB
  0
TABLE
  2
LTYPE
 70
     3
  0
LTYPE
  2
CONTINUOUS
 70
     0
  3
Solid line
 72
    65
 73
     0
 40
0.0
  0
LTYPE
  2
PHANTOM2
 70
     0
  3
Phantom (.5x) ___ _ _ ___ _ _ ___ _ _ ___ _ _
 72
    65
 73
     6
 40
1.25
 49
0.625
 49
-0.125
 49
0.125
 49
-0.125
 49
0.125
 49
-0.125
  0
LTYPE
  2
VERDECKT
 70
     0
  3
Verdeckt __ __ __ __ __ __ __ __ __ __ __ __ __
 72
    65
 73
     2
 40
0.375
 49
0.25
 49
-0.125
  0
ENDTAB
  0
TABLE
  2
LAYER
 70
     6
  0
LAYER
  2
0
 70
     0
 62
     7
  6
CONTINUOUS
  0
LAYER
  2
VOLL
 70
     0
 62
     1
  6
CONTINUOUS
  0
LAYER
  2
STEMPEL
 70
     0
 62
     3
  6
CONTINUOUS
  0
LAYER
  2
DEFPOINTS
 70
     0
 62
     7
  6
CONTINUOUS
  0
LAYER
  2
ADSK_ASSOC_ENTITY_BACKUPS
 70
     1
 62
    -7
  6
CONTINUOUS
  0
ENDTAB
  0
TABLE
  2
STYLE
 70
     3
  0
STYLE
  2
STANDARD
 70
     0
 40
0.0
 41
0.8
 50
0.0
 71
     0
 42
3.5
  3
simplex.shx
  4

  0
STYLE
  2
GREEKS
 70
     0
 40
0.0
 41
0.8
 50
0.0
 71
     0
 42
2.5
  3
SIMPLEX.shx
  4

  0
ENDTAB
  0
TABLE
  2
VIEW
 70
     0
  0
ENDTAB
  0
TABLE
  2
UCS
 70
     0
  0
ENDTAB
  0
TABLE
  2
APPID
 70
    11
  0
APPID
  2
ACAD
 70
     0
  0
APPID
  2
ACAD_NAV_VCDISPLAY
 70
     0
  0
APPID
  2
ACAD_MLEADERVER
 70
     0
  0
APPID
  2
ACAD_EXEMPT_FROM_CAD_STANDARDS
 70
     0
  0
APPID
  2
ACAD_PSEXT
 70
     0
  0
APPID
  2
ACAECLAYERSTANDARD
 70
     0
  0
APPID
  2
ACAUTHENVIRON
 70
     0
  0
APPID
  2
ACCMTRANSPARENCY
 70
     0
  0
APPID
  2
ACSYNERGY
 70
     0
  0
APPID
  2
SYNERGY_BODY_TBR_ID
 70
     0
  0
APPID
  2
ACAD_VIEW_EDGE_ID
 70
     0
  0
ENDTAB
  0
TABLE
  2
DIMSTYLE
 70
     1
  0
DIMSTYLE
  2
STANDARD
 70
     0
  3

  4

  5

  6

  7

 40
1.0
 41
0.18
 42
0.0625
 43
0.38
 44
0.18
 45
0.0
 46
0.0
 47
0.0
 48
0.0
140
0.18
141
0.09
142
0.0
143
25.3999999999999986
144
1.0
145
0.0
146
1.0
147
0.09
 71
     0
 72
     0
 73
     1
 74
     1
 75
     0
 76
     0
 77
     0
 78
     0
170
     0
171
     2
172
     0
173
     0
174
     0
175
     0
176
     0
177
     0
178
     0
  0
ENDTAB
  0
ENDSEC
  0
SECTION
  2
BLOCKS
  0
BLOCK
  8
0
  2
$MODEL_SPACE
 70
     0
 10
0.0
 20
0.0
 30
0.0
  3
$MODEL_SPACE
  1

  0
ENDBLK
  5
36
  8
0
  0
BLOCK
 67
     1
  8
0
  2
$PAPER_SPACE
 70
     0
 10
0.0
 20
0.0
 30
0.0
  3
$PAPER_SPACE
  1

  0
ENDBLK
  5
34
 67
     1
  8
0
  0
BLOCK
  8
0
  2
*S0
 70
     1
 10
0.0
 20
0.0
 30
0.0
  3
*S0
  1

  0
ENDBLK
  5
A3D
  8
0
  0
BLOCK
  8
0
  2
A$C6AC12AE6
 70
     0
 10
0.0
 20
0.0
 30
0.0
  3
A$C6AC12AE6
  1

  0
CIRCLE
  5
C45
  8
0
 10
79.7478186301407703
 20
175.5630993639865096
 30
-0.0000000000000142
 40
59.1346266195114012
  0
CIRCLE
  5
C46
  8
0
 10
79.7478186301407561
 20
175.5630993639865096
 30
-0.0000000000000178
 40
59.9999999999999787
  0
CIRCLE
  5
C47
  8
0
 10
79.7478186301407703
 20
175.5630993639865096
 30
-0.0000000000000142
 40
70.4617320717540139
  0
CIRCLE
  5
C48
  8
0
 10
79.7478186301407703
 20
175.5630993639865096
 30
-0.0000000000000142
 40
72.7584447974062272
  0
CIRCLE
  5
C49
  8
0
 10
79.7478186301407703
 20
175.5630993639865096
 30
-0.0000000000000213
 40
75.9999999999999574
  0
CIRCLE
  5
C4A
  8
0
  6
VERDECKT
 62
     1
 10
79.7478186301407703
 20
175.5630993639865096
 30
-0.0000000000000142
 40
61.6251133647407627
  0
CIRCLE
  5
C4B
  8
0
  6
VERDECKT
 62
     1
 10
79.7478186301407703
 20
175.5630993639865096
 30
-0.0000000000000213
 40
73.4999999999999858
  0
CIRCLE
  5
C4C
  8
0
  6
VERDECKT
 62
     1
 10
79.7478186301407561
 20
175.5630993639865096
 30
-0.0000000000000178
 40
62.5
  0
ENDBLK
  5
C4E
  8
0
  0
BLOCK
  8
0
  2
A$C3069E775
 70
     0
 10
0.0
 20
0.0
 30
0.0
  3
A$C3069E775
  1

  0
LINE
  5
C52
  8
0
 10
18.1227052653999898
 20
-65.0000000000000142
 30
0.0000000000000144
 11
141.3729319948814975
 21
-65.0000000000000426
 31
0.0000000000000144
210
0.0
220
1.0
230
-0.0000000000000002
  0
LINE
  5
C53
  8
0
 10
6.9893738327345574
 20
65.0000000000000426
 30
-0.0000000000000144
 11
152.5062634275469975
 21
64.9999999999999858
 31
-0.0000000000000144
210
0.0
220
1.0
230
-0.0000000000000002
  0
ARC
  5
C54
  8
0
 10
-31.7478186301376191
 20
-54.3669163278266865
 30
0.0
 40
14.4999999999968594
210
0.0
220
-0.0000000000000002
230
-1.0
 50
354.9999999999993179
 51
0.0000000000003689
  0
ARC
  5
C55
  8
0
 10
-127.7478186301513006
 20
-54.3669163278272123
 30
0.0
 40
14.4999999999894307
210
0.0
220
-0.0000000000000002
230
-1.0
 50
179.9999999999976978
 51
185.0000000000013074
  0
LINE
  5
C56
  8
0
 10
18.1227052653999898
 20
-65.0000000000000142
 30
0.0000000000000144
 11
17.3029955078104614
 21
-55.6306745976676496
 31
0.0000000000000124
210
0.0
220
1.0
230
-0.0000000000000002
  0
LINE
  5
C57
  8
0
 10
141.3729319948814975
 20
-65.0000000000000426
 30
0.0000000000000144
 11
142.1926417524709905
 21
-55.6306745976676709
 31
0.0000000000000124
210
0.0
220
1.0
230
-0.0000000000000002
  0
LINE
  5
C58
  8
0
 10
152.5062634275469975
 20
65.0
 30
-0.0000000000000144
 11
152.9370522412393996
 21
64.0761704077587524
 31
-0.0000000000000142
210
0.0
220
1.0
230
-0.0000000000000002
  0
LINE
  5
C59
  8
0
 10
6.9893738327345476
 20
65.0000000000000142
 30
-0.0000000000000144
 11
6.5585850190421464
 21
64.0761704077587666
 31
-0.0000000000000142
210
0.0
220
1.0
230
-0.0000000000000002
  0
ARC
  5
C5A
  8
0
 10
-33.7478186301417367
 20
51.3976225555357615
 30
0.0
 40
30.0000000000009095
210
0.0
220
-0.0000000000000002
230
-1.0
 50
360.0
 51
25.0000000000034213
  0
ARC
  5
C5B
  8
0
 10
-125.7478186301401024
 20
51.3976225555357829
 30
0.0
 40
30.0000000000006288
210
0.0
220
-0.0000000000000002
230
-1.0
 50
154.9999999999963052
 51
180.0000000000001137
  0
LINE
  5
C5C
  8
0
 10
155.7478186301406993
 20
51.3976225555356905
 30
-0.0000000000000114
 11
155.7478186301406993
 21
42.3795285892150986
 31
-0.0000000000000094
210
0.0
220
1.0
230
-0.0000000000000002
  0
LINE
  5
C5D
  8
0
 10
3.747818630140785
 20
51.3976225555357402
 30
-0.0000000000000114
 11
3.7478186301407832
 21
42.3795285892151483
 31
-0.0000000000000094
210
0.0
220
1.0
230
-0.0000000000000002
  0
ARC
  5
C5E
  8
0
 10
-33.7478186301407419
 20
42.3795285892151199
 30
0.0
 40
29.9999999999999716
210
0.0
220
-0.0000000000000002
230
-1.0
 50
311.4908168556518149
 51
0.0000000000000509
  0
ARC
  5
C5F
  8
0
 10
-125.7478186301405998
 20
42.3795285892151981
 30
0.0
 40
30.0000000000001705
210
0.0
220
-0.0000000000000002
230
-1.0
 50
180.0000000000001137
 51
228.5091831443480999
  0
ARC
  5
C60
  8
0
 10
-7.2478186301407792
 20
12.4170520560578694
 30
0.0
 40
9.9999999999999893
210
0.0
220
-0.0000000000000002
230
-1.0
 50
131.4908168556517865
 51
180.0
  0
ARC
  5
C61
  8
0
 10
-152.247818630140813
 20
12.4170520560578002
 30
0.0
 40
10.0000000000000497
210
0.0
220
-0.0000000000000002
230
-1.0
 50
0.0
 51
48.5091831443478227
  0
LINE
  5
C62
  8
0
 10
142.2478186301406993
 20
12.4170520560578392
 30
-0.0000000000000028
 11
142.2478186301406993
 21
-54.3669163278266296
 31
0.0000000000000121
210
0.0
220
1.0
230
-0.0000000000000002
  0
LINE
  5
C63
  8
0
 10
17.2478186301407597
 20
12.4170520560578606
 30
-0.0000000000000028
 11
17.247818630140749
 21
-54.3669163278266012
 31
0.0000000000000121
210
0.0
220
1.0
230
-0.0000000000000002
  0
LINE
  5
C64
  8
0
  6
VERDECKT
 62
     1
 10
20.6131920106293514
 20
-64.7821106431308635
 30
0.0000000000000144
 11
138.8824452496521076
 21
-64.782110643130892
 31
0.0000000000000144
210
0.0
220
1.0
230
-0.0000000000000002
  0
LINE
  5
C65
  8
0
  6
VERDECKT
 62
     1
 10
9.2860865583867849
 20
64.0098123767022429
 30
-0.0000000000000142
 11
150.2095507018948126
 21
64.009812376702186
 31
-0.0000000000000142
210
0.0
220
1.0
230
-0.0000000000000002
  0
LINE
  5
C66
  8
0
  6
VERDECKT
 62
     1
 10
138.8824452496521076
 20
-64.782110643130892
 30
0.0000000000000144
 11
141.3729319948814975
 21
-65.0000000000000568
 31
0.0000000000000144
210
0.0
220
1.0
230
-0.0000000000000002
  0
LINE
  5
C67
  8
0
  6
VERDECKT
 62
     1
 10
20.6131920106293514
 20
-64.7821106431308635
 30
0.0000000000000144
 11
18.1227052653999792
 21
-65.0000000000000142
 31
0.0000000000000144
210
0.0
220
1.0
230
-0.0000000000000002
  0
LINE
  5
C68
  8
0
  6
VERDECKT
 62
     1
 10
20.6131920106293585
 20
-64.7821106431308635
 30
0.0000000000000144
 11
19.7934822530398193
 21
-55.4127852407985131
 31
0.0000000000000123
210
0.0
220
1.0
230
-0.0000000000000002
  0
LINE
  5
C69
  8
0
  6
VERDECKT
 62
     1
 10
138.8824452496521076
 20
-64.782110643130892
 30
0.0000000000000144
 11
139.7021550072417142
 21
-55.4127852407985415
 31
0.0000000000000123
210
0.0
220
1.0
230
-0.0000000000000002
  0
ARC
  5
C6A
  8
0
  6
VERDECKT
 62
     1
 10
-31.7478186301373206
 20
-54.366916327826651
 30
0.0
 40
11.9999999999965592
210
0.0
220
-0.0000000000000002
230
-1.0
 50
354.9999999999986926
 51
0.0000000000001145
  0
ARC
  5
C6B
  8
0
  6
VERDECKT
 62
     1
 10
-127.747818630132997
 20
-54.3669163278261109
 30
0.0
 40
12.0000000000077396
210
0.0
220
-0.0000000000000002
230
-1.0
 50
180.0000000000025011
 51
184.9999999999992042
  0
LINE
  5
C6C
  8
0
  6
VERDECKT
 62
     1
 10
139.7478186301406993
 20
12.4170520560578392
 30
-0.0000000000000028
 11
139.7478186301406993
 21
-54.366916327826651
 31
0.0000000000000121
210
0.0
220
1.0
230
-0.0000000000000002
  0
LINE
  5
C6D
  8
0
  6
VERDECKT
 62
     1
 10
19.747818630140781
 20
12.4170520560578606
 30
-0.0000000000000028
 11
19.7478186301407597
 21
-54.3669163278266296
 31
0.0000000000000121
210
0.0
220
1.0
230
-0.0000000000000002
  0
ARC
  5
C6E
  8
0
  6
VERDECKT
 62
     1
 10
-7.2478186301406833
 20
12.4170520560578108
 30
0.0
 40
12.5000000000000906
210
0.0
220
-0.0000000000000002
230
-1.0
 50
131.4908168556519001
 51
179.9999999999996874
  0
ARC
  5
C6F
  8
0
  6
VERDECKT
 62
     1
 10
-152.2478186301408982
 20
12.4170520560577096
 30
0.0
 40
12.5000000000002292
210
0.0
220
-0.0000000000000002
230
-1.0
 50
0.0000000000005979
 51
48.5091831443478867
  0
ARC
  5
C70
  8
0
  6
VERDECKT
 62
     1
 10
-33.7478186301407774
 20
42.3795285892151625
 30
0.0
 40
27.5000000000000107
210
0.0
220
-0.0000000000000002
230
-1.0
 50
311.4908168556518149
 51
359.9999999999997726
  0
ARC
  5
C71
  8
0
  6
VERDECKT
 62
     1
 10
-125.7478186301407987
 20
42.3795285892150773
 30
0.0
 40
27.4999999999999289
210
0.0
220
-0.0000000000000002
230
-1.0
 50
180.0
 51
228.5091831443482135
  0
LINE
  5
C72
  8
0
  6
VERDECKT
 62
     1
 10
153.2478186301406993
 20
51.3976225555356905
 30
-0.0000000000000114
 11
153.2478186301406993
 21
42.3795285892150488
 31
-0.0000000000000094
210
0.0
220
1.0
230
-0.0000000000000002
  0
LINE
  5
C73
  8
0
  6
VERDECKT
 62
     1
 10
6.2478186301407854
 20
51.3976225555356976
 30
-0.0000000000000114
 11
6.2478186301407828
 21
42.3795285892150631
 31
-0.0000000000000094
210
0.0
220
1.0
230
-0.0000000000000002
  0
ARC
  5
C74
  8
0
  6
VERDECKT
 62
     1
 10
-33.7478186301407703
 20
51.3976225555357686
 30
0.0
 40
27.4999999999999716
210
0.0
220
-0.0000000000000002
230
-1.0
 50
359.9999999999997726
 51
24.9999999999996589
  0
ARC
  5
C75
  8
0
  6
VERDECKT
 62
     1
 10
-125.7478186301405003
 20
51.3976225555356478
 30
0.0
 40
27.5000000000002807
210
0.0
220
-0.0000000000000002
230
-1.0
 50
155.0000000000005116
 51
179.9999999999998863
  0
LINE
  5
C76
  8
0
  6
VERDECKT
 62
     1
 10
150.2095507018948126
 20
64.0098123767022145
 30
-0.0000000000000142
 11
150.6712827736486986
 21
63.0196247534048126
 31
-0.000000000000014
210
0.0
220
1.0
230
-0.0000000000000002
  0
LINE
  5
C77
  8
0
  6
VERDECKT
 62
     1
 10
9.2860865583867565
 20
64.0098123767022145
 30
-0.0000000000000142
 11
8.8243544866328421
 21
63.019624753404841
 31
-0.000000000000014
210
0.0
220
1.0
230
-0.0000000000000002
  0
LINE
  5
C78
  8
0
  6
VERDECKT
 62
     1
 10
9.2860865583867511
 20
64.0098123767022003
 30
-0.0000000000000142
 11
6.9893738327345369
 21
65.0
 31
-0.0000000000000144
210
0.0
220
1.0
230
-0.0000000000000002
  0
LINE
  5
C79
  8
0
  6
VERDECKT
 62
     1
 10
150.2095507018948126
 20
64.0098123767021718
 30
-0.0000000000000142
 11
152.5062634275469975
 21
64.9999999999999858
 31
-0.0000000000000144
210
0.0
220
1.0
230
-0.0000000000000002
  0
ENDBLK
  5
C7B
  8
0
  0
ENDSEC
  0
SECTION
  2
ENTITIES
  0
TEXT
  5
8F
  8
VOLL
 10
78.076754716981128
 20
31.025947764705851
 30
0.0
 40
1.8
  1

  7
GREEKS
  0
INSERT
  5
A3F
  8
ADSK_ASSOC_ENTITY_BACKUPS
  2
*S0
 10
0.0
 20
0.0
 30
0.0
  0
INSERT
  5
C4F
  8
STEMPEL
  2
A$C6AC12AE6
 10
227.7594114331760977
 20
-197.1063203627115001
 30
0.0000000000000213
  0
INSERT
  5
C7C
  8
STEMPEL
  2
A$C3069E775
 10
225.4939701365204883
 20
176.5010775001474883
 30
-18.28070584376837
  0
VIEWPORT
  5
935
 67
     1
  8
0
 10
98.7820789849431264
 20
125.7004897843521007
 30
0.0
 40
533.9969448798290159
 41
299.1239570917758783
 68
     1
 69
     1
1001
ACAD
1000
MVIEW
1002
{
1070
    16
1010
0.0
1020
0.0
1030
0.0
1010
0.0
1020
0.0
1030
1.0
1040
0.0
1040
299.1239570917758783
1040
98.7820789849431264
1040
125.7004897843521007
1040
50.0
1040
0.0
1040
0.0
1070
     0
1070
  1500
1070
     1
1070
     1
1070
     0
1070
     0
1070
     0
1070
     0
1040
0.0
1040
0.0
1040
0.0
1040
10.0
1040
10.0
1040
10.0
1040
10.0
1070
     0
1002
{
1002
}
1002
}
  0
ENDSEC
  0
EOF
