  0
SECTION
  2
HEADER
  9
$ACADVER
  1
AC1009
  9
$INSBASE
 10
0.0
 20
0.0
 30
0.0
  9
$EXTMIN
 10
456.9704676285942924
 20
160.4907878924827003
 30
0.0000000000000641
  9
$EXTMAX
 10
575.9701217161631348
 20
398.632195820674724
 30
0.0000000000000883
  9
$LIMMIN
 10
0.0
 20
0.0
  9
$LIMMAX
 10
210.0
 20
297.0
  9
$ORTHOMODE
 70
     1
  9
$REGENMODE
 70
     1
  9
$FILLMODE
 70
     1
  9
$QTEXTMODE
 70
     0
  9
$MIRRTEXT
 70
     1
  9
$DRAGMODE
 70
     2
  9
$LTSCALE
 40
10.0
  9
$OSMODE
 70
  2495
  9
$ATTMODE
 70
     1
  9
$TEXTSIZE
 40
3.5
  9
$TRACEWID
 40
0.5
  9
$TEXTSTYLE
  7
STANDARD
  9
$CLAYER
  8
STEMPEL
  9
$CELTYPE
  6
BYLAYER
  9
$CECOLOR
 62
   256
  9
$DIMSCALE
 40
1.0
  9
$DIMASZ
 40
3.5
  9
$DIMEXO
 40
1.0
  9
$DIMDLI
 40
7.0
  9
$DIMRND
 40
0.0
  9
$DIMDLE
 40
0.0
  9
$DIMEXE
 40
1.0
  9
$DIMTP
 40
0.0
  9
$DIMTM
 40
0.0
  9
$DIMTXT
 40
3.5
  9
$DIMCEN
 40
1.5
  9
$DIMTSZ
 40
0.0
  9
$DIMTOL
 70
     0
  9
$DIMLIM
 70
     0
  9
$DIMTIH
 70
     0
  9
$DIMTOH
 70
     0
  9
$DIMSE1
 70
     0
  9
$DIMSE2
 70
     0
  9
$DIMTAD
 70
     1
  9
$DIMZIN
 70
     8
  9
$DIMBLK
  1

  9
$DIMASO
 70
     1
  9
$DIMSHO
 70
     0
  9
$DIMPOST
  1

  9
$DIMAPOST
  1

  9
$DIMALT
 70
     0
  9
$DIMALTD
 70
     2
  9
$DIMALTF
 40
25.3999999999999986
  9
$DIMLFAC
 40
1.0
  9
$DIMTOFL
 70
     1
  9
$DIMTVP
 40
0.0
  9
$DIMTIX
 70
     0
  9
$DIMSOXD
 70
     0
  9
$DIMSAH
 70
     0
  9
$DIMBLK1
  1

  9
$DIMBLK2
  1

  9
$DIMSTYLE
  2
STANDARD
  9
$DIMCLRD
 70
     0
  9
$DIMCLRE
 70
     0
  9
$DIMCLRT
 70
     1
  9
$DIMTFAC
 40
0.5
  9
$DIMGAP
 40
1.5
  9
$LUNITS
 70
     2
  9
$LUPREC
 70
     2
  9
$SKETCHINC
 40
1.0
  9
$FILLETRAD
 40
0.0
  9
$AUNITS
 70
     0
  9
$AUPREC
 70
     0
  9
$MENU
  1
ACAD
  9
$ELEVATION
 40
0.0
  9
$PELEVATION
 40
0.0
  9
$THICKNESS
 40
0.0
  9
$LIMCHECK
 70
     0
  9
$BLIPMODE
 70
     0
  9
$CHAMFERA
 40
0.0
  9
$CHAMFERB
 40
0.0
  9
$SKPOLY
 70
     0
  9
$TDCREATE
 40
2455397.8646990740671754
  9
$TDUPDATE
 40
2459228.615914351772517
  9
$TDINDWG
 40
0.1318327778
  9
$TDUSRTIMER
 40
0.1318327778
  9
$USRTIMER
 70
     1
  9
$ANGBASE
 50
0.0
  9
$ANGDIR
 70
     0
  9
$PDMODE
 70
     0
  9
$PDSIZE
 40
0.0
  9
$PLINEWID
 40
0.0
  9
$COORDS
 70
     1
  9
$SPLFRAME
 70
     0
  9
$SPLINETYPE
 70
     6
  9
$SPLINESEGS
 70
     8
  9
$ATTDIA
 70
     1
  9
$ATTREQ
 70
     1
  9
$HANDLING
 70
     1
  9
$HANDSEED
  5
1379
  9
$SURFTAB1
 70
     6
  9
$SURFTAB2
 70
     6
  9
$SURFTYPE
 70
     6
  9
$SURFU
 70
     6
  9
$SURFV
 70
     6
  9
$UCSNAME
  2

  9
$UCSORG
 10
0.0
 20
0.0
 30
0.0
  9
$UCSXDIR
 10
1.0
 20
0.0
 30
0.0
  9
$UCSYDIR
 10
0.0
 20
1.0
 30
0.0
  9
$PUCSNAME
  2

  9
$PUCSORG
 10
0.0
 20
0.0
 30
0.0
  9
$PUCSXDIR
 10
1.0
 20
0.0
 30
0.0
  9
$PUCSYDIR
 10
0.0
 20
1.0
 30
0.0
  9
$USERI1
 70
     0
  9
$USERI2
 70
     0
  9
$USERI3
 70
     0
  9
$USERI4
 70
     0
  9
$USERI5
 70
     0
  9
$USERR1
 40
0.0
  9
$USERR2
 40
0.0
  9
$USERR3
 40
0.0
  9
$USERR4
 40
0.0
  9
$USERR5
 40
0.0
  9
$WORLDVIEW
 70
     1
  9
$SHADEDGE
 70
     3
  9
$SHADEDIF
 70
    70
  9
$TILEMODE
 70
     1
  9
$MAXACTVP
 70
    16
  9
$PLIMCHECK
 70
     0
  9
$PEXTMIN
 10
1.0000000000000000E+20
 20
1.0000000000000000E+20
 30
1.0000000000000000E+20
  9
$PEXTMAX
 10
-1.0000000000000000E+20
 20
-1.0000000000000000E+20
 30
-1.0000000000000000E+20
  9
$PLIMMIN
 10
12.6381543614764702
 20
0.6850895614144826
  9
$PLIMMAX
 10
222.6381543614764951
 20
297.6850895614144861
  9
$UNITMODE
 70
     0
  9
$VISRETAIN
 70
     0
  9
$PLINEGEN
 70
     0
  9
$PSLTSCALE
 70
     0
  0
ENDSEC
  0
SECTION
  2
TABLES
  0
TABLE
  2
VPORT
 70
     1
  0
VPORT
  2
*ACTIVE
 70
     0
 10
0.0
 20
0.0
 11
1.0
 21
1.0
 12
-150.7794484037723919
 22
59.5708807350068668
 13
0.0
 23
0.0
 14
1.0
 24
1.0
 15
10.0
 25
10.0
 16
-0.0000000000002274
 26
0.0
 36
1094.8855298927139756
 17
667.2497430761510486
 27
219.9906111215719022
 37
-26.7418000060994885
 40
239.8444454103959913
 41
1.7852028639618129
 42
50.0
 43
0.0
 44
0.0
 50
0.0
 51
0.0
 71
     0
 72
  1500
 73
     1
 74
     0
 75
     0
 76
     0
 77
     0
 78
     0
  0
ENDTAB
  0
TABLE
  2
LTYPE
 70
     5
  0
LTYPE
  2
CONTINUOUS
 70
     0
  3
Solid line
 72
    65
 73
     0
 40
0.0
  0
LTYPE
  2
PHANTOM2
 70
     0
  3
Phantom (.5x) ___ _ _ ___ _ _ ___ _ _ ___ _ _
 72
    65
 73
     6
 40
1.25
 49
0.625
 49
-0.125
 49
0.125
 49
-0.125
 49
0.125
 49
-0.125
  0
LTYPE
  2
VERDECKT
 70
     0
  3
Verdeckt __ __ __ __ __ __ __ __ __ __ __ __ __
 72
    65
 73
     2
 40
0.375
 49
0.25
 49
-0.125
  0
ENDTAB
  0
TABLE
  2
LAYER
 70
    11
  0
LAYER
  2
0
 70
     0
 62
     7
  6
CONTINUOUS
  0
LAYER
  2
VOLL
 70
     0
 62
     1
  6
CONTINUOUS
  0
LAYER
  2
STEMPEL
 70
     0
 62
     3
  6
CONTINUOUS
  0
LAYER
  2
ADSK_ASSOC_ENTITY_BACKUPS
 70
     1
 62
    -7
  6
CONTINUOUS
  0
LAYER
  2
DEFPOINTS
 70
     0
 62
     7
  6
CONTINUOUS
  0
ENDTAB
  0
TABLE
  2
STYLE
 70
     4
  0
STYLE
  2
STANDARD
 70
     0
 40
0.0
 41
0.8
 50
0.0
 71
     0
 42
3.5
  3
simplex.shx
  4

  0
STYLE
  2
GREEKS
 70
     0
 40
0.0
 41
0.8
 50
0.0
 71
     0
 42
2.5
  3
SIMPLEX.shx
  4

  0
ENDTAB
  0
TABLE
  2
VIEW
 70
     1
  0
ENDTAB
  0
TABLE
  2
UCS
 70
     0
  0
ENDTAB
  0
TABLE
  2
APPID
 70
    16
  0
APPID
  2
ACAD
 70
     0
  0
APPID
  2
ACAD_NAV_VCDISPLAY
 70
     0
  0
APPID
  2
ACAD_MLEADERVER
 70
     0
  0
APPID
  2
ACAD_EXEMPT_FROM_CAD_STANDARDS
 70
     0
  0
APPID
  2
ACAD_PSEXT
 70
     0
  0
APPID
  2
ACAECLAYERSTANDARD
 70
     0
  0
APPID
  2
ACAUTHENVIRON
 70
     0
  0
APPID
  2
ACCMTRANSPARENCY
 70
     0
  0
APPID
  2
ACSYNERGY
 70
     0
  0
APPID
  2
SYNERGY_BODY_TBR_ID
 70
     0
  0
APPID
  2
ACAD_VIEW_EDGE_ID
 70
     0
  0
APPID
  2
ACAD_DSTYLE_DIMJAG
 70
     0
  0
APPID
  2
ACAD_DSTYLE_DIMTALN
 70
     0
  0
APPID
  2
ACADANNOMONITORALERTICONDI
 70
     0
  0
APPID
  2
ACAD_STEPID
 70
     0
  0
APPID
  2
AcDbAttr
 70
     0
  0
ENDTAB
  0
TABLE
  2
DIMSTYLE
 70
     2
  0
DIMSTYLE
  2
STANDARD
 70
     0
  3

  4

  5

  6

  7

 40
1.0
 41
0.18
 42
0.0625
 43
0.38
 44
0.18
 45
0.0
 46
0.0
 47
0.0
 48
0.0
140
0.18
141
0.09
142
0.0
143
25.3999999999999986
144
1.0
145
0.0
146
1.0
147
0.09
 71
     0
 72
     0
 73
     1
 74
     1
 75
     0
 76
     0
 77
     0
 78
     0
170
     0
171
     2
172
     0
173
     0
174
     0
175
     0
176
     0
177
     0
178
     0
  0
ENDTAB
  0
ENDSEC
  0
SECTION
  2
BLOCKS
  0
BLOCK
  8
0
  2
$MODEL_SPACE
 70
     0
 10
0.0
 20
0.0
 30
0.0
  3
$MODEL_SPACE
  1

  0
ENDBLK
  5
36
  8
0
  0
BLOCK
 67
     1
  8
0
  2
$PAPER_SPACE
 70
     0
 10
0.0
 20
0.0
 30
0.0
  3
$PAPER_SPACE
  1

  0
ENDBLK
  5
34
 67
     1
  8
0
  0
BLOCK
  8
0
  2
*S4
 70
     1
 10
0.0
 20
0.0
 30
0.0
  3
*S4
  1

  0
ENDBLK
  5
A63
  8
0
  0
BLOCK
  8
0
  2
A$C7283DEE1
 70
     0
 10
0.0
 20
0.0
 30
0.0
  3
A$C7283DEE1
  1

  0
CIRCLE
  5
12ED
  8
0
 10
362.1615915585722973
 20
215.6081352233867108
 30
0.0000000000000853
 40
52.1327239685574568
  0
CIRCLE
  5
12EE
  8
0
 10
362.1615915585722973
 20
215.6081352233867108
 30
0.0000000000000853
 40
53.0
  0
CIRCLE
  5
12EF
  8
0
 10
362.1615915585722973
 20
215.6081352233867108
 30
0.0000000000000853
 40
54.445829223333142
  0
CIRCLE
  5
12F0
  8
0
 10
362.1615915585722973
 20
215.6081352233867108
 30
0.0000000000000853
 40
56.2584447974065824
  0
CIRCLE
  5
12F1
  8
0
 10
362.1615915585722973
 20
215.6081352233867108
 30
0.0000000000000853
 40
59.4998270437844212
  0
CIRCLE
  5
12F2
  8
0
  6
VERDECKT
 62
     1
 10
362.1615915585722973
 20
215.6081352233867108
 30
0.0000000000000853
 40
57.5
  0
CIRCLE
  5
12F3
  8
0
  6
VERDECKT
 62
     1
 10
362.1615915585722973
 20
215.6081352233867108
 30
0.0000000000000853
 40
54.9999999999998934
  0
CIRCLE
  5
12F4
  8
0
  6
VERDECKT
 62
     1
 10
362.1615915585722973
 20
215.6081352233867108
 30
0.0000000000000853
 40
54.1251133647408622
  0
ENDBLK
  5
12F6
  8
0
  0
BLOCK
  8
0
  2
A$C31D96C11
 70
     0
 10
0.0
 20
0.0
 30
0.0
  3
A$C31D96C11
  1

  0
LINE
  5
12FA
  8
0
 10
305.9031467611657149
 20
52.2890279205872517
 30
-0.0000000000000116
 11
418.4200363559788229
 21
52.2890279205872517
 31
-0.0000000000000116
210
0.0
220
1.0
230
-0.0000000000000002
  0
LINE
  5
12FB
  8
0
 10
308.0364781938313854
 20
-45.7109720794130183
 30
0.0000000000000101
 11
416.2867049233129819
 21
-45.7109720794130183
 31
0.0000000000000101
210
0.0
220
1.0
230
-0.0000000000000002
  0
ARC
  5
12FC
  8
0
 10
-302.7912739410306244
 20
39.6219367964562892
 30
0.0
 40
0.1000000004029636
210
0.0
220
-0.0000000000000002
230
-1.0
 50
0.1253583867049886
 51
1.67391615928088
  0
ARC
  5
12FD
  8
0
 10
-421.5319091761137997
 20
39.6219367964562892
 30
0.0
 40
0.1000000004029638
210
0.0
220
-0.0000000000000002
230
-1.0
 50
178.3260838407190931
 51
179.8746416132950117
  0
ARC
  5
12FE
  8
0
 10
-332.5463034326670027
 20
38.7523858297930985
 30
0.0
 40
29.8677325128362696
210
0.0
220
-0.0000000000000002
230
-1.0
 50
1.673916163160851
 51
24.9999999999809113
  0
ARC
  5
12FF
  8
0
 10
-391.7768796844774215
 20
38.7523858297930985
 30
0.0
 40
29.8677325128362696
210
0.0
220
-0.0000000000000002
230
-1.0
 50
155.0000000000190141
 51
178.3260838368391035
  0
LINE
  5
1300
  8
0
 10
421.631908937167907
 20
39.6221555879419114
 30
-0.0000000000000088
 11
421.6613570947063749
 21
26.1627251874062203
 31
-0.0000000000000058
210
0.0
220
1.0
230
-0.0000000000000002
  0
LINE
  5
1301
  8
0
 10
302.6912741799765172
 20
39.6221555879419114
 30
-0.0000000000000088
 11
302.6618260224381061
 21
26.1627251874062203
 31
-0.0000000000000058
210
0.0
220
1.0
230
-0.0000000000000002
  0
LINE
  5
1302
  8
0
 10
418.4200363559788229
 20
52.2890279205872588
 30
-0.0000000000000116
 11
418.8462382419928076
 21
51.3750350264951265
 31
-0.0000000000000114
210
0.0
220
1.0
230
-0.0000000000000002
  0
LINE
  5
1303
  8
0
 10
305.9031467611657149
 20
52.2890279205872588
 30
-0.0000000000000116
 11
305.4769448751516165
 21
51.3750350264951265
 31
-0.0000000000000114
210
0.0
220
1.0
230
-0.0000000000000002
  0
ARC
  5
1304
  8
0
 10
-328.3596741407009745
 20
26.1065003504503004
 30
0.0
 40
25.6979096259132085
210
0.0
220
-0.0000000000000002
230
-1.0
 50
329.8477006797670015
 51
0.1253583843373709
  0
ARC
  5
1305
  8
0
 10
-395.9635089764433928
 20
26.106500350450311
 30
0.0
 40
25.6979096259132191
210
0.0
220
-0.0000000000000002
230
-1.0
 50
179.8746416156625969
 51
210.1522993202329985
  0
ARC
  5
1306
  8
0
 10
-299.6029003393213088
 20
9.4016935791211793
 30
0.0
 40
7.5587078919757547
210
0.0
220
-0.0000000000000002
230
-1.0
 50
149.8477006797670015
 51
179.8796580013234063
  0
ARC
  5
1307
  8
0
 10
-424.7202827778236838
 20
9.4016935791210798
 30
0.0
 40
7.558707891976379
210
0.0
220
-0.0000000000000002
230
-1.0
 50
0.1203419986772545
 51
30.1522993202308989
  0
LINE
  5
1308
  8
0
 10
417.1615915585721837
 20
9.4175696061872731
 30
-0.0000000000000021
 11
417.1615915585721837
 21
-35.1870407645106482
 31
0.0000000000000078
210
0.0
220
1.0
230
-0.0000000000000002
  0
LINE
  5
1309
  8
0
 10
307.1615915585721837
 20
9.4175696061872731
 30
-0.0000000000000021
 11
307.1615915585721837
 21
-35.1870407645106482
 31
0.0000000000000078
210
0.0
220
1.0
230
-0.0000000000000002
  0
ARC
  5
130A
  8
0
 10
-319.1615915586583014
 20
-35.1870407645084811
 30
0.0
 40
12.0000000000860592
210
0.0
220
-0.0000000000000002
230
-1.0
 50
355.0000000000060822
 51
359.9999999999897113
  0
ARC
  5
130B
  8
0
 10
-405.1615915584861796
 20
-35.1870407645084811
 30
0.0
 40
12.0000000000860592
210
0.0
220
-0.0000000000000002
230
-1.0
 50
180.0000000000102887
 51
184.9999999999936904
  0
LINE
  5
130C
  8
0
 10
308.0364781938313854
 20
-45.7109720794130112
 30
0.0000000000000101
 11
307.2072551814716235
 21
-36.2329096774865889
 31
0.000000000000008
210
0.0
220
1.0
230
-0.0000000000000002
  0
LINE
  5
130D
  8
0
 10
416.2867049233129819
 20
-45.7109720794130112
 30
0.0000000000000101
 11
417.1159279356729144
 21
-36.2329096774865889
 31
0.000000000000008
210
0.0
220
1.0
230
-0.0000000000000002
  0
LINE
  5
130E
  8
0
  6
VERDECKT
 62
     1
 10
310.0288675900147837
 20
-45.536660593917567
 30
0.0000000000000101
 11
414.2943155271295836
 21
-45.536660593917567
 31
0.0000000000000101
210
0.0
220
1.0
230
-0.0000000000000002
  0
LINE
  5
130F
  8
0
  6
VERDECKT
 62
     1
 10
307.7157623352391056
 20
51.4437913971056986
 30
-0.0000000000000114
 11
416.6074207819053186
 21
51.4437913971056986
 31
-0.0000000000000114
210
0.0
220
1.0
230
-0.0000000000000002
  0
LINE
  5
1310
  8
0
  6
VERDECKT
 62
     1
 10
310.0288675900147837
 20
-45.536660593917567
 30
0.0000000000000101
 11
309.1996445776547944
 21
-36.0585981919887004
 31
0.000000000000008
210
0.0
220
1.0
230
-0.0000000000000002
  0
LINE
  5
1311
  8
0
  6
VERDECKT
 62
     1
 10
414.2943155271295836
 20
-45.536660593917567
 30
0.0000000000000101
 11
415.1235385394896866
 21
-36.0585981919887004
 31
0.000000000000008
210
0.0
220
1.0
230
-0.0000000000000002
  0
ARC
  5
1312
  8
0
  6
VERDECKT
 62
     1
 10
-319.1615915585406924
 20
-35.187040764513398
 30
0.0
 40
9.9999999999684501
210
0.0
220
-0.0000000000000002
230
-1.0
 50
354.9999999999914735
 51
0.0000000000033841
  0
ARC
  5
1313
  8
0
  6
VERDECKT
 62
     1
 10
-405.1615915586037886
 20
-35.187040764513398
 30
0.0
 40
9.9999999999684501
210
0.0
220
-0.0000000000000002
230
-1.0
 50
179.9999999999965894
 51
185.0000000000084128
  0
LINE
  5
1314
  8
0
  6
VERDECKT
 62
     1
 10
415.1615915585721837
 20
9.4175696061871594
 30
-0.0000000000000021
 11
415.1615915585721837
 21
-35.1870407645128083
 31
0.0000000000000078
210
0.0
220
1.0
230
-0.0000000000000002
  0
LINE
  5
1315
  8
0
  6
VERDECKT
 62
     1
 10
309.1615915585721837
 20
9.4175696061871594
 30
-0.0000000000000021
 11
309.1615915585721837
 21
-35.1870407645128083
 31
0.0000000000000078
210
0.0
220
1.0
230
-0.0000000000000002
  0
ARC
  5
1316
  8
0
  6
VERDECKT
 62
     1
 10
-299.6615915585667835
 20
9.4175696061875556
 30
0.0
 40
9.5000000000054001
210
0.0
220
-0.0000000000000002
230
-1.0
 50
149.7273586810997017
 51
180.0000000000023022
  0
ARC
  5
1317
  8
0
  6
VERDECKT
 62
     1
 10
-424.6615915585775838
 20
9.4175696061875538
 30
0.0
 40
9.5000000000054001
210
0.0
220
-0.0000000000000002
230
-1.0
 50
359.9999999999976126
 51
30.2726413189002095
  0
ARC
  5
1318
  8
0
  6
VERDECKT
 62
     1
 10
-328.1615915585923062
 20
26.053374365808569
 30
0.0
 40
23.5000000000200089
210
0.0
220
-0.0000000000000002
230
-1.0
 50
329.7273586811033965
 51
359.99999999997641
  0
ARC
  5
1319
  8
0
  6
VERDECKT
 62
     1
 10
-396.1615915585521748
 20
26.0533743658085797
 30
0.0
 40
23.5000000000200586
210
0.0
220
-0.0000000000000002
230
-1.0
 50
180.0000000000235048
 51
210.2726413188964045
  0
LINE
  5
131A
  8
0
  6
VERDECKT
 62
     1
 10
419.6319107697584059
 20
39.6191300756588376
 30
-0.0000000000000088
 11
419.6615915585721837
 21
26.0533743657989092
 31
-0.0000000000000058
210
0.0
220
1.0
230
-0.0000000000000002
  0
LINE
  5
131B
  8
0
  6
VERDECKT
 62
     1
 10
304.6912723473860183
 20
39.6191300756588376
 30
-0.0000000000000088
 11
304.6615915585721837
 21
26.0533743657989092
 31
-0.0000000000000058
210
0.0
220
1.0
230
-0.0000000000000002
  0
ARC
  5
131C
  8
0
  6
VERDECKT
 62
     1
 10
-329.0264004270758278
 20
39.5658867611889917
 30
0.0
 40
24.3351863256775403
210
0.0
220
-0.0000000000000002
230
-1.0
 50
0.1253583843352845
 51
24.3921034723063492
  0
ARC
  5
131D
  8
0
  6
VERDECKT
 62
     1
 10
-395.2967826900687101
 20
39.5658867611889917
 30
0.0
 40
24.3351863256775403
210
0.0
220
-0.0000000000000002
230
-1.0
 50
155.6078965276936117
 51
179.8746416156647001
  0
LINE
  5
131E
  8
0
  6
VERDECKT
 62
     1
 10
416.6074207819053754
 20
51.4437913971057199
 30
-0.0000000000000114
 11
417.4598245539335721
 21
49.6158056089219102
 31
-0.000000000000011
210
0.0
220
1.0
230
-0.0000000000000002
  0
LINE
  5
131F
  8
0
  6
VERDECKT
 62
     1
 10
307.7157623352391056
 20
51.4437913971057199
 30
-0.0000000000000114
 11
306.8633585632109089
 21
49.6158056089219102
 31
-0.000000000000011
210
0.0
220
1.0
230
-0.0000000000000002
  0
LINE
  5
1320
  8
0
  6
VERDECKT
 62
     1
 10
307.7157623352391056
 20
51.4437913971056986
 30
-0.0000000000000114
 11
305.9031467611657149
 21
52.2890279205872517
 31
-0.0000000000000116
210
0.0
220
1.0
230
-0.0000000000000002
  0
LINE
  5
1321
  8
0
  6
VERDECKT
 62
     1
 10
416.6074207819053186
 20
51.4437913971056986
 30
-0.0000000000000114
 11
418.4200363559788229
 21
52.2890279205872517
 31
-0.0000000000000116
210
0.0
220
1.0
230
-0.0000000000000002
  0
LINE
  5
1322
  8
0
  6
VERDECKT
 62
     1
 10
414.2943155271295836
 20
-45.5366605939175528
 30
0.0000000000000101
 11
416.2867049233129819
 21
-45.710972079412997
 31
0.0000000000000101
210
0.0
220
1.0
230
-0.0000000000000002
  0
LINE
  5
1323
  8
0
  6
VERDECKT
 62
     1
 10
310.0288675900147837
 20
-45.5366605939175528
 30
0.0000000000000101
 11
308.0364781938313854
 21
-45.710972079412997
 31
0.0000000000000101
210
0.0
220
1.0
230
-0.0000000000000002
  0
ENDBLK
  5
1325
  8
0
  0
ENDSEC
  0
SECTION
  2
ENTITIES
  0
TEXT
  5
8F
  8
VOLL
 10
78.076754716981128
 20
31.025947764705851
 30
0.0
 40
1.8
  1

  7
GREEKS
  0
INSERT
  5
A65
  8
ADSK_ASSOC_ENTITY_BACKUPS
  2
*S4
 10
0.0
 20
0.0
 30
0.0
  0
INSERT
  5
12F7
  8
STEMPEL
  2
A$C7283DEE1
 10
154.3087031138065015
 20
4.3824797128804667
 30
0.0
  0
INSERT
  5
1326
  8
STEMPEL
  2
A$C31D96C11
 10
154.3087031138065015
 20
346.3431679000875079
 30
0.0000000000000782
  0
VIEWPORT
  5
928
 67
     1
  8
0
 10
117.6381543614763956
 20
149.1850895614144008
 30
0.0
 40
533.9969448798290159
 41
299.1239570917758783
 68
     1
 69
     1
1001
ACAD
1000
MVIEW
1002
{
1070
    16
1010
0.0
1020
0.0
1030
0.0
1010
0.0
1020
0.0
1030
1.0
1040
0.0
1040
299.1239570917758783
1040
117.6381543614763956
1040
149.1850895614144008
1040
50.0
1040
0.0
1040
0.0
1070
     0
1070
  1500
1070
     1
1070
     1
1070
     0
1070
     0
1070
     0
1070
     0
1040
0.0
1040
0.0
1040
0.0
1040
10.0
1040
10.0
1040
10.0
1040
10.0
1070
     0
1002
{
1002
}
1002
}
  0
ENDSEC
  0
EOF
