  0
SECTION
  2
HEADER
  9
$ACADVER
  1
AC1009
  9
$INSBASE
 10
0.0
 20
0.0
 30
0.0
  9
$EXTMIN
 10
-55.0080865412112416
 20
-210.0154712316760026
 30
-0.0000000000000505
  9
$EXTMAX
 10
56.2307743637716229
 20
180.0053568792127123
 30
0.0000000000000105
  9
$LIMMIN
 10
0.0
 20
0.0
  9
$LIMMAX
 10
210.0
 20
297.0
  9
$ORTHOMODE
 70
     1
  9
$REGENMODE
 70
     1
  9
$FILLMODE
 70
     1
  9
$QTEXTMODE
 70
     0
  9
$MIRRTEXT
 70
     1
  9
$DRAGMODE
 70
     2
  9
$LTSCALE
 40
10.0
  9
$OSMODE
 70
  2559
  9
$ATTMODE
 70
     1
  9
$TEXTSIZE
 40
3.5
  9
$TRACEWID
 40
0.5
  9
$TEXTSTYLE
  7
STANDARD
  9
$CLAYER
  8
STEMPEL
  9
$CELTYPE
  6
BYLAYER
  9
$CECOLOR
 62
   256
  9
$DIMSCALE
 40
1.0
  9
$DIMASZ
 40
3.5
  9
$DIMEXO
 40
1.0
  9
$DIMDLI
 40
7.0
  9
$DIMRND
 40
0.0
  9
$DIMDLE
 40
0.0
  9
$DIMEXE
 40
1.0
  9
$DIMTP
 40
2.0
  9
$DIMTM
 40
1.0
  9
$DIMTXT
 40
3.5
  9
$DIMCEN
 40
1.5
  9
$DIMTSZ
 40
0.0
  9
$DIMTOL
 70
     0
  9
$DIMLIM
 70
     0
  9
$DIMTIH
 70
     0
  9
$DIMTOH
 70
     0
  9
$DIMSE1
 70
     0
  9
$DIMSE2
 70
     0
  9
$DIMTAD
 70
     1
  9
$DIMZIN
 70
     8
  9
$DIMBLK
  1

  9
$DIMASO
 70
     1
  9
$DIMSHO
 70
     0
  9
$DIMPOST
  1

  9
$DIMAPOST
  1

  9
$DIMALT
 70
     0
  9
$DIMALTD
 70
     2
  9
$DIMALTF
 40
25.3999999999999986
  9
$DIMLFAC
 40
1.0
  9
$DIMTOFL
 70
     1
  9
$DIMTVP
 40
0.0
  9
$DIMTIX
 70
     0
  9
$DIMSOXD
 70
     0
  9
$DIMSAH
 70
     0
  9
$DIMBLK1
  1

  9
$DIMBLK2
  1

  9
$DIMSTYLE
  2
STANDARD
  9
$DIMCLRD
 70
     0
  9
$DIMCLRE
 70
     0
  9
$DIMCLRT
 70
     1
  9
$DIMTFAC
 40
0.5
  9
$DIMGAP
 40
1.5
  9
$LUNITS
 70
     2
  9
$LUPREC
 70
     2
  9
$SKETCHINC
 40
1.0
  9
$FILLETRAD
 40
0.0
  9
$AUNITS
 70
     0
  9
$AUPREC
 70
     0
  9
$MENU
  1
ACAD
  9
$ELEVATION
 40
0.0
  9
$PELEVATION
 40
0.0
  9
$THICKNESS
 40
0.0
  9
$LIMCHECK
 70
     0
  9
$BLIPMODE
 70
     0
  9
$CHAMFERA
 40
0.0
  9
$CHAMFERB
 40
0.0
  9
$SKPOLY
 70
     0
  9
$TDCREATE
 40
2455397.8646990740671754
  9
$TDUPDATE
 40
2458376.3364930548705161
  9
$TDINDWG
 40
0.1492734144
  9
$TDUSRTIMER
 40
0.1492734144
  9
$USRTIMER
 70
     1
  9
$ANGBASE
 50
0.0
  9
$ANGDIR
 70
     0
  9
$PDMODE
 70
     0
  9
$PDSIZE
 40
0.0
  9
$PLINEWID
 40
0.0
  9
$COORDS
 70
     1
  9
$SPLFRAME
 70
     0
  9
$SPLINETYPE
 70
     6
  9
$SPLINESEGS
 70
     8
  9
$ATTDIA
 70
     1
  9
$ATTREQ
 70
     1
  9
$HANDLING
 70
     1
  9
$HANDSEED
  5
1500
  9
$SURFTAB1
 70
     6
  9
$SURFTAB2
 70
     6
  9
$SURFTYPE
 70
     6
  9
$SURFU
 70
     6
  9
$SURFV
 70
     6
  9
$UCSNAME
  2

  9
$UCSORG
 10
0.0
 20
0.0
 30
0.0
  9
$UCSXDIR
 10
1.0
 20
0.0
 30
0.0
  9
$UCSYDIR
 10
0.0
 20
1.0
 30
0.0
  9
$PUCSNAME
  2

  9
$PUCSORG
 10
0.0
 20
0.0
 30
0.0
  9
$PUCSXDIR
 10
1.0
 20
0.0
 30
0.0
  9
$PUCSYDIR
 10
0.0
 20
1.0
 30
0.0
  9
$USERI1
 70
     0
  9
$USERI2
 70
     0
  9
$USERI3
 70
     0
  9
$USERI4
 70
     0
  9
$USERI5
 70
     0
  9
$USERR1
 40
0.0
  9
$USERR2
 40
0.0
  9
$USERR3
 40
0.0
  9
$USERR4
 40
0.0
  9
$USERR5
 40
0.0
  9
$WORLDVIEW
 70
     1
  9
$SHADEDGE
 70
     3
  9
$SHADEDIF
 70
    70
  9
$TILEMODE
 70
     1
  9
$MAXACTVP
 70
    16
  9
$PLIMCHECK
 70
     0
  9
$PEXTMIN
 10
-0.1924288047423381
 20
-0.1961555575841949
 30
-0.0000000349181948
  9
$PEXTMAX
 10
9.7105250792121964
 20
13.6980422835260107
 30
0.0000000814935746
  9
$PLIMMIN
 10
-0.2500002402958907
 20
-0.2499999962453767
  9
$PLIMMAX
 10
10.7499995194082203
 20
8.2499997634587334
  9
$UNITMODE
 70
     0
  9
$VISRETAIN
 70
     0
  9
$PLINEGEN
 70
     0
  9
$PSLTSCALE
 70
     0
  0
ENDSEC
  0
SECTION
  2
TABLES
  0
TABLE
  2
VPORT
 70
     1
  0
VPORT
  2
*ACTIVE
 70
     0
 10
0.0
 20
0.0
 11
1.0
 21
1.0
 12
0.0
 22
0.0
 13
0.0
 23
0.0
 14
1.0
 24
1.0
 15
10.0
 25
10.0
 16
-0.0000000000002314
 26
0.0
 36
1042.0912931635659788
 17
0.0
 27
-15.0
 37
-0.00000000000002
 40
405.2159917870960726
 41
1.868197278911564
 42
50.0
 43
0.0
 44
0.0
 50
0.0
 51
0.0
 71
     0
 72
  1500
 73
     1
 74
     0
 75
     0
 76
     0
 77
     0
 78
     0
  0
ENDTAB
  0
TABLE
  2
LTYPE
 70
     4
  0
LTYPE
  2
CONTINUOUS
 70
     0
  3
Solid line
 72
    65
 73
     0
 40
0.0
  0
LTYPE
  2
AUSGEZOGEN
 70
     0
  3
Ausgezogene Linie
 72
    65
 73
     0
 40
0.0
  0
LTYPE
  2
VERDECKT
 70
     0
  3
_ _ _ _ _ _ _ _ _ _ _ _ _ _ _ _ _ _ _ _ _ _ _
 72
    65
 73
     2
 40
0.375
 49
0.25
 49
-0.125
  0
ENDTAB
  0
TABLE
  2
LAYER
 70
    10
  0
LAYER
  2
0
 70
     0
 62
     7
  6
CONTINUOUS
  0
LAYER
  2
VOLL
 70
     0
 62
     1
  6
CONTINUOUS
  0
LAYER
  2
STEMPEL
 70
     0
 62
     3
  6
CONTINUOUS
  0
LAYER
  2
DEFPOINTS
 70
     0
 62
     7
  6
AUSGEZOGEN
  0
ENDTAB
  0
TABLE
  2
STYLE
 70
     3
  0
STYLE
  2
STANDARD
 70
     0
 40
0.0
 41
0.8
 50
0.0
 71
     0
 42
3.5
  3
simplex.shx
  4

  0
STYLE
  2
GREEKS
 70
     0
 40
0.0
 41
0.8
 50
0.0
 71
     0
 42
2.5
  3
SIMPLEX.shx
  4

  0
ENDTAB
  0
TABLE
  2
VIEW
 70
     1
  0
ENDTAB
  0
TABLE
  2
UCS
 70
     0
  0
ENDTAB
  0
TABLE
  2
APPID
 70
    12
  0
APPID
  2
ACAD
 70
     0
  0
APPID
  2
ACAD_NAV_VCDISPLAY
 70
     0
  0
APPID
  2
ACAD_PSEXT
 70
     0
  0
APPID
  2
ACAD_EXEMPT_FROM_CAD_STANDARDS
 70
     0
  0
APPID
  2
ACAD_MLEADERVER
 70
     0
  0
APPID
  2
ACAD_DSTYLE_DIMJAG
 70
     0
  0
APPID
  2
ACAD_DSTYLE_DIMTALN
 70
     0
  0
APPID
  2
GRADIENTCOLOR1ACI
 70
     0
  0
APPID
  2
GRADIENTCOLOR2ACI
 70
     0
  0
APPID
  2
ACAECLAYERSTANDARD
 70
     0
  0
APPID
  2
ACCMTRANSPARENCY
 70
     0
  0
APPID
  2
ACAD_OBJECT_CHANGE_GUID
 70
     0
  0
ENDTAB
  0
TABLE
  2
DIMSTYLE
 70
     2
  0
DIMSTYLE
  2
STANDARD
 70
     0
  3

  4

  5

  6

  7

 40
1.0
 41
0.18
 42
0.0625
 43
0.38
 44
0.18
 45
0.0
 46
0.0
 47
0.0
 48
0.0
140
0.18
141
0.09
142
0.0
143
25.3999999999999986
144
1.0
145
0.0
146
1.0
147
0.09
 71
     0
 72
     0
 73
     1
 74
     1
 75
     0
 76
     0
 77
     0
 78
     0
170
     0
171
     2
172
     0
173
     0
174
     0
175
     0
176
     0
177
     0
178
     0
  0
ENDTAB
  0
ENDSEC
  0
SECTION
  2
BLOCKS
  0
BLOCK
  8
0
  2
$MODEL_SPACE
 70
     0
 10
0.0
 20
0.0
 30
0.0
  3
$MODEL_SPACE
  1

  0
ENDBLK
  5
36
  8
0
  0
BLOCK
 67
     1
  8
0
  2
$PAPER_SPACE
 70
     0
 10
0.0
 20
0.0
 30
0.0
  3
$PAPER_SPACE
  1

  0
ENDBLK
  5
34
 67
     1
  8
0
  0
BLOCK
  8
0
  2
A$C44947D2D
 70
     0
 10
0.0
 20
0.0
 30
0.0
  3
A$C44947D2D
  1

  0
LINE
  5
145A
  8
0
  6
CONTINUOUS
 62
     3
 10
-44.5
 20
99.9999999999999858
 30
-0.0000000000000222
 11
44.5
 21
99.9999999999999858
 31
-0.0000000000000222
210
0.0
220
1.0
230
-0.0000000000000002
  0
LINE
  5
145B
  8
0
  6
CONTINUOUS
 62
     3
 10
-54.3875793553185716
 20
0.0
 30
0.0
 11
54.3875793553185716
 21
0.0
 31
0.0
210
0.0
220
1.0
230
-0.0000000000000002
  0
LINE
  5
145C
  8
0
  6
CONTINUOUS
 62
     3
 10
44.5000000000000071
 20
100.0
 30
-0.0000000000000222
 11
53.6247748340553727
 21
82.6194765065613836
 31
-0.0000000000000183
210
0.0
220
1.0
230
-0.0000000000000002
  0
LINE
  5
145D
  8
0
  6
CONTINUOUS
 62
     3
 10
-44.5000000000000071
 20
100.0
 30
-0.0000000000000222
 11
-53.6247748340553727
 21
82.6194765065613836
 31
-0.0000000000000183
210
0.0
220
1.0
230
-0.0000000000000002
  0
ARC
  5
145E
  8
0
  6
CONTINUOUS
 62
     3
 10
42.9999999999996874
 20
77.0414697186822934
 30
0.0
 40
12.0000000000003002
210
0.0
220
-0.0000000000000002
230
-1.0
 50
359.9999999999997726
 51
27.6994728080542707
  0
ARC
  5
145F
  8
0
  6
CONTINUOUS
 62
     3
 10
-42.9999999999996874
 20
77.0414697186822934
 30
0.0
 40
12.0000000000003002
210
0.0
220
-0.0000000000000002
230
-1.0
 50
152.3005271919456902
 51
180.0
  0
LINE
  5
1460
  8
0
  6
CONTINUOUS
 62
     3
 10
55.0
 20
77.0414697186822792
 30
-0.0000000000000171
 11
55.0
 21
7.0000000000000009
 31
-0.0000000000000016
210
0.0
220
1.0
230
-0.0000000000000002
  0
LINE
  5
1461
  8
0
  6
CONTINUOUS
 62
     3
 10
-55.0
 20
77.0414697186822792
 30
-0.0000000000000171
 11
-55.0
 21
7.0000000000000009
 31
-0.0000000000000016
210
0.0
220
1.0
230
-0.0000000000000002
  0
LINE
  5
1462
  8
0
  6
CONTINUOUS
 62
     3
 10
-54.3875793553185929
 20
-0.0000000000000018
 30
0.0
 11
-55.0000000000000284
 21
6.9999999999999982
 31
-0.0000000000000016
210
0.0
220
1.0
230
-0.0000000000000002
  0
LINE
  5
1463
  8
0
  6
CONTINUOUS
 62
     3
 10
54.3875793553185929
 20
-0.0000000000000018
 30
0.0
 11
55.0000000000000284
 21
6.9999999999999982
 31
-0.0000000000000016
210
0.0
220
1.0
230
-0.0000000000000002
  0
LINE
  5
1464
  8
0
  6
CONTINUOUS
 62
     3
 10
-47.7654046703399828
 20
179.9999999999998863
 30
-0.00000000000004
 11
47.7654046703399828
 21
179.9999999999998863
 31
-0.00000000000004
210
0.0
220
1.0
230
-0.0000000000000002
  0
LINE
  5
1465
  8
0
  6
CONTINUOUS
 62
     3
 10
-44.5
 20
99.9999999999999432
 30
-0.0000000000000222
 11
44.5
 21
99.9999999999999432
 31
-0.0000000000000222
210
0.0
220
1.0
230
-0.0000000000000002
  0
LINE
  5
1466
  8
0
  6
CONTINUOUS
 62
     3
 10
47.7654046703399828
 20
179.9999999999998863
 30
-0.00000000000004
 11
48.5097249210561969
 21
178.4038000712637029
 31
-0.0000000000000396
210
0.0
220
1.0
230
-0.0000000000000002
  0
LINE
  5
1467
  8
0
  6
CONTINUOUS
 62
     3
 10
-47.7654046703399828
 20
179.9999999999998863
 30
-0.00000000000004
 11
-48.5097249210561969
 21
178.4038000712637029
 31
-0.0000000000000396
210
0.0
220
1.0
230
-0.0000000000000002
  0
ARC
  5
1468
  8
0
  6
CONTINUOUS
 62
     3
 10
23.3636645092133293
 20
166.6779995287926965
 30
0.0
 40
27.7456078073244505
210
0.0
220
-0.0000000000000002
230
-1.0
 50
1.481312640260829
 51
25.0000000000007283
  0
ARC
  5
1469
  8
0
  6
CONTINUOUS
 62
     3
 10
-23.3636645092133293
 20
166.6779995287926965
 30
0.0
 40
27.7456078073244505
210
0.0
220
-0.0000000000000002
230
-1.0
 50
154.9999999999992895
 51
178.5186873597392037
  0
LINE
  5
146A
  8
0
  6
CONTINUOUS
 62
     3
 10
51.1000000000000512
 20
167.395248537429012
 30
-0.0000000000000372
 11
51.1000932409247923
 21
160.3684767450166078
 31
-0.0000000000000356
210
0.0
220
1.0
230
-0.0000000000000002
  0
LINE
  5
146B
  8
0
  6
CONTINUOUS
 62
     3
 10
-51.1000000000000512
 20
167.395248537429012
 30
-0.0000000000000372
 11
-51.1000932409247923
 21
160.3684767450166078
 31
-0.0000000000000356
210
0.0
220
1.0
230
-0.0000000000000002
  0
ARC
  5
146C
  8
0
  6
CONTINUOUS
 62
     3
 10
26.1000000000002395
 20
160.3681450092095986
 30
0.0
 40
25.000093243125491
210
0.0
220
-0.0000000000000002
230
-1.0
 50
334.9670575584366929
 51
0.0007602796307189
  0
ARC
  5
146D
  8
0
  6
CONTINUOUS
 62
     3
 10
-26.1000000000003993
 20
160.3681450092095986
 30
0.0
 40
25.0000932431253311
210
0.0
220
-0.0000000000000002
230
-1.0
 50
179.9992397203693031
 51
205.0329424415633923
  0
ARC
  5
146E
  8
0
  6
CONTINUOUS
 62
     3
 10
59.8619284933239086
 20
144.601060396050201
 30
0.0
 40
12.2620695065973102
210
0.0
220
-0.0000000000000002
230
-1.0
 50
154.9670575584349876
 51
179.7252193435118954
  0
ARC
  5
146F
  8
0
  6
CONTINUOUS
 62
     3
 10
-59.8619284933239086
 20
144.601060396050201
 30
0.0
 40
12.2620695065973102
210
0.0
220
-0.0000000000000002
230
-1.0
 50
0.2747806564879904
 51
25.032942441564991
  0
LINE
  5
1470
  8
0
  6
CONTINUOUS
 62
     3
 10
47.6000000000000227
 20
144.6598669368048036
 30
-0.0000000000000321
 11
47.6000000000000227
 21
125.3887264174169047
 31
-0.0000000000000278
210
0.0
220
1.0
230
-0.0000000000000002
  0
LINE
  5
1471
  8
0
  6
CONTINUOUS
 62
     3
 10
-47.6000000000000227
 20
144.6598669368048036
 30
-0.0000000000000321
 11
-47.6000000000000227
 21
125.3887264174169047
 31
-0.0000000000000278
210
0.0
220
1.0
230
-0.0000000000000002
  0
ARC
  5
1472
  8
0
  6
CONTINUOUS
 62
     3
 10
35.6000000000004135
 20
125.3887264174168052
 30
0.0
 40
11.9999999999996092
210
0.0
220
-0.0000000000000002
230
-1.0
 50
327.6719358778361197
 51
0.0000000000002799
  0
ARC
  5
1473
  8
0
  6
CONTINUOUS
 62
     3
 10
-35.6000000000003425
 20
125.3887264174168052
 30
0.0
 40
11.9999999999996891
210
0.0
220
-0.0000000000000002
230
-1.0
 50
179.9999999999996874
 51
212.328064122163596
  0
ARC
  5
1474
  8
0
  6
CONTINUOUS
 62
     3
 10
52.4999999999987779
 20
114.6934003354318037
 30
0.0
 40
7.9999999999987672
210
0.0
220
-0.0000000000000002
230
-1.0
 50
147.6719358778366882
 51
180.0000000000027001
  0
ARC
  5
1475
  8
0
  6
CONTINUOUS
 62
     3
 10
-52.4999999999987779
 20
114.6934003354318037
 30
0.0
 40
7.9999999999987699
210
0.0
220
-0.0000000000000002
230
-1.0
 50
359.9999999999973284
 51
32.3280641221632905
  0
LINE
  5
1476
  8
0
  6
CONTINUOUS
 62
     3
 10
44.5
 20
114.6934003354314058
 30
-0.0000000000000255
 11
44.5
 21
99.9999999999999432
 31
-0.0000000000000222
210
0.0
220
1.0
230
-0.0000000000000002
  0
LINE
  5
1477
  8
0
  6
CONTINUOUS
 62
     3
 10
-44.5
 20
114.6934003354314058
 30
-0.0000000000000255
 11
-44.5
 21
99.9999999999999432
 31
-0.0000000000000222
210
0.0
220
1.0
230
-0.0000000000000002
  0
LINE
  5
1478
  8
0
  6
VERDECKT
 62
     1
 10
-52.3799396802318924
 20
-0.0000000000000022
 30
0.0
 11
-53.0000000000000284
 21
7.0
 31
-0.0000000000000016
210
0.0
220
1.0
230
-0.0000000000000002
  0
LINE
  5
1479
  8
0
  6
VERDECKT
 62
     1
 10
52.3799396802318924
 20
-0.0000000000000022
 30
0.0
 11
53.0000000000000284
 21
7.0
 31
-0.0000000000000016
210
0.0
220
1.0
230
-0.0000000000000002
  0
LINE
  5
147A
  8
0
  6
VERDECKT
 62
     1
 10
53.0
 20
77.0414697186822792
 30
-0.0000000000000171
 11
53.0
 21
7.0000000000000009
 31
-0.0000000000000016
210
0.0
220
1.0
230
-0.0000000000000002
  0
LINE
  5
147B
  8
0
  6
VERDECKT
 62
     1
 10
-53.0
 20
77.0414697186822792
 30
-0.0000000000000171
 11
-53.0
 21
7.0000000000000009
 31
-0.0000000000000016
210
0.0
220
1.0
230
-0.0000000000000002
  0
ARC
  5
147C
  8
0
  6
VERDECKT
 62
     1
 10
43.000000000000199
 20
77.0414697186823929
 30
0.0
 40
9.999999999999801
210
0.0
220
-0.0000000000000002
230
-1.0
 50
359.9999999999992042
 51
27.6994728080549599
  0
ARC
  5
147D
  8
0
  6
VERDECKT
 62
     1
 10
-43.0000000000003126
 20
77.0414697186824213
 30
0.0
 40
9.9999999999996874
210
0.0
220
-0.0000000000000002
230
-1.0
 50
152.3005271919448091
 51
180.0000000000007105
  0
LINE
  5
147E
  8
0
  6
VERDECKT
 62
     1
 10
42.2411286003847479
 20
99.9999999999999574
 30
-0.0000000000000222
 11
51.8539790283794702
 21
81.6898087085815234
 31
-0.0000000000000181
210
0.0
220
1.0
230
-0.0000000000000002
  0
LINE
  5
147F
  8
0
  6
VERDECKT
 62
     1
 10
-42.2411286003847479
 20
99.9999999999999574
 30
-0.0000000000000222
 11
-51.8539790283794702
 21
81.6898087085815234
 31
-0.0000000000000181
210
0.0
220
1.0
230
-0.0000000000000002
  0
LINE
  5
1480
  8
0
  6
VERDECKT
 62
     1
 10
42.8999999999999773
 20
114.6934003354314058
 30
-0.0000000000000255
 11
42.8999999999999773
 21
99.9999999999999432
 31
-0.0000000000000222
210
0.0
220
1.0
230
-0.0000000000000002
  0
LINE
  5
1481
  8
0
  6
VERDECKT
 62
     1
 10
-42.8999999999999773
 20
114.6934003354314058
 30
-0.0000000000000255
 11
-42.8999999999999773
 21
99.9999999999999432
 31
-0.0000000000000222
210
0.0
220
1.0
230
-0.0000000000000002
  0
ARC
  5
1482
  8
0
  6
VERDECKT
 62
     1
 10
52.5000000000003908
 20
114.6934003354313063
 30
0.0
 40
9.6000000000004047
210
0.0
220
-0.0000000000000002
230
-1.0
 50
147.6719358778395872
 51
179.9999999999994884
  0
ARC
  5
1483
  8
0
  6
VERDECKT
 62
     1
 10
-52.5000000000003197
 20
114.6934003354313063
 30
0.0
 40
9.6000000000003496
210
0.0
220
-0.0000000000000002
230
-1.0
 50
0.0000000000002544
 51
32.3280641221603489
  0
ARC
  5
1484
  8
0
  6
VERDECKT
 62
     1
 10
35.5999999999983032
 20
125.3887264174174021
 30
0.0
 40
10.4000000000016897
210
0.0
220
-0.0000000000000002
230
-1.0
 50
327.6719358778391893
 51
359.9999999999985789
  0
ARC
  5
1485
  8
0
  6
VERDECKT
 62
     1
 10
-35.5999999999983032
 20
125.3887264174174021
 30
0.0
 40
10.4000000000016897
210
0.0
220
-0.0000000000000002
230
-1.0
 50
180.0000000000013074
 51
212.3280641221608107
  0
LINE
  5
1486
  8
0
  6
VERDECKT
 62
     1
 10
46.0
 20
144.6598669368048036
 30
-0.0000000000000321
 11
46.0
 21
125.3887264174172032
 31
-0.0000000000000278
210
0.0
220
1.0
230
-0.0000000000000002
  0
LINE
  5
1487
  8
0
  6
VERDECKT
 62
     1
 10
-46.0
 20
144.6598669368048036
 30
-0.0000000000000321
 11
-46.0
 21
125.3887264174172032
 31
-0.0000000000000278
210
0.0
220
1.0
230
-0.0000000000000002
  0
ARC
  5
1488
  8
0
  6
VERDECKT
 62
     1
 10
59.5998304150306382
 20
144.6598669368046046
 30
0.0
 40
13.5998304150306399
210
0.0
220
-0.0000000000000002
230
-1.0
 50
154.7242989026937039
 51
179.9999999999994031
  0
ARC
  5
1489
  8
0
  6
VERDECKT
 62
     1
 10
-59.5998304150305103
 20
144.6598669368046899
 30
0.0
 40
13.5998304150305103
210
0.0
220
-0.0000000000000002
230
-1.0
 50
0.0000000000004834
 51
25.2757010973063707
  0
ARC
  5
148A
  8
0
  6
VERDECKT
 62
     1
 10
26.5355210613368016
 20
160.2721421479861021
 30
0.0
 40
22.9650665533246503
210
0.0
220
-0.0000000000000002
230
-1.0
 50
334.7242989026926807
 51
0.4098746074407784
  0
ARC
  5
148B
  8
0
  6
VERDECKT
 62
     1
 10
-26.5355210613365387
 20
160.2721421479861874
 30
0.0
 40
22.9650665533249096
210
0.0
220
-0.0000000000000002
230
-1.0
 50
179.5901253925594006
 51
205.2757010973072056
  0
LINE
  5
148C
  8
0
  6
VERDECKT
 62
     1
 10
49.5
 20
167.395248537429012
 30
-0.0000000000000372
 11
49.5
 21
160.4364250573989068
 31
-0.0000000000000356
210
0.0
220
1.0
230
-0.0000000000000002
  0
LINE
  5
148D
  8
0
  6
VERDECKT
 62
     1
 10
-49.5
 20
167.395248537429012
 30
-0.0000000000000372
 11
-49.5
 21
160.4364250573989068
 31
-0.0000000000000356
210
0.0
220
1.0
230
-0.0000000000000002
  0
ARC
  5
148E
  8
0
  6
VERDECKT
 62
     1
 10
26.0521705955049612
 20
167.3952485374290973
 30
0.0
 40
23.4478294044950388
210
0.0
220
-0.0000000000000002
230
-1.0
 50
359.9999999999997158
 51
28.4281446728219684
  0
ARC
  5
148F
  8
0
  6
VERDECKT
 62
     1
 10
-26.05217059550505
 20
167.3952485374290973
 30
0.0
 40
23.4478294044949394
210
0.0
220
-0.0000000000000002
230
-1.0
 50
151.5718553271779001
 51
180.000000000000199
  0
LINE
  5
1490
  8
0
  6
VERDECKT
 62
     1
 10
46.0000000000000426
 20
179.9999999999998863
 30
-0.00000000000004
 11
46.6725395509223873
 21
178.5577342787304929
 31
-0.0000000000000396
210
0.0
220
1.0
230
-0.0000000000000002
  0
LINE
  5
1491
  8
0
  6
VERDECKT
 62
     1
 10
-46.0000000000000426
 20
179.9999999999998863
 30
-0.00000000000004
 11
-46.6725395509223873
 21
178.5577342787304929
 31
-0.0000000000000396
210
0.0
220
1.0
230
-0.0000000000000002
  0
ENDBLK
  5
1493
  8
0
  0
BLOCK
  8
0
  2
A$C4BA75170
 70
     0
 10
0.0
 20
0.0
 30
0.0
  3
A$C4BA75170
  1

  0
CIRCLE
  5
1497
  8
0
  6
CONTINUOUS
 62
     3
 10
0.0000000000000222
 20
0.0000000000000118
 30
0.0
 40
42.2411286003847408
  0
CIRCLE
  5
1498
  8
0
  6
CONTINUOUS
 62
     3
 10
0.0000000000000171
 20
0.0000000000000104
 30
0.0
 40
55.0
  0
CIRCLE
  5
1499
  8
0
  6
CONTINUOUS
 62
     3
 10
0.0000000000000255
 20
0.0000000000000127
 30
0.0
 40
42.8999999999999773
  0
CIRCLE
  5
149A
  8
0
  6
CONTINUOUS
 62
     3
 10
0.00000000000004
 20
0.0000000000000167
 30
0.0
 40
46.0000000000000497
  0
CIRCLE
  5
149B
  8
0
  6
CONTINUOUS
 62
     3
 10
0.00000000000004
 20
0.0000000000000167
 30
0.0
 40
47.7654046703399828
  0
CIRCLE
  5
149C
  8
0
  6
CONTINUOUS
 62
     3
 10
0.0000000000000356
 20
0.0000000000000155
 30
0.0
 40
51.1000932431257269
  0
CIRCLE
  5
149D
  8
0
  6
VERDECKT
 62
     1
 10
0.0
 20
0.0000000000000057
 30
0.0
 40
52.3799396802318711
  0
CIRCLE
  5
149E
  8
0
  6
VERDECKT
 62
     1
 10
0.0000000000000171
 20
0.0000000000000104
 30
0.0
 40
53.0
  0
CIRCLE
  5
149F
  8
0
  6
VERDECKT
 62
     1
 10
0.0
 20
0.0000000000000057
 30
0.0
 40
54.3875793553185716
  0
CIRCLE
  5
14A0
  8
0
  6
VERDECKT
 62
     1
 10
0.0000000000000372
 20
0.0000000000000159
 30
0.0
 40
49.5
  0
CIRCLE
  5
14A1
  8
0
  6
VERDECKT
 62
     1
 10
0.0000000000000321
 20
0.0000000000000145
 30
0.0
 40
47.6000000000000227
  0
CIRCLE
  5
14A2
  8
0
  6
VERDECKT
 62
     1
 10
0.0000000000000255
 20
0.0000000000000127
 30
0.0
 40
44.5
  0
CIRCLE
  5
14A3
  8
0
  6
VERDECKT
 62
     1
 10
0.0000000000000356
 20
0.0000000000000155
 30
0.0
 40
49.5005876146614483
  0
ENDBLK
  5
14A5
  8
0
  0
ENDSEC
  0
SECTION
  2
ENTITIES
  0
TEXT
  5
8F
  8
VOLL
 10
78.076754716981128
 20
31.025947764705851
 30
0.0
 40
1.8
  1

  7
GREEKS
  0
INSERT
  5
1494
  8
STEMPEL
  2
A$C44947D2D
 10
0.0
 20
0.0
 30
0.0
  0
INSERT
  5
14A6
  8
STEMPEL
  2
A$C4BA75170
 10
0.0
 20
-155.0
 30
0.0
  0
VIEWPORT
  5
12B9
 67
     1
  8
0
 10
4.7590027120418386
 20
6.7508239981844369
 30
0.0
 40
27.4950059677015517
 41
14.0031006488891698
 68
     1
 69
     1
1001
ACAD
1000
MVIEW
1002
{
1070
    16
1010
0.0
1020
0.0
1030
0.0
1010
0.0
1020
0.0
1030
1.0
1040
0.0
1040
14.0031006488891698
1040
4.7590027120418386
1040
6.7508239981844369
1040
50.0
1040
0.0
1040
0.0
1070
     0
1070
  1500
1070
     1
1070
     1
1070
     0
1070
     0
1070
     0
1070
     0
1040
0.0
1040
0.0
1040
0.0
1040
10.0
1040
10.0
1040
10.0
1040
10.0
1070
     0
1002
{
1002
}
1002
}
  0
VIEWPORT
  5
12BD
 67
     1
  8
DEFPOINTS
 10
4.758868691244472
 20
6.7509111973698506
 30
0.0
 40
9.9017672541082788
 41
13.8924604574614197
 68
     2
 69
     2
1001
ACAD
1000
MVIEW
1002
{
1070
    16
1010
481.4066925127871173
1020
209.8606476700906001
1030
-34.3632309032611616
1010
0.0
1020
0.0
1030
1.0
1040
0.0
1040
307.5573977795859264
1040
-376.3172319262956194
1040
-59.7520565344222021
1040
50.0
1040
0.0
1040
0.0
1070
     0
1070
  1500
1070
     1
1070
     0
1070
     0
1070
     0
1070
     0
1070
     0
1040
0.0
1040
0.0
1040
0.0
1040
1.0
1040
1.0
1040
10.0
1040
10.0
1070
     0
1002
{
1002
}
1002
}
  0
VIEWPORT
  5
12C1
 67
     1
  8
DEFPOINTS
 10
8.4096238472042124
 20
10.4731347681704499
 30
0.0
 40
1.252407588568097
 41
2.0542184957808161
 68
     3
 69
     3
1001
ACAD
1000
MVIEW
1002
{
1070
    16
1010
414.2188055699314759
1020
130.0767224368470067
1030
-45.7473913132329812
1010
0.0
1020
189.5567975420852918
1030
408.7751744519085833
1040
3.1415926535897918
1040
216.0301339966335092
1040
-1.718537949616386
1040
0.3149964398402902
1040
50.0
1040
0.0
1040
0.0
1070
     0
1070
  1500
1070
     1
1070
     0
1070
     0
1070
     0
1070
     0
1070
     0
1040
0.0
1040
0.0
1040
0.0
1040
1.0
1040
1.0
1040
10.0
1040
10.0
1070
     0
1002
{
1002
}
1002
}
  0
ENDSEC
  0
EOF
