  0
SECTION
  2
HEADER
  9
$ACADVER
  1
AC1009
  9
$INSBASE
 10
0.0
 20
0.0
 30
0.0
  9
$EXTMIN
 10
-55.0236258496686403
 20
-160.0081164976677996
 30
-0.0015258207003583
  9
$EXTMAX
 10
55.0195873151533306
 20
175.0268259011519945
 30
0.0000000349246037
  9
$LIMMIN
 10
0.0
 20
0.0
  9
$LIMMAX
 10
595.0
 20
421.0
  9
$ORTHOMODE
 70
     1
  9
$REGENMODE
 70
     1
  9
$FILLMODE
 70
     1
  9
$QTEXTMODE
 70
     0
  9
$MIRRTEXT
 70
     1
  9
$DRAGMODE
 70
     2
  9
$LTSCALE
 40
10.0
  9
$OSMODE
 70
   511
  9
$ATTMODE
 70
     1
  9
$TEXTSIZE
 40
3.5
  9
$TRACEWID
 40
1.0
  9
$TEXTSTYLE
  7
STANDARD
  9
$CLAYER
  8
STEMPEL
  9
$CELTYPE
  6
BYLAYER
  9
$CECOLOR
 62
   256
  9
$DIMSCALE
 40
1.0
  9
$DIMASZ
 40
3.5
  9
$DIMEXO
 40
1.0
  9
$DIMDLI
 40
0.38
  9
$DIMRND
 40
0.0
  9
$DIMDLE
 40
0.0
  9
$DIMEXE
 40
1.0
  9
$DIMTP
 40
0.0
  9
$DIMTM
 40
0.000000001
  9
$DIMTXT
 40
3.5
  9
$DIMCEN
 40
0.09
  9
$DIMTSZ
 40
0.0
  9
$DIMTOL
 70
     0
  9
$DIMLIM
 70
     0
  9
$DIMTIH
 70
     0
  9
$DIMTOH
 70
     0
  9
$DIMSE1
 70
     0
  9
$DIMSE2
 70
     0
  9
$DIMTAD
 70
     1
  9
$DIMZIN
 70
     8
  9
$DIMBLK
  1

  9
$DIMASO
 70
     1
  9
$DIMSHO
 70
     0
  9
$DIMPOST
  1

  9
$DIMAPOST
  1

  9
$DIMALT
 70
     0
  9
$DIMALTD
 70
     2
  9
$DIMALTF
 40
25.3999999999999986
  9
$DIMLFAC
 40
1.0
  9
$DIMTOFL
 70
     1
  9
$DIMTVP
 40
0.0
  9
$DIMTIX
 70
     0
  9
$DIMSOXD
 70
     0
  9
$DIMSAH
 70
     0
  9
$DIMBLK1
  1

  9
$DIMBLK2
  1

  9
$DIMSTYLE
  2
LORO
  9
$DIMCLRD
 70
     0
  9
$DIMCLRE
 70
     0
  9
$DIMCLRT
 70
     1
  9
$DIMTFAC
 40
0.5
  9
$DIMGAP
 40
1.5
  9
$LUNITS
 70
     2
  9
$LUPREC
 70
     2
  9
$SKETCHINC
 40
1.0
  9
$FILLETRAD
 40
12.0
  9
$AUNITS
 70
     0
  9
$AUPREC
 70
     0
  9
$MENU
  1
ACAD
  9
$ELEVATION
 40
0.0
  9
$PELEVATION
 40
0.0
  9
$THICKNESS
 40
0.0
  9
$LIMCHECK
 70
     0
  9
$BLIPMODE
 70
     0
  9
$CHAMFERA
 40
0.0
  9
$CHAMFERB
 40
0.0
  9
$SKPOLY
 70
     0
  9
$TDCREATE
 40
2457788.328263889066875
  9
$TDUPDATE
 40
2459626.6205787039361894
  9
$TDINDWG
 40
0.1559490741
  9
$TDUSRTIMER
 40
0.1559490741
  9
$USRTIMER
 70
     1
  9
$ANGBASE
 50
0.0
  9
$ANGDIR
 70
     0
  9
$PDMODE
 70
     0
  9
$PDSIZE
 40
0.0
  9
$PLINEWID
 40
0.0
  9
$COORDS
 70
     1
  9
$SPLFRAME
 70
     0
  9
$SPLINETYPE
 70
     6
  9
$SPLINESEGS
 70
     8
  9
$ATTDIA
 70
     1
  9
$ATTREQ
 70
     1
  9
$HANDLING
 70
     1
  9
$HANDSEED
  5
3160
  9
$SURFTAB1
 70
     6
  9
$SURFTAB2
 70
     6
  9
$SURFTYPE
 70
     6
  9
$SURFU
 70
     6
  9
$SURFV
 70
     6
  9
$UCSNAME
  2

  9
$UCSORG
 10
0.0
 20
0.0
 30
0.0
  9
$UCSXDIR
 10
1.0
 20
0.0
 30
0.0
  9
$UCSYDIR
 10
0.0
 20
1.0
 30
0.0
  9
$PUCSNAME
  2

  9
$PUCSORG
 10
0.0
 20
0.0
 30
0.0
  9
$PUCSXDIR
 10
1.0
 20
0.0
 30
0.0
  9
$PUCSYDIR
 10
0.0
 20
1.0
 30
0.0
  9
$USERI1
 70
     0
  9
$USERI2
 70
     0
  9
$USERI3
 70
     0
  9
$USERI4
 70
     0
  9
$USERI5
 70
     0
  9
$USERR1
 40
0.0
  9
$USERR2
 40
0.0
  9
$USERR3
 40
0.0
  9
$USERR4
 40
0.0
  9
$USERR5
 40
0.0
  9
$WORLDVIEW
 70
     1
  9
$SHADEDGE
 70
     3
  9
$SHADEDIF
 70
    70
  9
$TILEMODE
 70
     1
  9
$MAXACTVP
 70
    16
  9
$PLIMCHECK
 70
     0
  9
$PEXTMIN
 10
1.0000000000000000E+20
 20
1.0000000000000000E+20
 30
1.0000000000000000E+20
  9
$PEXTMAX
 10
-1.0000000000000000E+20
 20
-1.0000000000000000E+20
 30
-1.0000000000000000E+20
  9
$PLIMMIN
 10
-5.6325791707940871
 20
-3.044054485262734
  9
$PLIMMAX
 10
204.367420829205912
 20
293.9559455147373228
  9
$UNITMODE
 70
     0
  9
$VISRETAIN
 70
     0
  9
$PLINEGEN
 70
     0
  9
$PSLTSCALE
 70
     1
  0
ENDSEC
  0
SECTION
  2
TABLES
  0
TABLE
  2
VPORT
 70
     1
  0
VPORT
  2
*ACTIVE
 70
     0
 10
0.0
 20
0.0
 11
1.0
 21
1.0
 12
-0.0020192672577082
 22
-52.2839802591954026
 13
0.0
 23
0.0
 14
1.0
 24
1.0
 15
10.0
 25
10.0
 16
-0.000000000000146
 26
0.0
 36
657.6241783995750438
 17
0.0
 27
59.7933349609375
 37
-0.0000000000000194
 40
336.7486761195299891
 41
1.8720136518771331
 42
50.0
 43
0.0
 44
0.0
 50
0.0
 51
0.0
 71
     0
 72
  1500
 73
     1
 74
     1
 75
     0
 76
     0
 77
     0
 78
     0
  0
ENDTAB
  0
TABLE
  2
LTYPE
 70
     5
  0
LTYPE
  2
CONTINUOUS
 70
     0
  3
Solid line
 72
    65
 73
     0
 40
0.0
  0
LTYPE
  2
VERDECKT
 70
     0
  3
_ _ _ _ _ _ _ _ _ _ _ _ _ _ _ _ _ _ _ _ _ _ _
 72
    65
 73
     2
 40
0.375
 49
0.25
 49
-0.125
  0
ENDTAB
  0
TABLE
  2
LAYER
 70
    14
  0
LAYER
  2
0
 70
     0
 62
     7
  6
CONTINUOUS
  0
LAYER
  2
STEMPEL
 70
     0
 62
     3
  6
CONTINUOUS
  0
LAYER
  2
ADSK_ASSOC_ENTITY_BACKUPS
 70
     1
 62
    -7
  6
CONTINUOUS
  0
LAYER
  2
DEFPOINTS
 70
     0
 62
     7
  6
CONTINUOUS
  0
ENDTAB
  0
TABLE
  2
STYLE
 70
     4
  0
STYLE
  2
STANDARD
 70
     0
 40
0.0
 41
0.8
 50
0.0
 71
     0
 42
3.5
  3
simplex.shx
  4

  0
STYLE
  2
GREEKS
 70
     0
 40
0.0
 41
0.8
 50
0.0
 71
     0
 42
2.5
  3
SIMPLEX.shx
  4

  0
ENDTAB
  0
TABLE
  2
VIEW
 70
     1
  0
ENDTAB
  0
TABLE
  2
UCS
 70
     0
  0
ENDTAB
  0
TABLE
  2
APPID
 70
    26
  0
APPID
  2
ACAD
 70
     0
  0
APPID
  2
ACAD_NAV_VCDISPLAY
 70
     0
  0
APPID
  2
ACAD_EXEMPT_FROM_CAD_STANDARDS
 70
     0
  0
APPID
  2
ACAD_PSEXT
 70
     0
  0
APPID
  2
ACAUTHENVIRON
 70
     0
  0
APPID
  2
ACDBDYNAMICBLOCKTRUENAME
 70
     0
  0
APPID
  2
ACDBDYNAMICBLOCKGUID
 70
     0
  0
APPID
  2
ACAECLAYERSTANDARD
 70
     0
  0
APPID
  2
ACCMTRANSPARENCY
 70
     0
  0
APPID
  2
ACAD_STEPID
 70
     0
  0
APPID
  2
ACSYNERGY
 70
     0
  0
APPID
  2
SYNERGY_BODY_TBR_ID
 70
     0
  0
APPID
  2
ACAD_VIEW_EDGE_ID
 70
     0
  0
APPID
  2
ACAD_DSTYLE_DIMJAG
 70
     0
  0
APPID
  2
ACAD_DSTYLE_DIMTALN
 70
     0
  0
APPID
  2
ACADANNOMONITORALERTICONDI
 70
     0
  0
APPID
  2
GRADIENTCOLOR1ACI
 70
     0
  0
APPID
  2
GRADIENTCOLOR2ACI
 70
     0
  0
APPID
  2
ACSYNERGYSKETCH
 70
     0
  0
APPID
  2
ACAD_MODELDOC_XFORM
 70
     0
  0
APPID
  2
ACAD_ASSOCPERSSUBENTMANAGER
 70
     0
  0
APPID
  2
PLOTTRANSPARENCY
 70
     0
  0
APPID
  2
ACADANNOPO
 70
     0
  0
APPID
  2
ACAD_DSTYLE_DIMBREAK
 70
     0
  0
APPID
  2
ACAD_MLEADERVER
 70
     0
  0
APPID
  2
AcDbAttr
 70
     0
  0
ENDTAB
  0
TABLE
  2
DIMSTYLE
 70
     2
  0
DIMSTYLE
  2
STANDARD
 70
     0
  3

  4

  5

  6

  7

 40
1.0
 41
0.18
 42
0.0625
 43
0.38
 44
0.18
 45
0.0
 46
0.0
 47
0.0
 48
0.0
140
0.18
141
0.09
142
0.0
143
25.3999999999999986
144
1.0
145
0.0
146
1.0
147
0.09
 71
     0
 72
     0
 73
     1
 74
     1
 75
     0
 76
     0
 77
     0
 78
     0
170
     0
171
     2
172
     0
173
     0
174
     0
175
     0
176
     0
177
     0
178
     0
  0
DIMSTYLE
  2
LORO
 70
     0
  3

  4

  5

  6

  7

 40
1.0
 41
3.5
 42
1.0
 43
0.38
 44
1.0
 45
0.0
 46
0.0
 47
0.0
 48
0.000000001
140
3.5
141
0.09
142
0.0
143
25.3999999999999986
144
1.0
145
0.0
146
0.5
147
1.5
 71
     0
 72
     0
 73
     0
 74
     0
 75
     0
 76
     0
 77
     1
 78
     8
170
     0
171
     2
172
     1
173
     0
174
     0
175
     0
176
     0
177
     0
178
     1
  0
ENDTAB
  0
ENDSEC
  0
SECTION
  2
BLOCKS
  0
BLOCK
  8
0
  2
$MODEL_SPACE
 70
     0
 10
0.0
 20
0.0
 30
0.0
  3
$MODEL_SPACE
  1

  0
ENDBLK
  5
38
  8
0
  0
BLOCK
 67
     1
  8
0
  2
$PAPER_SPACE
 70
     0
 10
0.0
 20
0.0
 30
0.0
  3
$PAPER_SPACE
  1

  0
ENDBLK
  5
5FE
 67
     1
  8
0
  0
BLOCK
  8
0
  2
*S0
 70
     1
 10
0.0
 20
0.0
 30
0.0
  3
*S0
  1

  0
ENDBLK
  5
571
  8
0
  0
BLOCK
  8
0
  2
A$C8D2F503F
 70
     0
 10
0.0
 20
0.0
 30
0.0
  3
A$C8D2F503F
  1

  0
CIRCLE
  5
296B
  8
0
  6
CONTINUOUS
 10
0.0000000000000389
 20
-0.418432924475658
 30
0.0
 40
39.4500924592585989
  0
CIRCLE
  5
296C
  8
0
  6
CONTINUOUS
 10
0.0000000000000364
 20
-0.4184329244756587
 30
0.0
 40
42.1000000000000227
  0
CIRCLE
  5
296D
  8
0
  6
CONTINUOUS
 10
0.0000000000000387
 20
-0.418432924475658
 30
0.0
 40
38.0
  0
CIRCLE
  5
296E
  8
0
  6
CONTINUOUS
 10
0.0000000000000261
 20
-0.4184329244756532
 30
0.0
 40
34.9000000000000128
  0
CIRCLE
  5
296F
  8
0
  6
CONTINUOUS
 10
0.0000000000000355
 20
-0.418432924475659
 30
0.0
 40
42.1000932431257269
  0
CIRCLE
  5
2970
  8
0
  6
CONTINUOUS
 10
0.0000000000000455
 20
-0.4184329244756272
 30
0.0
 40
55.0000000000000568
  0
CIRCLE
  5
2971
  8
0
  6
VERDECKT
 62
     1
 10
0.0000000000000325
 20
-0.4184329244756597
 30
0.0
 40
39.6000000000000227
  0
CIRCLE
  5
2972
  8
0
  6
VERDECKT
 62
     1
 10
0.0000000000000364
 20
-0.4184329244756587
 30
0.0
 40
40.4999999999999929
  0
CIRCLE
  5
2973
  8
0
  6
VERDECKT
 62
     1
 10
0.0000000000000243
 20
-0.4184329244756536
 30
0.0
 40
38.5883742351513703
  0
CIRCLE
  5
2974
  8
0
  6
VERDECKT
 62
     1
 10
0.0000000000000244
 20
-0.4184329244756536
 30
0.0
 40
40.0
  0
CIRCLE
  5
2975
  8
0
  6
VERDECKT
 62
     1
 10
0.0000000000000261
 20
-0.4184329244756532
 30
0.0
 40
36.5
  0
CIRCLE
  5
2976
  8
0
  6
VERDECKT
 62
     1
 10
0.0000000000000355
 20
-0.418432924475659
 30
0.0
 40
40.5000932431257326
  0
CIRCLE
  5
2977
  8
0
  6
VERDECKT
 62
     1
 10
0.0000000000000455
 20
-0.4184329244756272
 30
0.0
 40
53.0000000000000568
  0
CIRCLE
  5
2978
  8
0
  6
VERDECKT
 62
     1
 10
0.0000000000000285
 20
-0.4184329244756319
 30
0.0
 40
52.1327239685572508
  0
CIRCLE
  5
2979
  8
0
  6
VERDECKT
 62
     1
 10
0.0000000000000284
 20
-0.4184329244756319
 30
0.0
 40
54.1251133647407414
  0
CIRCLE
  5
297A
  8
0
  6
VERDECKT
 62
     1
 10
0.0000000000000528
 20
-0.4184329244756252
 30
0.0
 40
40.0000000000000213
  0
CIRCLE
  5
297B
  8
0
  6
VERDECKT
 62
     1
 10
0.0000000000000526
 20
-0.4184329244756252
 30
0.0
 40
38.2080102035493496
  0
ENDBLK
  5
297D
  8
0
  0
BLOCK
  8
0
  2
A$C6376C476
 70
     0
 10
0.0
 20
0.0
 30
0.0
  3
A$C6376C476
  1

  0
LINE
  5
2981
  8
0
  6
CONTINUOUS
 10
39.4500924592585989
 20
175.0012735825849006
 30
-0.0000000000000389
 11
-39.4500924592585989
 21
175.0012735825849006
 31
-0.0000000000000389
210
0.0
220
1.0
230
-0.0000000000000002
  0
LINE
  5
2982
  8
0
  6
CONTINUOUS
 10
40.0
 20
110.0
 30
-0.0000000000000244
 11
-40.0
 21
110.0
 31
-0.0000000000000244
210
0.0
220
1.0
230
-0.0000000000000002
  0
LINE
  5
2983
  8
0
  6
CONTINUOUS
 10
39.4500924592586273
 20
175.0012735825849006
 30
-0.0000000000000389
 11
39.7576946759155874
 21
174.3416185002000987
 31
-0.0000000000000387
210
0.0
220
1.0
230
-0.0000000000000002
  0
LINE
  5
2984
  8
0
  6
CONTINUOUS
 10
-39.4500924592586202
 20
175.0012735825849006
 30
-0.0000000000000389
 11
-39.7576946759155803
 21
174.3416185002002123
 31
-0.0000000000000387
210
0.0
220
1.0
230
-0.0000000000000002
  0
ARC
  5
2985
  8
0
  6
CONTINUOUS
 10
-17.1000000000007901
 20
163.7761619566813067
 30
0.0
 40
24.9999999999992291
210
0.0
220
-0.0000000000000002
230
-1.0
 50
154.9999999999957936
 51
180.0000000000003979
  0
ARC
  5
2986
  8
0
  6
CONTINUOUS
 10
17.1000000000008896
 20
163.776161956681392
 30
0.0
 40
24.9999999999991189
210
0.0
220
-0.0000000000000002
230
-1.0
 50
359.9999999999994884
 51
25.0000000000042384
  0
LINE
  5
2987
  8
0
  6
CONTINUOUS
 10
-42.1000000000000227
 20
159.7695536307712985
 30
-0.0000000000000355
 11
-42.1000000000000227
 21
163.7761619566811078
 31
-0.0000000000000364
210
0.0
220
1.0
230
-0.0000000000000002
  0
LINE
  5
2988
  8
0
  6
CONTINUOUS
 10
42.1000000000000227
 20
159.7695536307712985
 30
-0.0000000000000355
 11
42.1000000000000227
 21
163.7761619566811078
 31
-0.0000000000000364
210
0.0
220
1.0
230
-0.0000000000000002
  0
ARC
  5
2989
  8
0
  6
CONTINUOUS
 10
-17.0999999999881815
 20
159.7012735825881009
 30
0.0
 40
25.0000932431375489
210
0.0
220
-0.0000000000000002
230
-1.0
 50
179.8435140456658132
 51
201.1831543930329076
  0
ARC
  5
298A
  8
0
  6
CONTINUOUS
 10
17.0999999999881709
 20
159.7012735825881009
 30
0.0
 40
25.0000932431375702
210
0.0
220
-0.0000000000000002
230
-1.0
 50
338.8168456069672061
 51
0.1564859543342076
  0
ARC
  5
298B
  8
0
  6
CONTINUOUS
 10
-51.6000000000018275
 20
146.3312735825857089
 30
0.0
 40
12.0000000000017994
210
0.0
220
-0.0000000000000002
230
-1.0
 50
0.0000000000013613
 51
21.1831543930282216
  0
ARC
  5
298C
  8
0
  6
CONTINUOUS
 10
51.6000000000018275
 20
146.3312735825857089
 30
0.0
 40
12.0000000000017906
210
0.0
220
-0.0000000000000002
230
-1.0
 50
158.8168456069718104
 51
179.9999999999986073
  0
LINE
  5
298D
  8
0
  6
CONTINUOUS
 10
-39.6000000000000227
 20
125.3900000000000006
 30
-0.0000000000000278
 11
-39.6000000000000227
 21
146.3312735825859932
 31
-0.0000000000000325
210
0.0
220
1.0
230
-0.0000000000000002
  0
LINE
  5
298E
  8
0
  6
CONTINUOUS
 10
39.6000000000000227
 20
125.3900000000000006
 30
-0.0000000000000278
 11
39.6000000000000227
 21
146.3312735825859932
 31
-0.0000000000000325
210
0.0
220
1.0
230
-0.0000000000000002
  0
LINE
  5
298F
  8
0
  6
CONTINUOUS
 10
36.8909186828981888
 20
115.8269380980374024
 30
-0.0000000000000257
 11
40.0
 21
110.0
 31
-0.0000000000000244
210
0.0
220
1.0
230
-0.0000000000000002
  0
LINE
  5
2990
  8
0
  6
CONTINUOUS
 10
-36.8909186828981888
 20
115.8269380980374024
 30
-0.0000000000000257
 11
-40.0
 21
110.0
 31
-0.0000000000000244
210
0.0
220
1.0
230
-0.0000000000000002
  0
ARC
  5
2991
  8
0
  6
CONTINUOUS
 10
-39.8203579664697926
 20
117.3900000000000006
 30
0.0
 40
3.3203579664697842
210
0.0
220
-0.0000000000000002
230
-1.0
 50
331.9169420352934026
 51
0.0000000000000127
  0
ARC
  5
2992
  8
0
  6
CONTINUOUS
 10
39.8203579664697926
 20
117.3900000000000006
 30
0.0
 40
3.3203579664697851
210
0.0
220
-0.0000000000000002
230
-1.0
 50
180.0
 51
208.0830579647065974
  0
POLYLINE
  8
0
  5
2A58
  66
     1
 10
0.000000
 20
0.000000
 30
0.000000
  70
     8
  0
VERTEX
  8
0
  5
2A59
 10
-39.6000
 20
125.390
 30
-2.78000e-14
  70
    32
  0
VERTEX
  8
0
  5
2A5A
 10
-39.6000
 20
125.370
 30
-2.77956e-14
  70
    32
  0
VERTEX
  8
0
  5
2A5B
 10
-39.5998
 20
125.350
 30
-2.77913e-14
  70
    32
  0
VERTEX
  8
0
  5
2A5C
 10
-39.5996
 20
125.330
 30
-2.77869e-14
  70
    32
  0
VERTEX
  8
0
  5
2A5D
 10
-39.5993
 20
125.310
 30
-2.77826e-14
  70
    32
  0
VERTEX
  8
0
  5
2A5E
 10
-39.5988
 20
125.291
 30
-2.77782e-14
  70
    32
  0
VERTEX
  8
0
  5
2A5F
 10
-39.5983
 20
125.271
 30
-2.77739e-14
  70
    32
  0
VERTEX
  8
0
  5
2A60
 10
-39.5977
 20
125.251
 30
-2.77695e-14
  70
    32
  0
VERTEX
  8
0
  5
2A61
 10
-39.5971
 20
125.231
 30
-2.77652e-14
  70
    32
  0
VERTEX
  8
0
  5
2A62
 10
-39.5963
 20
125.212
 30
-2.77609e-14
  70
    32
  0
VERTEX
  8
0
  5
2A63
 10
-39.5954
 20
125.192
 30
-2.77566e-14
  70
    32
  0
VERTEX
  8
0
  5
2A64
 10
-39.5945
 20
125.173
 30
-2.77523e-14
  70
    32
  0
VERTEX
  8
0
  5
2A65
 10
-39.5934
 20
125.153
 30
-2.77480e-14
  70
    32
  0
VERTEX
  8
0
  5
2A66
 10
-39.5923
 20
125.134
 30
-2.77437e-14
  70
    32
  0
VERTEX
  8
0
  5
2A67
 10
-39.5911
 20
125.115
 30
-2.77394e-14
  70
    32
  0
VERTEX
  8
0
  5
2A68
 10
-39.5898
 20
125.095
 30
-2.77352e-14
  70
    32
  0
VERTEX
  8
0
  5
2A69
 10
-39.5884
 20
125.076
 30
-2.77309e-14
  70
    32
  0
VERTEX
  8
0
  5
2A6A
 10
-39.5869
 20
125.057
 30
-2.77267e-14
  70
    32
  0
VERTEX
  8
0
  5
2A6B
 10
-39.5853
 20
125.038
 30
-2.77225e-14
  70
    32
  0
VERTEX
  8
0
  5
2A6C
 10
-39.5837
 20
125.018
 30
-2.77183e-14
  70
    32
  0
VERTEX
  8
0
  5
2A6D
 10
-39.5819
 20
124.999
 30
-2.77141e-14
  70
    32
  0
VERTEX
  8
0
  5
2A6E
 10
-39.5801
 20
124.980
 30
-2.77100e-14
  70
    32
  0
VERTEX
  8
0
  5
2A6F
 10
-39.5782
 20
124.961
 30
-2.77059e-14
  70
    32
  0
VERTEX
  8
0
  5
2A70
 10
-39.5762
 20
124.942
 30
-2.77018e-14
  70
    32
  0
VERTEX
  8
0
  5
2A71
 10
-39.5742
 20
124.923
 30
-2.76977e-14
  70
    32
  0
VERTEX
  8
0
  5
2A72
 10
-39.5720
 20
124.905
 30
-2.76936e-14
  70
    32
  0
VERTEX
  8
0
  5
2A73
 10
-39.5698
 20
124.886
 30
-2.76896e-14
  70
    32
  0
VERTEX
  8
0
  5
2A74
 10
-39.5674
 20
124.867
 30
-2.76856e-14
  70
    32
  0
VERTEX
  8
0
  5
2A75
 10
-39.5650
 20
124.848
 30
-2.76816e-14
  70
    32
  0
VERTEX
  8
0
  5
2A76
 10
-39.5625
 20
124.829
 30
-2.76776e-14
  70
    32
  0
VERTEX
  8
0
  5
2A77
 10
-39.5600
 20
124.811
 30
-2.76737e-14
  70
    32
  0
VERTEX
  8
0
  5
2A78
 10
-39.5573
 20
124.792
 30
-2.76698e-14
  70
    32
  0
VERTEX
  8
0
  5
2A79
 10
-39.5546
 20
124.774
 30
-2.76660e-14
  70
    32
  0
VERTEX
  8
0
  5
2A7A
 10
-39.5518
 20
124.755
 30
-2.76621e-14
  70
    32
  0
VERTEX
  8
0
  5
2A7B
 10
-39.5489
 20
124.737
 30
-2.76583e-14
  70
    32
  0
VERTEX
  8
0
  5
2A7C
 10
-39.5460
 20
124.718
 30
-2.76546e-14
  70
    32
  0
VERTEX
  8
0
  5
2A7D
 10
-39.5429
 20
124.700
 30
-2.76508e-14
  70
    32
  0
VERTEX
  8
0
  5
2A7E
 10
-39.5398
 20
124.681
 30
-2.76471e-14
  70
    32
  0
VERTEX
  8
0
  5
2A7F
 10
-39.5366
 20
124.663
 30
-2.76435e-14
  70
    32
  0
VERTEX
  8
0
  5
2A80
 10
-39.5333
 20
124.645
 30
-2.76399e-14
  70
    32
  0
VERTEX
  8
0
  5
2A81
 10
-39.5300
 20
124.627
 30
-2.76363e-14
  70
    32
  0
VERTEX
  8
0
  5
2A82
 10
-39.5265
 20
124.608
 30
-2.76327e-14
  70
    32
  0
VERTEX
  8
0
  5
2A83
 10
-39.5230
 20
124.590
 30
-2.76292e-14
  70
    32
  0
VERTEX
  8
0
  5
2A84
 10
-39.5195
 20
124.572
 30
-2.76258e-14
  70
    32
  0
VERTEX
  8
0
  5
2A85
 10
-39.5158
 20
124.554
 30
-2.76224e-14
  70
    32
  0
VERTEX
  8
0
  5
2A86
 10
-39.5121
 20
124.536
 30
-2.76190e-14
  70
    32
  0
VERTEX
  8
0
  5
2A87
 10
-39.5083
 20
124.518
 30
-2.76157e-14
  70
    32
  0
VERTEX
  8
0
  5
2A88
 10
-39.5044
 20
124.500
 30
-2.76124e-14
  70
    32
  0
VERTEX
  8
0
  5
2A89
 10
-39.5004
 20
124.482
 30
-2.76091e-14
  70
    32
  0
VERTEX
  8
0
  5
2A8A
 10
-39.4964
 20
124.464
 30
-2.76060e-14
  70
    32
  0
VERTEX
  8
0
  5
2A8B
 10
-39.4923
 20
124.446
 30
-2.76028e-14
  70
    32
  0
VERTEX
  8
0
  5
2A8C
 10
-39.4881
 20
124.428
 30
-2.75997e-14
  70
    32
  0
VERTEX
  8
0
  5
2A8D
 10
-39.4839
 20
124.411
 30
-2.75967e-14
  70
    32
  0
VERTEX
  8
0
  5
2A8E
 10
-39.4796
 20
124.393
 30
-2.75937e-14
  70
    32
  0
VERTEX
  8
0
  5
2A8F
 10
-39.4752
 20
124.375
 30
-2.75908e-14
  70
    32
  0
VERTEX
  8
0
  5
2A90
 10
-39.4708
 20
124.357
 30
-2.75879e-14
  70
    32
  0
VERTEX
  8
0
  5
2A91
 10
-39.4662
 20
124.340
 30
-2.75851e-14
  70
    32
  0
VERTEX
  8
0
  5
2A92
 10
-39.4616
 20
124.322
 30
-2.75823e-14
  70
    32
  0
VERTEX
  8
0
  5
2A93
 10
-39.4570
 20
124.305
 30
-2.75796e-14
  70
    32
  0
VERTEX
  8
0
  5
2A94
 10
-39.4522
 20
124.287
 30
-2.75770e-14
  70
    32
  0
VERTEX
  8
0
  5
2A95
 10
-39.4474
 20
124.269
 30
-2.75744e-14
  70
    32
  0
VERTEX
  8
0
  5
2A96
 10
-39.4426
 20
124.252
 30
-2.75718e-14
  70
    32
  0
VERTEX
  8
0
  5
2A97
 10
-39.4376
 20
124.235
 30
-2.75694e-14
  70
    32
  0
VERTEX
  8
0
  5
2A98
 10
-39.4326
 20
124.217
 30
-2.75669e-14
  70
    32
  0
VERTEX
  8
0
  5
2A99
 10
-39.4276
 20
124.200
 30
-2.75646e-14
  70
    32
  0
VERTEX
  8
0
  5
2A9A
 10
-39.4224
 20
124.182
 30
-2.75623e-14
  70
    32
  0
VERTEX
  8
0
  5
2A9B
 10
-39.4172
 20
124.165
 30
-2.75601e-14
  70
    32
  0
VERTEX
  8
0
  5
2A9C
 10
-39.4119
 20
124.148
 30
-2.75579e-14
  70
    32
  0
VERTEX
  8
0
  5
2A9D
 10
-39.4066
 20
124.131
 30
-2.75559e-14
  70
    32
  0
VERTEX
  8
0
  5
2A9E
 10
-39.4012
 20
124.113
 30
-2.75538e-14
  70
    32
  0
VERTEX
  8
0
  5
2A9F
 10
-39.3957
 20
124.096
 30
-2.75518e-14
  70
    32
  0
VERTEX
  8
0
  5
2AA0
 10
-39.3902
 20
124.079
 30
-2.75497e-14
  70
    32
  0
VERTEX
  8
0
  5
2AA1
 10
-39.3846
 20
124.062
 30
-2.75476e-14
  70
    32
  0
VERTEX
  8
0
  5
2AA2
 10
-39.3790
 20
124.045
 30
-2.75455e-14
  70
    32
  0
VERTEX
  8
0
  5
2AA3
 10
-39.3733
 20
124.028
 30
-2.75433e-14
  70
    32
  0
VERTEX
  8
0
  5
2AA4
 10
-39.3675
 20
124.011
 30
-2.75411e-14
  70
    32
  0
VERTEX
  8
0
  5
2AA5
 10
-39.3616
 20
123.994
 30
-2.75388e-14
  70
    32
  0
VERTEX
  8
0
  5
2AA6
 10
-39.3557
 20
123.977
 30
-2.75365e-14
  70
    32
  0
VERTEX
  8
0
  5
2AA7
 10
-39.3498
 20
123.960
 30
-2.75342e-14
  70
    32
  0
VERTEX
  8
0
  5
2AA8
 10
-39.3437
 20
123.943
 30
-2.75318e-14
  70
    32
  0
VERTEX
  8
0
  5
2AA9
 10
-39.3377
 20
123.926
 30
-2.75294e-14
  70
    32
  0
VERTEX
  8
0
  5
2AAA
 10
-39.3315
 20
123.909
 30
-2.75270e-14
  70
    32
  0
VERTEX
  8
0
  5
2AAB
 10
-39.3253
 20
123.892
 30
-2.75245e-14
  70
    32
  0
VERTEX
  8
0
  5
2AAC
 10
-39.3190
 20
123.875
 30
-2.75220e-14
  70
    32
  0
VERTEX
  8
0
  5
2AAD
 10
-39.3127
 20
123.859
 30
-2.75194e-14
  70
    32
  0
VERTEX
  8
0
  5
2AAE
 10
-39.3063
 20
123.842
 30
-2.75169e-14
  70
    32
  0
VERTEX
  8
0
  5
2AAF
 10
-39.2999
 20
123.825
 30
-2.75143e-14
  70
    32
  0
VERTEX
  8
0
  5
2AB0
 10
-39.2934
 20
123.809
 30
-2.75116e-14
  70
    32
  0
VERTEX
  8
0
  5
2AB1
 10
-39.2869
 20
123.792
 30
-2.75089e-14
  70
    32
  0
VERTEX
  8
0
  5
2AB2
 10
-39.2803
 20
123.775
 30
-2.75062e-14
  70
    32
  0
VERTEX
  8
0
  5
2AB3
 10
-39.2736
 20
123.759
 30
-2.75035e-14
  70
    32
  0
VERTEX
  8
0
  5
2AB4
 10
-39.2669
 20
123.742
 30
-2.75007e-14
  70
    32
  0
VERTEX
  8
0
  5
2AB5
 10
-39.2601
 20
123.725
 30
-2.74979e-14
  70
    32
  0
VERTEX
  8
0
  5
2AB6
 10
-39.2533
 20
123.709
 30
-2.74951e-14
  70
    32
  0
VERTEX
  8
0
  5
2AB7
 10
-39.2464
 20
123.692
 30
-2.74923e-14
  70
    32
  0
VERTEX
  8
0
  5
2AB8
 10
-39.2395
 20
123.676
 30
-2.74894e-14
  70
    32
  0
VERTEX
  8
0
  5
2AB9
 10
-39.2325
 20
123.659
 30
-2.74865e-14
  70
    32
  0
VERTEX
  8
0
  5
2ABA
 10
-39.2254
 20
123.643
 30
-2.74836e-14
  70
    32
  0
VERTEX
  8
0
  5
2ABB
 10
-39.2183
 20
123.627
 30
-2.74806e-14
  70
    32
  0
VERTEX
  8
0
  5
2ABC
 10
-39.2112
 20
123.610
 30
-2.74776e-14
  70
    32
  0
VERTEX
  8
0
  5
2ABD
 10
-39.2040
 20
123.594
 30
-2.74746e-14
  70
    32
  0
VERTEX
  8
0
  5
2ABE
 10
-39.1967
 20
123.577
 30
-2.74716e-14
  70
    32
  0
VERTEX
  8
0
  5
2ABF
 10
-39.1894
 20
123.561
 30
-2.74685e-14
  70
    32
  0
VERTEX
  8
0
  5
2AC0
 10
-39.1821
 20
123.545
 30
-2.74655e-14
  70
    32
  0
VERTEX
  8
0
  5
2AC1
 10
-39.1747
 20
123.529
 30
-2.74624e-14
  70
    32
  0
VERTEX
  8
0
  5
2AC2
 10
-39.1672
 20
123.512
 30
-2.74593e-14
  70
    32
  0
VERTEX
  8
0
  5
2AC3
 10
-39.1597
 20
123.496
 30
-2.74561e-14
  70
    32
  0
VERTEX
  8
0
  5
2AC4
 10
-39.1522
 20
123.480
 30
-2.74530e-14
  70
    32
  0
VERTEX
  8
0
  5
2AC5
 10
-39.1446
 20
123.464
 30
-2.74498e-14
  70
    32
  0
VERTEX
  8
0
  5
2AC6
 10
-39.1369
 20
123.447
 30
-2.74466e-14
  70
    32
  0
VERTEX
  8
0
  5
2AC7
 10
-39.1292
 20
123.431
 30
-2.74434e-14
  70
    32
  0
VERTEX
  8
0
  5
2AC8
 10
-39.1215
 20
123.415
 30
-2.74401e-14
  70
    32
  0
VERTEX
  8
0
  5
2AC9
 10
-39.1137
 20
123.399
 30
-2.74369e-14
  70
    32
  0
VERTEX
  8
0
  5
2ACA
 10
-39.1058
 20
123.383
 30
-2.74336e-14
  70
    32
  0
VERTEX
  8
0
  5
2ACB
 10
-39.0980
 20
123.367
 30
-2.74303e-14
  70
    32
  0
VERTEX
  8
0
  5
2ACC
 10
-39.0900
 20
123.351
 30
-2.74270e-14
  70
    32
  0
VERTEX
  8
0
  5
2ACD
 10
-39.0821
 20
123.335
 30
-2.74237e-14
  70
    32
  0
VERTEX
  8
0
  5
2ACE
 10
-39.0740
 20
123.319
 30
-2.74203e-14
  70
    32
  0
VERTEX
  8
0
  5
2ACF
 10
-39.0660
 20
123.303
 30
-2.74170e-14
  70
    32
  0
VERTEX
  8
0
  5
2AD0
 10
-39.0579
 20
123.287
 30
-2.74136e-14
  70
    32
  0
VERTEX
  8
0
  5
2AD1
 10
-39.0497
 20
123.271
 30
-2.74103e-14
  70
    32
  0
VERTEX
  8
0
  5
2AD2
 10
-39.0415
 20
123.255
 30
-2.74069e-14
  70
    32
  0
VERTEX
  8
0
  5
2AD3
 10
-39.0333
 20
123.239
 30
-2.74035e-14
  70
    32
  0
VERTEX
  8
0
  5
2AD4
 10
-39.0250
 20
123.223
 30
-2.74001e-14
  70
    32
  0
VERTEX
  8
0
  5
2AD5
 10
-39.0167
 20
123.207
 30
-2.73966e-14
  70
    32
  0
VERTEX
  8
0
  5
2AD6
 10
-39.0083
 20
123.191
 30
-2.73932e-14
  70
    32
  0
VERTEX
  8
0
  5
2AD7
 10
-38.9999
 20
123.175
 30
-2.73897e-14
  70
    32
  0
VERTEX
  8
0
  5
2AD8
 10
-38.9915
 20
123.160
 30
-2.73863e-14
  70
    32
  0
VERTEX
  8
0
  5
2AD9
 10
-38.9830
 20
123.144
 30
-2.73828e-14
  70
    32
  0
VERTEX
  8
0
  5
2ADA
 10
-38.9745
 20
123.128
 30
-2.73794e-14
  70
    32
  0
VERTEX
  8
0
  5
2ADB
 10
-38.9659
 20
123.112
 30
-2.73759e-14
  70
    32
  0
VERTEX
  8
0
  5
2ADC
 10
-38.9573
 20
123.096
 30
-2.73724e-14
  70
    32
  0
VERTEX
  8
0
  5
2ADD
 10
-38.9487
 20
123.081
 30
-2.73689e-14
  70
    32
  0
VERTEX
  8
0
  5
2ADE
 10
-38.9400
 20
123.065
 30
-2.73654e-14
  70
    32
  0
VERTEX
  8
0
  5
2ADF
 10
-38.9313
 20
123.049
 30
-2.73619e-14
  70
    32
  0
VERTEX
  8
0
  5
2AE0
 10
-38.9225
 20
123.033
 30
-2.73584e-14
  70
    32
  0
VERTEX
  8
0
  5
2AE1
 10
-38.9137
 20
123.018
 30
-2.73549e-14
  70
    32
  0
VERTEX
  8
0
  5
2AE2
 10
-38.9049
 20
123.002
 30
-2.73514e-14
  70
    32
  0
VERTEX
  8
0
  5
2AE3
 10
-38.8960
 20
122.986
 30
-2.73478e-14
  70
    32
  0
VERTEX
  8
0
  5
2AE4
 10
-38.8871
 20
122.970
 30
-2.73443e-14
  70
    32
  0
VERTEX
  8
0
  5
2AE5
 10
-38.8782
 20
122.955
 30
-2.73408e-14
  70
    32
  0
VERTEX
  8
0
  5
2AE6
 10
-38.8692
 20
122.939
 30
-2.73373e-14
  70
    32
  0
VERTEX
  8
0
  5
2AE7
 10
-38.8602
 20
122.923
 30
-2.73337e-14
  70
    32
  0
VERTEX
  8
0
  5
2AE8
 10
-38.8512
 20
122.908
 30
-2.73302e-14
  70
    32
  0
VERTEX
  8
0
  5
2AE9
 10
-38.8421
 20
122.892
 30
-2.73267e-14
  70
    32
  0
VERTEX
  8
0
  5
2AEA
 10
-38.8330
 20
122.877
 30
-2.73232e-14
  70
    32
  0
VERTEX
  8
0
  5
2AEB
 10
-38.8239
 20
122.861
 30
-2.73196e-14
  70
    32
  0
VERTEX
  8
0
  5
2AEC
 10
-38.8147
 20
122.845
 30
-2.73161e-14
  70
    32
  0
VERTEX
  8
0
  5
2AED
 10
-38.8055
 20
122.830
 30
-2.73126e-14
  70
    32
  0
VERTEX
  8
0
  5
2AEE
 10
-38.7963
 20
122.814
 30
-2.73091e-14
  70
    32
  0
VERTEX
  8
0
  5
2AEF
 10
-38.7870
 20
122.799
 30
-2.73055e-14
  70
    32
  0
VERTEX
  8
0
  5
2AF0
 10
-38.7777
 20
122.783
 30
-2.73020e-14
  70
    32
  0
VERTEX
  8
0
  5
2AF1
 10
-38.7684
 20
122.768
 30
-2.72985e-14
  70
    32
  0
VERTEX
  8
0
  5
2AF2
 10
-38.7591
 20
122.752
 30
-2.72950e-14
  70
    32
  0
VERTEX
  8
0
  5
2AF3
 10
-38.7497
 20
122.737
 30
-2.72915e-14
  70
    32
  0
VERTEX
  8
0
  5
2AF4
 10
-38.7403
 20
122.721
 30
-2.72880e-14
  70
    32
  0
VERTEX
  8
0
  5
2AF5
 10
-38.7308
 20
122.706
 30
-2.72845e-14
  70
    32
  0
VERTEX
  8
0
  5
2AF6
 10
-38.7214
 20
122.690
 30
-2.72810e-14
  70
    32
  0
VERTEX
  8
0
  5
2AF7
 10
-38.7119
 20
122.675
 30
-2.72776e-14
  70
    32
  0
VERTEX
  8
0
  5
2AF8
 10
-38.7023
 20
122.659
 30
-2.72741e-14
  70
    32
  0
VERTEX
  8
0
  5
2AF9
 10
-38.6928
 20
122.644
 30
-2.72706e-14
  70
    32
  0
VERTEX
  8
0
  5
2AFA
 10
-38.6832
 20
122.628
 30
-2.72671e-14
  70
    32
  0
VERTEX
  8
0
  5
2AFB
 10
-38.6736
 20
122.613
 30
-2.72636e-14
  70
    32
  0
VERTEX
  8
0
  5
2AFC
 10
-38.6640
 20
122.597
 30
-2.72602e-14
  70
    32
  0
VERTEX
  8
0
  5
2AFD
 10
-38.6543
 20
122.582
 30
-2.72567e-14
  70
    32
  0
VERTEX
  8
0
  5
2AFE
 10
-38.6447
 20
122.566
 30
-2.72532e-14
  70
    32
  0
VERTEX
  8
0
  5
2AFF
 10
-38.6350
 20
122.551
 30
-2.72498e-14
  70
    32
  0
VERTEX
  8
0
  5
2B00
 10
-38.6252
 20
122.535
 30
-2.72463e-14
  70
    32
  0
VERTEX
  8
0
  5
2B01
 10
-38.6155
 20
122.520
 30
-2.72428e-14
  70
    32
  0
VERTEX
  8
0
  5
2B02
 10
-38.6057
 20
122.504
 30
-2.72394e-14
  70
    32
  0
VERTEX
  8
0
  5
2B03
 10
-38.5959
 20
122.489
 30
-2.72359e-14
  70
    32
  0
VERTEX
  8
0
  5
2B04
 10
-38.5861
 20
122.474
 30
-2.72325e-14
  70
    32
  0
VERTEX
  8
0
  5
2B05
 10
-38.5763
 20
122.458
 30
-2.72290e-14
  70
    32
  0
VERTEX
  8
0
  5
2B06
 10
-38.5664
 20
122.443
 30
-2.72256e-14
  70
    32
  0
VERTEX
  8
0
  5
2B07
 10
-38.5565
 20
122.427
 30
-2.72222e-14
  70
    32
  0
VERTEX
  8
0
  5
2B08
 10
-38.5466
 20
122.412
 30
-2.72187e-14
  70
    32
  0
VERTEX
  8
0
  5
2B09
 10
-38.5367
 20
122.397
 30
-2.72153e-14
  70
    32
  0
VERTEX
  8
0
  5
2B0A
 10
-38.5267
 20
122.381
 30
-2.72118e-14
  70
    32
  0
VERTEX
  8
0
  5
2B0B
 10
-38.5168
 20
122.366
 30
-2.72084e-14
  70
    32
  0
VERTEX
  8
0
  5
2B0C
 10
-38.5068
 20
122.350
 30
-2.72050e-14
  70
    32
  0
VERTEX
  8
0
  5
2B0D
 10
-38.4968
 20
122.335
 30
-2.72016e-14
  70
    32
  0
VERTEX
  8
0
  5
2B0E
 10
-38.4868
 20
122.320
 30
-2.71981e-14
  70
    32
  0
VERTEX
  8
0
  5
2B0F
 10
-38.4767
 20
122.304
 30
-2.71947e-14
  70
    32
  0
VERTEX
  8
0
  5
2B10
 10
-38.4667
 20
122.289
 30
-2.71913e-14
  70
    32
  0
VERTEX
  8
0
  5
2B11
 10
-38.4566
 20
122.273
 30
-2.71879e-14
  70
    32
  0
VERTEX
  8
0
  5
2B12
 10
-38.4465
 20
122.258
 30
-2.71845e-14
  70
    32
  0
VERTEX
  8
0
  5
2B13
 10
-38.4364
 20
122.243
 30
-2.71810e-14
  70
    32
  0
VERTEX
  8
0
  5
2B14
 10
-38.4263
 20
122.227
 30
-2.71776e-14
  70
    32
  0
VERTEX
  8
0
  5
2B15
 10
-38.4162
 20
122.212
 30
-2.71742e-14
  70
    32
  0
VERTEX
  8
0
  5
2B16
 10
-38.4060
 20
122.196
 30
-2.71708e-14
  70
    32
  0
VERTEX
  8
0
  5
2B17
 10
-38.3959
 20
122.181
 30
-2.71674e-14
  70
    32
  0
VERTEX
  8
0
  5
2B18
 10
-38.3857
 20
122.165
 30
-2.71640e-14
  70
    32
  0
VERTEX
  8
0
  5
2B19
 10
-38.3755
 20
122.150
 30
-2.71606e-14
  70
    32
  0
VERTEX
  8
0
  5
2B1A
 10
-38.3653
 20
122.135
 30
-2.71572e-14
  70
    32
  0
VERTEX
  8
0
  5
2B1B
 10
-38.3551
 20
122.119
 30
-2.71538e-14
  70
    32
  0
VERTEX
  8
0
  5
2B1C
 10
-38.3449
 20
122.104
 30
-2.71504e-14
  70
    32
  0
VERTEX
  8
0
  5
2B1D
 10
-38.3346
 20
122.088
 30
-2.71470e-14
  70
    32
  0
VERTEX
  8
0
  5
2B1E
 10
-38.3244
 20
122.073
 30
-2.71436e-14
  70
    32
  0
VERTEX
  8
0
  5
2B1F
 10
-38.3141
 20
122.058
 30
-2.71402e-14
  70
    32
  0
VERTEX
  8
0
  5
2B20
 10
-38.3038
 20
122.042
 30
-2.71369e-14
  70
    32
  0
VERTEX
  8
0
  5
2B21
 10
-38.2936
 20
122.027
 30
-2.71335e-14
  70
    32
  0
VERTEX
  8
0
  5
2B22
 10
-38.2833
 20
122.011
 30
-2.71301e-14
  70
    32
  0
VERTEX
  8
0
  5
2B23
 10
-38.2730
 20
121.996
 30
-2.71267e-14
  70
    32
  0
VERTEX
  8
0
  5
2B24
 10
-38.2627
 20
121.980
 30
-2.71233e-14
  70
    32
  0
VERTEX
  8
0
  5
2B25
 10
-38.2523
 20
121.965
 30
-2.71199e-14
  70
    32
  0
VERTEX
  8
0
  5
2B26
 10
-38.2420
 20
121.949
 30
-2.71166e-14
  70
    32
  0
VERTEX
  8
0
  5
2B27
 10
-38.2317
 20
121.934
 30
-2.71132e-14
  70
    32
  0
VERTEX
  8
0
  5
2B28
 10
-38.2213
 20
121.918
 30
-2.71098e-14
  70
    32
  0
VERTEX
  8
0
  5
2B29
 10
-38.2110
 20
121.903
 30
-2.71064e-14
  70
    32
  0
VERTEX
  8
0
  5
2B2A
 10
-38.2006
 20
121.888
 30
-2.71030e-14
  70
    32
  0
VERTEX
  8
0
  5
2B2B
 10
-38.1903
 20
121.872
 30
-2.70997e-14
  70
    32
  0
VERTEX
  8
0
  5
2B2C
 10
-38.1799
 20
121.857
 30
-2.70963e-14
  70
    32
  0
VERTEX
  8
0
  5
2B2D
 10
-38.1695
 20
121.841
 30
-2.70929e-14
  70
    32
  0
VERTEX
  8
0
  5
2B2E
 10
-38.1591
 20
121.826
 30
-2.70896e-14
  70
    32
  0
VERTEX
  8
0
  5
2B2F
 10
-38.1488
 20
121.810
 30
-2.70862e-14
  70
    32
  0
VERTEX
  8
0
  5
2B30
 10
-38.1384
 20
121.794
 30
-2.70828e-14
  70
    32
  0
VERTEX
  8
0
  5
2B31
 10
-38.1280
 20
121.779
 30
-2.70795e-14
  70
    32
  0
VERTEX
  8
0
  5
2B32
 10
-38.1176
 20
121.763
 30
-2.70761e-14
  70
    32
  0
VERTEX
  8
0
  5
2B33
 10
-38.1072
 20
121.748
 30
-2.70727e-14
  70
    32
  0
VERTEX
  8
0
  5
2B34
 10
-38.0968
 20
121.732
 30
-2.70694e-14
  70
    32
  0
VERTEX
  8
0
  5
2B35
 10
-38.0864
 20
121.717
 30
-2.70660e-14
  70
    32
  0
VERTEX
  8
0
  5
2B36
 10
-38.0760
 20
121.701
 30
-2.70626e-14
  70
    32
  0
VERTEX
  8
0
  5
2B37
 10
-38.0656
 20
121.685
 30
-2.70593e-14
  70
    32
  0
VERTEX
  8
0
  5
2B38
 10
-38.0552
 20
121.670
 30
-2.70559e-14
  70
    32
  0
VERTEX
  8
0
  5
2B39
 10
-38.0448
 20
121.654
 30
-2.70525e-14
  70
    32
  0
VERTEX
  8
0
  5
2B3A
 10
-38.0344
 20
121.639
 30
-2.70492e-14
  70
    32
  0
VERTEX
  8
0
  5
2B3B
 10
-38.0240
 20
121.623
 30
-2.70458e-14
  70
    32
  0
VERTEX
  8
0
  5
2B3C
 10
-38.0136
 20
121.607
 30
-2.70425e-14
  70
    32
  0
VERTEX
  8
0
  5
2B3D
 10
-38.0032
 20
121.592
 30
-2.70391e-14
  70
    32
  0
VERTEX
  8
0
  5
2B3E
 10
-37.9928
 20
121.576
 30
-2.70358e-14
  70
    32
  0
VERTEX
  8
0
  5
2B3F
 10
-37.9824
 20
121.560
 30
-2.70324e-14
  70
    32
  0
VERTEX
  8
0
  5
2B40
 10
-37.9720
 20
121.545
 30
-2.70290e-14
  70
    32
  0
VERTEX
  8
0
  5
2B41
 10
-37.9616
 20
121.529
 30
-2.70257e-14
  70
    32
  0
VERTEX
  8
0
  5
2B42
 10
-37.9512
 20
121.513
 30
-2.70223e-14
  70
    32
  0
VERTEX
  8
0
  5
2B43
 10
-37.9409
 20
121.497
 30
-2.70190e-14
  70
    32
  0
VERTEX
  8
0
  5
2B44
 10
-37.9305
 20
121.482
 30
-2.70156e-14
  70
    32
  0
VERTEX
  8
0
  5
2B45
 10
-37.9201
 20
121.466
 30
-2.70123e-14
  70
    32
  0
VERTEX
  8
0
  5
2B46
 10
-37.9097
 20
121.450
 30
-2.70089e-14
  70
    32
  0
VERTEX
  8
0
  5
2B47
 10
-37.8994
 20
121.434
 30
-2.70055e-14
  70
    32
  0
VERTEX
  8
0
  5
2B48
 10
-37.8890
 20
121.419
 30
-2.70022e-14
  70
    32
  0
VERTEX
  8
0
  5
2B49
 10
-37.8787
 20
121.403
 30
-2.69988e-14
  70
    32
  0
VERTEX
  8
0
  5
2B4A
 10
-37.8683
 20
121.387
 30
-2.69954e-14
  70
    32
  0
VERTEX
  8
0
  5
2B4B
 10
-37.8580
 20
121.371
 30
-2.69919e-14
  70
    32
  0
VERTEX
  8
0
  5
2B4C
 10
-37.8477
 20
121.355
 30
-2.69884e-14
  70
    32
  0
VERTEX
  8
0
  5
2B4D
 10
-37.8373
 20
121.339
 30
-2.69847e-14
  70
    32
  0
VERTEX
  8
0
  5
2B4E
 10
-37.8270
 20
121.323
 30
-2.69810e-14
  70
    32
  0
VERTEX
  8
0
  5
2B4F
 10
-37.8167
 20
121.307
 30
-2.69773e-14
  70
    32
  0
VERTEX
  8
0
  5
2B50
 10
-37.8064
 20
121.291
 30
-2.69734e-14
  70
    32
  0
VERTEX
  8
0
  5
2B51
 10
-37.7962
 20
121.275
 30
-2.69695e-14
  70
    32
  0
VERTEX
  8
0
  5
2B52
 10
-37.7859
 20
121.259
 30
-2.69656e-14
  70
    32
  0
VERTEX
  8
0
  5
2B53
 10
-37.7756
 20
121.244
 30
-2.69616e-14
  70
    32
  0
VERTEX
  8
0
  5
2B54
 10
-37.7654
 20
121.227
 30
-2.69575e-14
  70
    32
  0
VERTEX
  8
0
  5
2B55
 10
-37.7551
 20
121.211
 30
-2.69534e-14
  70
    32
  0
VERTEX
  8
0
  5
2B56
 10
-37.7449
 20
121.195
 30
-2.69492e-14
  70
    32
  0
VERTEX
  8
0
  5
2B57
 10
-37.7347
 20
121.179
 30
-2.69450e-14
  70
    32
  0
VERTEX
  8
0
  5
2B58
 10
-37.7245
 20
121.163
 30
-2.69407e-14
  70
    32
  0
VERTEX
  8
0
  5
2B59
 10
-37.7143
 20
121.147
 30
-2.69363e-14
  70
    32
  0
VERTEX
  8
0
  5
2B5A
 10
-37.7041
 20
121.131
 30
-2.69319e-14
  70
    32
  0
VERTEX
  8
0
  5
2B5B
 10
-37.6940
 20
121.115
 30
-2.69275e-14
  70
    32
  0
VERTEX
  8
0
  5
2B5C
 10
-37.6838
 20
121.099
 30
-2.69230e-14
  70
    32
  0
VERTEX
  8
0
  5
2B5D
 10
-37.6737
 20
121.083
 30
-2.69185e-14
  70
    32
  0
VERTEX
  8
0
  5
2B5E
 10
-37.6636
 20
121.066
 30
-2.69140e-14
  70
    32
  0
VERTEX
  8
0
  5
2B5F
 10
-37.6535
 20
121.050
 30
-2.69094e-14
  70
    32
  0
VERTEX
  8
0
  5
2B60
 10
-37.6434
 20
121.034
 30
-2.69048e-14
  70
    32
  0
VERTEX
  8
0
  5
2B61
 10
-37.6333
 20
121.018
 30
-2.69001e-14
  70
    32
  0
VERTEX
  8
0
  5
2B62
 10
-37.6233
 20
121.001
 30
-2.68954e-14
  70
    32
  0
VERTEX
  8
0
  5
2B63
 10
-37.6132
 20
120.985
 30
-2.68906e-14
  70
    32
  0
VERTEX
  8
0
  5
2B64
 10
-37.6032
 20
120.969
 30
-2.68859e-14
  70
    32
  0
VERTEX
  8
0
  5
2B65
 10
-37.5932
 20
120.952
 30
-2.68811e-14
  70
    32
  0
VERTEX
  8
0
  5
2B66
 10
-37.5832
 20
120.936
 30
-2.68763e-14
  70
    32
  0
VERTEX
  8
0
  5
2B67
 10
-37.5733
 20
120.919
 30
-2.68714e-14
  70
    32
  0
VERTEX
  8
0
  5
2B68
 10
-37.5633
 20
120.903
 30
-2.68665e-14
  70
    32
  0
VERTEX
  8
0
  5
2B69
 10
-37.5534
 20
120.887
 30
-2.68616e-14
  70
    32
  0
VERTEX
  8
0
  5
2B6A
 10
-37.5435
 20
120.870
 30
-2.68567e-14
  70
    32
  0
VERTEX
  8
0
  5
2B6B
 10
-37.5336
 20
120.854
 30
-2.68518e-14
  70
    32
  0
VERTEX
  8
0
  5
2B6C
 10
-37.5237
 20
120.837
 30
-2.68468e-14
  70
    32
  0
VERTEX
  8
0
  5
2B6D
 10
-37.5139
 20
120.820
 30
-2.68419e-14
  70
    32
  0
VERTEX
  8
0
  5
2B6E
 10
-37.5041
 20
120.804
 30
-2.68369e-14
  70
    32
  0
VERTEX
  8
0
  5
2B6F
 10
-37.4943
 20
120.787
 30
-2.68319e-14
  70
    32
  0
VERTEX
  8
0
  5
2B70
 10
-37.4845
 20
120.771
 30
-2.68269e-14
  70
    32
  0
VERTEX
  8
0
  5
2B71
 10
-37.4748
 20
120.754
 30
-2.68219e-14
  70
    32
  0
VERTEX
  8
0
  5
2B72
 10
-37.4650
 20
120.737
 30
-2.68169e-14
  70
    32
  0
VERTEX
  8
0
  5
2B73
 10
-37.4553
 20
120.721
 30
-2.68118e-14
  70
    32
  0
VERTEX
  8
0
  5
2B74
 10
-37.4457
 20
120.704
 30
-2.68068e-14
  70
    32
  0
VERTEX
  8
0
  5
2B75
 10
-37.4360
 20
120.687
 30
-2.68018e-14
  70
    32
  0
VERTEX
  8
0
  5
2B76
 10
-37.4264
 20
120.670
 30
-2.67967e-14
  70
    32
  0
VERTEX
  8
0
  5
2B77
 10
-37.4168
 20
120.653
 30
-2.67917e-14
  70
    32
  0
VERTEX
  8
0
  5
2B78
 10
-37.4072
 20
120.637
 30
-2.67867e-14
  70
    32
  0
VERTEX
  8
0
  5
2B79
 10
-37.3977
 20
120.620
 30
-2.67816e-14
  70
    32
  0
VERTEX
  8
0
  5
2B7A
 10
-37.3881
 20
120.603
 30
-2.67766e-14
  70
    32
  0
VERTEX
  8
0
  5
2B7B
 10
-37.3786
 20
120.586
 30
-2.67716e-14
  70
    32
  0
VERTEX
  8
0
  5
2B7C
 10
-37.3692
 20
120.569
 30
-2.67666e-14
  70
    32
  0
VERTEX
  8
0
  5
2B7D
 10
-37.3597
 20
120.552
 30
-2.67616e-14
  70
    32
  0
VERTEX
  8
0
  5
2B7E
 10
-37.3503
 20
120.535
 30
-2.67566e-14
  70
    32
  0
VERTEX
  8
0
  5
2B7F
 10
-37.3409
 20
120.518
 30
-2.67517e-14
  70
    32
  0
VERTEX
  8
0
  5
2B80
 10
-37.3316
 20
120.501
 30
-2.67467e-14
  70
    32
  0
VERTEX
  8
0
  5
2B81
 10
-37.3223
 20
120.484
 30
-2.67418e-14
  70
    32
  0
VERTEX
  8
0
  5
2B82
 10
-37.3130
 20
120.467
 30
-2.67369e-14
  70
    32
  0
VERTEX
  8
0
  5
2B83
 10
-37.3037
 20
120.449
 30
-2.67320e-14
  70
    32
  0
VERTEX
  8
0
  5
2B84
 10
-37.2945
 20
120.432
 30
-2.67271e-14
  70
    32
  0
VERTEX
  8
0
  5
2B85
 10
-37.2853
 20
120.415
 30
-2.67223e-14
  70
    32
  0
VERTEX
  8
0
  5
2B86
 10
-37.2761
 20
120.398
 30
-2.67175e-14
  70
    32
  0
VERTEX
  8
0
  5
2B87
 10
-37.2670
 20
120.380
 30
-2.67127e-14
  70
    32
  0
VERTEX
  8
0
  5
2B88
 10
-37.2579
 20
120.363
 30
-2.67079e-14
  70
    32
  0
VERTEX
  8
0
  5
2B89
 10
-37.2488
 20
120.346
 30
-2.67032e-14
  70
    32
  0
VERTEX
  8
0
  5
2B8A
 10
-37.2398
 20
120.328
 30
-2.66985e-14
  70
    32
  0
VERTEX
  8
0
  5
2B8B
 10
-37.2308
 20
120.311
 30
-2.66939e-14
  70
    32
  0
VERTEX
  8
0
  5
2B8C
 10
-37.2218
 20
120.293
 30
-2.66893e-14
  70
    32
  0
VERTEX
  8
0
  5
2B8D
 10
-37.2129
 20
120.276
 30
-2.66847e-14
  70
    32
  0
VERTEX
  8
0
  5
2B8E
 10
-37.2040
 20
120.258
 30
-2.66801e-14
  70
    32
  0
VERTEX
  8
0
  5
2B8F
 10
-37.1951
 20
120.241
 30
-2.66756e-14
  70
    32
  0
VERTEX
  8
0
  5
2B90
 10
-37.1863
 20
120.223
 30
-2.66712e-14
  70
    32
  0
VERTEX
  8
0
  5
2B91
 10
-37.1775
 20
120.206
 30
-2.66667e-14
  70
    32
  0
VERTEX
  8
0
  5
2B92
 10
-37.1687
 20
120.188
 30
-2.66624e-14
  70
    32
  0
VERTEX
  8
0
  5
2B93
 10
-37.1600
 20
120.170
 30
-2.66581e-14
  70
    32
  0
VERTEX
  8
0
  5
2B94
 10
-37.1513
 20
120.152
 30
-2.66538e-14
  70
    32
  0
VERTEX
  8
0
  5
2B95
 10
-37.1427
 20
120.135
 30
-2.66496e-14
  70
    32
  0
VERTEX
  8
0
  5
2B96
 10
-37.1341
 20
120.117
 30
-2.66454e-14
  70
    32
  0
VERTEX
  8
0
  5
2B97
 10
-37.1255
 20
120.099
 30
-2.66413e-14
  70
    32
  0
VERTEX
  8
0
  5
2B98
 10
-37.1170
 20
120.081
 30
-2.66372e-14
  70
    32
  0
VERTEX
  8
0
  5
2B99
 10
-37.1085
 20
120.063
 30
-2.66332e-14
  70
    32
  0
VERTEX
  8
0
  5
2B9A
 10
-37.1001
 20
120.045
 30
-2.66293e-14
  70
    32
  0
VERTEX
  8
0
  5
2B9B
 10
-37.0917
 20
120.027
 30
-2.66254e-14
  70
    32
  0
VERTEX
  8
0
  5
2B9C
 10
-37.0833
 20
120.009
 30
-2.66216e-14
  70
    32
  0
VERTEX
  8
0
  5
2B9D
 10
-37.0750
 20
119.991
 30
-2.66179e-14
  70
    32
  0
VERTEX
  8
0
  5
2B9E
 10
-37.0667
 20
119.973
 30
-2.66142e-14
  70
    32
  0
VERTEX
  8
0
  5
2B9F
 10
-37.0585
 20
119.955
 30
-2.66106e-14
  70
    32
  0
VERTEX
  8
0
  5
2BA0
 10
-37.0503
 20
119.937
 30
-2.66070e-14
  70
    32
  0
VERTEX
  8
0
  5
2BA1
 10
-37.0421
 20
119.918
 30
-2.66036e-14
  70
    32
  0
VERTEX
  8
0
  5
2BA2
 10
-37.0340
 20
119.900
 30
-2.66002e-14
  70
    32
  0
VERTEX
  8
0
  5
2BA3
 10
-37.0260
 20
119.882
 30
-2.65968e-14
  70
    32
  0
VERTEX
  8
0
  5
2BA4
 10
-37.0179
 20
119.863
 30
-2.65935e-14
  70
    32
  0
VERTEX
  8
0
  5
2BA5
 10
-37.0100
 20
119.845
 30
-2.65901e-14
  70
    32
  0
VERTEX
  8
0
  5
2BA6
 10
-37.0020
 20
119.827
 30
-2.65867e-14
  70
    32
  0
VERTEX
  8
0
  5
2BA7
 10
-36.9942
 20
119.808
 30
-2.65834e-14
  70
    32
  0
VERTEX
  8
0
  5
2BA8
 10
-36.9863
 20
119.790
 30
-2.65800e-14
  70
    32
  0
VERTEX
  8
0
  5
2BA9
 10
-36.9785
 20
119.771
 30
-2.65767e-14
  70
    32
  0
VERTEX
  8
0
  5
2BAA
 10
-36.9708
 20
119.753
 30
-2.65733e-14
  70
    32
  0
VERTEX
  8
0
  5
2BAB
 10
-36.9631
 20
119.734
 30
-2.65699e-14
  70
    32
  0
VERTEX
  8
0
  5
2BAC
 10
-36.9554
 20
119.715
 30
-2.65665e-14
  70
    32
  0
VERTEX
  8
0
  5
2BAD
 10
-36.9478
 20
119.696
 30
-2.65632e-14
  70
    32
  0
VERTEX
  8
0
  5
2BAE
 10
-36.9403
 20
119.678
 30
-2.65598e-14
  70
    32
  0
VERTEX
  8
0
  5
2BAF
 10
-36.9328
 20
119.659
 30
-2.65564e-14
  70
    32
  0
VERTEX
  8
0
  5
2BB0
 10
-36.9253
 20
119.640
 30
-2.65530e-14
  70
    32
  0
VERTEX
  8
0
  5
2BB1
 10
-36.9179
 20
119.621
 30
-2.65496e-14
  70
    32
  0
VERTEX
  8
0
  5
2BB2
 10
-36.9106
 20
119.602
 30
-2.65462e-14
  70
    32
  0
VERTEX
  8
0
  5
2BB3
 10
-36.9033
 20
119.583
 30
-2.65428e-14
  70
    32
  0
VERTEX
  8
0
  5
2BB4
 10
-36.8960
 20
119.564
 30
-2.65394e-14
  70
    32
  0
VERTEX
  8
0
  5
2BB5
 10
-36.8888
 20
119.545
 30
-2.65359e-14
  70
    32
  0
VERTEX
  8
0
  5
2BB6
 10
-36.8817
 20
119.526
 30
-2.65325e-14
  70
    32
  0
VERTEX
  8
0
  5
2BB7
 10
-36.8746
 20
119.507
 30
-2.65290e-14
  70
    32
  0
VERTEX
  8
0
  5
2BB8
 10
-36.8675
 20
119.488
 30
-2.65256e-14
  70
    32
  0
VERTEX
  8
0
  5
2BB9
 10
-36.8605
 20
119.468
 30
-2.65221e-14
  70
    32
  0
VERTEX
  8
0
  5
2BBA
 10
-36.8536
 20
119.449
 30
-2.65186e-14
  70
    32
  0
VERTEX
  8
0
  5
2BBB
 10
-36.8467
 20
119.430
 30
-2.65152e-14
  70
    32
  0
VERTEX
  8
0
  5
2BBC
 10
-36.8399
 20
119.410
 30
-2.65117e-14
  70
    32
  0
VERTEX
  8
0
  5
2BBD
 10
-36.8331
 20
119.391
 30
-2.65082e-14
  70
    32
  0
VERTEX
  8
0
  5
2BBE
 10
-36.8264
 20
119.371
 30
-2.65046e-14
  70
    32
  0
VERTEX
  8
0
  5
2BBF
 10
-36.8197
 20
119.352
 30
-2.65011e-14
  70
    32
  0
VERTEX
  8
0
  5
2BC0
 10
-36.8131
 20
119.332
 30
-2.64976e-14
  70
    32
  0
VERTEX
  8
0
  5
2BC1
 10
-36.8066
 20
119.313
 30
-2.64940e-14
  70
    32
  0
VERTEX
  8
0
  5
2BC2
 10
-36.8001
 20
119.293
 30
-2.64904e-14
  70
    32
  0
VERTEX
  8
0
  5
2BC3
 10
-36.7937
 20
119.273
 30
-2.64869e-14
  70
    32
  0
VERTEX
  8
0
  5
2BC4
 10
-36.7873
 20
119.253
 30
-2.64833e-14
  70
    32
  0
VERTEX
  8
0
  5
2BC5
 10
-36.7810
 20
119.234
 30
-2.64796e-14
  70
    32
  0
VERTEX
  8
0
  5
2BC6
 10
-36.7747
 20
119.214
 30
-2.64760e-14
  70
    32
  0
VERTEX
  8
0
  5
2BC7
 10
-36.7685
 20
119.194
 30
-2.64724e-14
  70
    32
  0
VERTEX
  8
0
  5
2BC8
 10
-36.7623
 20
119.174
 30
-2.64687e-14
  70
    32
  0
VERTEX
  8
0
  5
2BC9
 10
-36.7563
 20
119.154
 30
-2.64650e-14
  70
    32
  0
VERTEX
  8
0
  5
2BCA
 10
-36.7502
 20
119.134
 30
-2.64613e-14
  70
    32
  0
VERTEX
  8
0
  5
2BCB
 10
-36.7443
 20
119.114
 30
-2.64576e-14
  70
    32
  0
VERTEX
  8
0
  5
2BCC
 10
-36.7384
 20
119.093
 30
-2.64539e-14
  70
    32
  0
VERTEX
  8
0
  5
2BCD
 10
-36.7325
 20
119.073
 30
-2.64502e-14
  70
    32
  0
VERTEX
  8
0
  5
2BCE
 10
-36.7267
 20
119.053
 30
-2.64464e-14
  70
    32
  0
VERTEX
  8
0
  5
2BCF
 10
-36.7210
 20
119.033
 30
-2.64426e-14
  70
    32
  0
VERTEX
  8
0
  5
2BD0
 10
-36.7154
 20
119.012
 30
-2.64388e-14
  70
    32
  0
VERTEX
  8
0
  5
2BD1
 10
-36.7098
 20
118.992
 30
-2.64350e-14
  70
    32
  0
VERTEX
  8
0
  5
2BD2
 10
-36.7043
 20
118.971
 30
-2.64311e-14
  70
    32
  0
VERTEX
  8
0
  5
2BD3
 10
-36.6988
 20
118.951
 30
-2.64273e-14
  70
    32
  0
VERTEX
  8
0
  5
2BD4
 10
-36.6934
 20
118.930
 30
-2.64234e-14
  70
    32
  0
VERTEX
  8
0
  5
2BD5
 10
-36.6881
 20
118.910
 30
-2.64195e-14
  70
    32
  0
VERTEX
  8
0
  5
2BD6
 10
-36.6828
 20
118.889
 30
-2.64156e-14
  70
    32
  0
VERTEX
  8
0
  5
2BD7
 10
-36.6776
 20
118.868
 30
-2.64116e-14
  70
    32
  0
VERTEX
  8
0
  5
2BD8
 10
-36.6724
 20
118.847
 30
-2.64076e-14
  70
    32
  0
VERTEX
  8
0
  5
2BD9
 10
-36.6674
 20
118.826
 30
-2.64036e-14
  70
    32
  0
VERTEX
  8
0
  5
2BDA
 10
-36.6624
 20
118.805
 30
-2.63996e-14
  70
    32
  0
VERTEX
  8
0
  5
2BDB
 10
-36.6574
 20
118.785
 30
-2.63956e-14
  70
    32
  0
VERTEX
  8
0
  5
2BDC
 10
-36.6526
 20
118.763
 30
-2.63915e-14
  70
    32
  0
VERTEX
  8
0
  5
2BDD
 10
-36.6478
 20
118.742
 30
-2.63874e-14
  70
    32
  0
VERTEX
  8
0
  5
2BDE
 10
-36.6430
 20
118.721
 30
-2.63833e-14
  70
    32
  0
VERTEX
  8
0
  5
2BDF
 10
-36.6384
 20
118.700
 30
-2.63791e-14
  70
    32
  0
VERTEX
  8
0
  5
2BE0
 10
-36.6338
 20
118.679
 30
-2.63750e-14
  70
    32
  0
VERTEX
  8
0
  5
2BE1
 10
-36.6292
 20
118.657
 30
-2.63708e-14
  70
    32
  0
VERTEX
  8
0
  5
2BE2
 10
-36.6248
 20
118.636
 30
-2.63665e-14
  70
    32
  0
VERTEX
  8
0
  5
2BE3
 10
-36.6204
 20
118.615
 30
-2.63623e-14
  70
    32
  0
VERTEX
  8
0
  5
2BE4
 10
-36.6161
 20
118.593
 30
-2.63580e-14
  70
    32
  0
VERTEX
  8
0
  5
2BE5
 10
-36.6119
 20
118.572
 30
-2.63537e-14
  70
    32
  0
VERTEX
  8
0
  5
2BE6
 10
-36.6077
 20
118.550
 30
-2.63493e-14
  70
    32
  0
VERTEX
  8
0
  5
2BE7
 10
-36.6036
 20
118.528
 30
-2.63450e-14
  70
    32
  0
VERTEX
  8
0
  5
2BE8
 10
-36.5996
 20
118.507
 30
-2.63406e-14
  70
    32
  0
VERTEX
  8
0
  5
2BE9
 10
-36.5956
 20
118.485
 30
-2.63361e-14
  70
    32
  0
VERTEX
  8
0
  5
2BEA
 10
-36.5917
 20
118.463
 30
-2.63317e-14
  70
    32
  0
VERTEX
  8
0
  5
2BEB
 10
-36.5879
 20
118.441
 30
-2.63272e-14
  70
    32
  0
VERTEX
  8
0
  5
2BEC
 10
-36.5842
 20
118.419
 30
-2.63227e-14
  70
    32
  0
VERTEX
  8
0
  5
2BED
 10
-36.5805
 20
118.397
 30
-2.63181e-14
  70
    32
  0
VERTEX
  8
0
  5
2BEE
 10
-36.5770
 20
118.375
 30
-2.63135e-14
  70
    32
  0
VERTEX
  8
0
  5
2BEF
 10
-36.5735
 20
118.353
 30
-2.63089e-14
  70
    32
  0
VERTEX
  8
0
  5
2BF0
 10
-36.5700
 20
118.331
 30
-2.63042e-14
  70
    32
  0
VERTEX
  8
0
  5
2BF1
 10
-36.5667
 20
118.309
 30
-2.62995e-14
  70
    32
  0
VERTEX
  8
0
  5
2BF2
 10
-36.5634
 20
118.286
 30
-2.62948e-14
  70
    32
  0
VERTEX
  8
0
  5
2BF3
 10
-36.5602
 20
118.264
 30
-2.62901e-14
  70
    32
  0
VERTEX
  8
0
  5
2BF4
 10
-36.5571
 20
118.241
 30
-2.62853e-14
  70
    32
  0
VERTEX
  8
0
  5
2BF5
 10
-36.5540
 20
118.219
 30
-2.62804e-14
  70
    32
  0
VERTEX
  8
0
  5
2BF6
 10
-36.5511
 20
118.196
 30
-2.62756e-14
  70
    32
  0
VERTEX
  8
0
  5
2BF7
 10
-36.5482
 20
118.174
 30
-2.62707e-14
  70
    32
  0
VERTEX
  8
0
  5
2BF8
 10
-36.5454
 20
118.151
 30
-2.62657e-14
  70
    32
  0
VERTEX
  8
0
  5
2BF9
 10
-36.5427
 20
118.128
 30
-2.62608e-14
  70
    32
  0
VERTEX
  8
0
  5
2BFA
 10
-36.5400
 20
118.105
 30
-2.62558e-14
  70
    32
  0
VERTEX
  8
0
  5
2BFB
 10
-36.5375
 20
118.083
 30
-2.62507e-14
  70
    32
  0
VERTEX
  8
0
  5
2BFC
 10
-36.5350
 20
118.060
 30
-2.62456e-14
  70
    32
  0
VERTEX
  8
0
  5
2BFD
 10
-36.5326
 20
118.037
 30
-2.62401e-14
  70
    32
  0
VERTEX
  8
0
  5
2BFE
 10
-36.5302
 20
118.014
 30
-2.62343e-14
  70
    32
  0
VERTEX
  8
0
  5
2BFF
 10
-36.5280
 20
117.990
 30
-2.62283e-14
  70
    32
  0
VERTEX
  8
0
  5
2C00
 10
-36.5258
 20
117.967
 30
-2.62220e-14
  70
    32
  0
VERTEX
  8
0
  5
2C01
 10
-36.5238
 20
117.944
 30
-2.62155e-14
  70
    32
  0
VERTEX
  8
0
  5
2C02
 10
-36.5218
 20
117.921
 30
-2.62088e-14
  70
    32
  0
VERTEX
  8
0
  5
2C03
 10
-36.5199
 20
117.897
 30
-2.62020e-14
  70
    32
  0
VERTEX
  8
0
  5
2C04
 10
-36.5181
 20
117.874
 30
-2.61951e-14
  70
    32
  0
VERTEX
  8
0
  5
2C05
 10
-36.5163
 20
117.850
 30
-2.61882e-14
  70
    32
  0
VERTEX
  8
0
  5
2C06
 10
-36.5147
 20
117.827
 30
-2.61813e-14
  70
    32
  0
VERTEX
  8
0
  5
2C07
 10
-36.5131
 20
117.803
 30
-2.61744e-14
  70
    32
  0
VERTEX
  8
0
  5
2C08
 10
-36.5116
 20
117.779
 30
-2.61675e-14
  70
    32
  0
VERTEX
  8
0
  5
2C09
 10
-36.5102
 20
117.755
 30
-2.61608e-14
  70
    32
  0
VERTEX
  8
0
  5
2C0A
 10
-36.5089
 20
117.732
 30
-2.61543e-14
  70
    32
  0
VERTEX
  8
0
  5
2C0B
 10
-36.5077
 20
117.708
 30
-2.61479e-14
  70
    32
  0
VERTEX
  8
0
  5
2C0C
 10
-36.5066
 20
117.684
 30
-2.61417e-14
  70
    32
  0
VERTEX
  8
0
  5
2C0D
 10
-36.5055
 20
117.659
 30
-2.61359e-14
  70
    32
  0
VERTEX
  8
0
  5
2C0E
 10
-36.5046
 20
117.635
 30
-2.61303e-14
  70
    32
  0
VERTEX
  8
0
  5
2C0F
 10
-36.5037
 20
117.611
 30
-2.61251e-14
  70
    32
  0
VERTEX
  8
0
  5
2C10
 10
-36.5029
 20
117.587
 30
-2.61202e-14
  70
    32
  0
VERTEX
  8
0
  5
2C11
 10
-36.5023
 20
117.562
 30
-2.61158e-14
  70
    32
  0
VERTEX
  8
0
  5
2C12
 10
-36.5017
 20
117.538
 30
-2.61118e-14
  70
    32
  0
VERTEX
  8
0
  5
2C13
 10
-36.5012
 20
117.514
 30
-2.61084e-14
  70
    32
  0
VERTEX
  8
0
  5
2C14
 10
-36.5007
 20
117.489
 30
-2.61055e-14
  70
    32
  0
VERTEX
  8
0
  5
2C15
 10
-36.5004
 20
117.464
 30
-2.61031e-14
  70
    32
  0
VERTEX
  8
0
  5
2C16
 10
-36.5002
 20
117.440
 30
-2.61014e-14
  70
    32
  0
VERTEX
  8
0
  5
2C17
 10
-36.5000
 20
117.415
 30
-2.61004e-14
  70
    32
  0
VERTEX
  8
0
  5
2C18
 10
-36.5000
 20
117.390
 30
-2.61000e-14
  70
    32
  0
SEQEND
  8
0
  5
2C19
  0
POLYLINE
  8
0
  5
2C1A
  66
     1
 10
0.000000
 20
0.000000
 30
0.000000
  70
     8
  0
VERTEX
  8
0
  5
2C1B
 10
39.6000
 20
125.390
 30
-2.78000e-14
  70
    32
  0
VERTEX
  8
0
  5
2C1C
 10
39.6000
 20
125.370
 30
-2.77956e-14
  70
    32
  0
VERTEX
  8
0
  5
2C1D
 10
39.5998
 20
125.350
 30
-2.77913e-14
  70
    32
  0
VERTEX
  8
0
  5
2C1E
 10
39.5996
 20
125.330
 30
-2.77869e-14
  70
    32
  0
VERTEX
  8
0
  5
2C1F
 10
39.5993
 20
125.310
 30
-2.77826e-14
  70
    32
  0
VERTEX
  8
0
  5
2C20
 10
39.5988
 20
125.291
 30
-2.77782e-14
  70
    32
  0
VERTEX
  8
0
  5
2C21
 10
39.5983
 20
125.271
 30
-2.77739e-14
  70
    32
  0
VERTEX
  8
0
  5
2C22
 10
39.5977
 20
125.251
 30
-2.77695e-14
  70
    32
  0
VERTEX
  8
0
  5
2C23
 10
39.5971
 20
125.231
 30
-2.77652e-14
  70
    32
  0
VERTEX
  8
0
  5
2C24
 10
39.5963
 20
125.212
 30
-2.77609e-14
  70
    32
  0
VERTEX
  8
0
  5
2C25
 10
39.5954
 20
125.192
 30
-2.77566e-14
  70
    32
  0
VERTEX
  8
0
  5
2C26
 10
39.5945
 20
125.173
 30
-2.77523e-14
  70
    32
  0
VERTEX
  8
0
  5
2C27
 10
39.5934
 20
125.153
 30
-2.77480e-14
  70
    32
  0
VERTEX
  8
0
  5
2C28
 10
39.5923
 20
125.134
 30
-2.77437e-14
  70
    32
  0
VERTEX
  8
0
  5
2C29
 10
39.5911
 20
125.115
 30
-2.77394e-14
  70
    32
  0
VERTEX
  8
0
  5
2C2A
 10
39.5898
 20
125.095
 30
-2.77352e-14
  70
    32
  0
VERTEX
  8
0
  5
2C2B
 10
39.5884
 20
125.076
 30
-2.77309e-14
  70
    32
  0
VERTEX
  8
0
  5
2C2C
 10
39.5869
 20
125.057
 30
-2.77267e-14
  70
    32
  0
VERTEX
  8
0
  5
2C2D
 10
39.5853
 20
125.038
 30
-2.77225e-14
  70
    32
  0
VERTEX
  8
0
  5
2C2E
 10
39.5837
 20
125.018
 30
-2.77183e-14
  70
    32
  0
VERTEX
  8
0
  5
2C2F
 10
39.5819
 20
124.999
 30
-2.77141e-14
  70
    32
  0
VERTEX
  8
0
  5
2C30
 10
39.5801
 20
124.980
 30
-2.77100e-14
  70
    32
  0
VERTEX
  8
0
  5
2C31
 10
39.5782
 20
124.961
 30
-2.77059e-14
  70
    32
  0
VERTEX
  8
0
  5
2C32
 10
39.5762
 20
124.942
 30
-2.77018e-14
  70
    32
  0
VERTEX
  8
0
  5
2C33
 10
39.5742
 20
124.923
 30
-2.76977e-14
  70
    32
  0
VERTEX
  8
0
  5
2C34
 10
39.5720
 20
124.905
 30
-2.76936e-14
  70
    32
  0
VERTEX
  8
0
  5
2C35
 10
39.5698
 20
124.886
 30
-2.76896e-14
  70
    32
  0
VERTEX
  8
0
  5
2C36
 10
39.5674
 20
124.867
 30
-2.76856e-14
  70
    32
  0
VERTEX
  8
0
  5
2C37
 10
39.5650
 20
124.848
 30
-2.76816e-14
  70
    32
  0
VERTEX
  8
0
  5
2C38
 10
39.5625
 20
124.829
 30
-2.76776e-14
  70
    32
  0
VERTEX
  8
0
  5
2C39
 10
39.5600
 20
124.811
 30
-2.76737e-14
  70
    32
  0
VERTEX
  8
0
  5
2C3A
 10
39.5573
 20
124.792
 30
-2.76698e-14
  70
    32
  0
VERTEX
  8
0
  5
2C3B
 10
39.5546
 20
124.774
 30
-2.76660e-14
  70
    32
  0
VERTEX
  8
0
  5
2C3C
 10
39.5518
 20
124.755
 30
-2.76621e-14
  70
    32
  0
VERTEX
  8
0
  5
2C3D
 10
39.5489
 20
124.737
 30
-2.76583e-14
  70
    32
  0
VERTEX
  8
0
  5
2C3E
 10
39.5460
 20
124.718
 30
-2.76546e-14
  70
    32
  0
VERTEX
  8
0
  5
2C3F
 10
39.5429
 20
124.700
 30
-2.76508e-14
  70
    32
  0
VERTEX
  8
0
  5
2C40
 10
39.5398
 20
124.681
 30
-2.76471e-14
  70
    32
  0
VERTEX
  8
0
  5
2C41
 10
39.5366
 20
124.663
 30
-2.76435e-14
  70
    32
  0
VERTEX
  8
0
  5
2C42
 10
39.5333
 20
124.645
 30
-2.76399e-14
  70
    32
  0
VERTEX
  8
0
  5
2C43
 10
39.5300
 20
124.627
 30
-2.76363e-14
  70
    32
  0
VERTEX
  8
0
  5
2C44
 10
39.5265
 20
124.608
 30
-2.76327e-14
  70
    32
  0
VERTEX
  8
0
  5
2C45
 10
39.5230
 20
124.590
 30
-2.76292e-14
  70
    32
  0
VERTEX
  8
0
  5
2C46
 10
39.5195
 20
124.572
 30
-2.76258e-14
  70
    32
  0
VERTEX
  8
0
  5
2C47
 10
39.5158
 20
124.554
 30
-2.76224e-14
  70
    32
  0
VERTEX
  8
0
  5
2C48
 10
39.5121
 20
124.536
 30
-2.76190e-14
  70
    32
  0
VERTEX
  8
0
  5
2C49
 10
39.5083
 20
124.518
 30
-2.76157e-14
  70
    32
  0
VERTEX
  8
0
  5
2C4A
 10
39.5044
 20
124.500
 30
-2.76124e-14
  70
    32
  0
VERTEX
  8
0
  5
2C4B
 10
39.5004
 20
124.482
 30
-2.76091e-14
  70
    32
  0
VERTEX
  8
0
  5
2C4C
 10
39.4964
 20
124.464
 30
-2.76060e-14
  70
    32
  0
VERTEX
  8
0
  5
2C4D
 10
39.4923
 20
124.446
 30
-2.76028e-14
  70
    32
  0
VERTEX
  8
0
  5
2C4E
 10
39.4881
 20
124.428
 30
-2.75997e-14
  70
    32
  0
VERTEX
  8
0
  5
2C4F
 10
39.4839
 20
124.411
 30
-2.75967e-14
  70
    32
  0
VERTEX
  8
0
  5
2C50
 10
39.4796
 20
124.393
 30
-2.75937e-14
  70
    32
  0
VERTEX
  8
0
  5
2C51
 10
39.4752
 20
124.375
 30
-2.75908e-14
  70
    32
  0
VERTEX
  8
0
  5
2C52
 10
39.4708
 20
124.357
 30
-2.75879e-14
  70
    32
  0
VERTEX
  8
0
  5
2C53
 10
39.4662
 20
124.340
 30
-2.75851e-14
  70
    32
  0
VERTEX
  8
0
  5
2C54
 10
39.4616
 20
124.322
 30
-2.75823e-14
  70
    32
  0
VERTEX
  8
0
  5
2C55
 10
39.4570
 20
124.305
 30
-2.75796e-14
  70
    32
  0
VERTEX
  8
0
  5
2C56
 10
39.4522
 20
124.287
 30
-2.75770e-14
  70
    32
  0
VERTEX
  8
0
  5
2C57
 10
39.4474
 20
124.269
 30
-2.75744e-14
  70
    32
  0
VERTEX
  8
0
  5
2C58
 10
39.4426
 20
124.252
 30
-2.75718e-14
  70
    32
  0
VERTEX
  8
0
  5
2C59
 10
39.4376
 20
124.235
 30
-2.75694e-14
  70
    32
  0
VERTEX
  8
0
  5
2C5A
 10
39.4326
 20
124.217
 30
-2.75669e-14
  70
    32
  0
VERTEX
  8
0
  5
2C5B
 10
39.4276
 20
124.200
 30
-2.75646e-14
  70
    32
  0
VERTEX
  8
0
  5
2C5C
 10
39.4224
 20
124.182
 30
-2.75623e-14
  70
    32
  0
VERTEX
  8
0
  5
2C5D
 10
39.4172
 20
124.165
 30
-2.75601e-14
  70
    32
  0
VERTEX
  8
0
  5
2C5E
 10
39.4119
 20
124.148
 30
-2.75579e-14
  70
    32
  0
VERTEX
  8
0
  5
2C5F
 10
39.4066
 20
124.131
 30
-2.75559e-14
  70
    32
  0
VERTEX
  8
0
  5
2C60
 10
39.4012
 20
124.113
 30
-2.75538e-14
  70
    32
  0
VERTEX
  8
0
  5
2C61
 10
39.3957
 20
124.096
 30
-2.75518e-14
  70
    32
  0
VERTEX
  8
0
  5
2C62
 10
39.3902
 20
124.079
 30
-2.75497e-14
  70
    32
  0
VERTEX
  8
0
  5
2C63
 10
39.3846
 20
124.062
 30
-2.75476e-14
  70
    32
  0
VERTEX
  8
0
  5
2C64
 10
39.3790
 20
124.045
 30
-2.75455e-14
  70
    32
  0
VERTEX
  8
0
  5
2C65
 10
39.3733
 20
124.028
 30
-2.75433e-14
  70
    32
  0
VERTEX
  8
0
  5
2C66
 10
39.3675
 20
124.011
 30
-2.75411e-14
  70
    32
  0
VERTEX
  8
0
  5
2C67
 10
39.3616
 20
123.994
 30
-2.75388e-14
  70
    32
  0
VERTEX
  8
0
  5
2C68
 10
39.3557
 20
123.977
 30
-2.75365e-14
  70
    32
  0
VERTEX
  8
0
  5
2C69
 10
39.3498
 20
123.960
 30
-2.75342e-14
  70
    32
  0
VERTEX
  8
0
  5
2C6A
 10
39.3437
 20
123.943
 30
-2.75318e-14
  70
    32
  0
VERTEX
  8
0
  5
2C6B
 10
39.3377
 20
123.926
 30
-2.75294e-14
  70
    32
  0
VERTEX
  8
0
  5
2C6C
 10
39.3315
 20
123.909
 30
-2.75270e-14
  70
    32
  0
VERTEX
  8
0
  5
2C6D
 10
39.3253
 20
123.892
 30
-2.75245e-14
  70
    32
  0
VERTEX
  8
0
  5
2C6E
 10
39.3190
 20
123.875
 30
-2.75220e-14
  70
    32
  0
VERTEX
  8
0
  5
2C6F
 10
39.3127
 20
123.859
 30
-2.75194e-14
  70
    32
  0
VERTEX
  8
0
  5
2C70
 10
39.3063
 20
123.842
 30
-2.75169e-14
  70
    32
  0
VERTEX
  8
0
  5
2C71
 10
39.2999
 20
123.825
 30
-2.75143e-14
  70
    32
  0
VERTEX
  8
0
  5
2C72
 10
39.2934
 20
123.809
 30
-2.75116e-14
  70
    32
  0
VERTEX
  8
0
  5
2C73
 10
39.2869
 20
123.792
 30
-2.75089e-14
  70
    32
  0
VERTEX
  8
0
  5
2C74
 10
39.2803
 20
123.775
 30
-2.75062e-14
  70
    32
  0
VERTEX
  8
0
  5
2C75
 10
39.2736
 20
123.759
 30
-2.75035e-14
  70
    32
  0
VERTEX
  8
0
  5
2C76
 10
39.2669
 20
123.742
 30
-2.75007e-14
  70
    32
  0
VERTEX
  8
0
  5
2C77
 10
39.2601
 20
123.725
 30
-2.74979e-14
  70
    32
  0
VERTEX
  8
0
  5
2C78
 10
39.2533
 20
123.709
 30
-2.74951e-14
  70
    32
  0
VERTEX
  8
0
  5
2C79
 10
39.2464
 20
123.692
 30
-2.74923e-14
  70
    32
  0
VERTEX
  8
0
  5
2C7A
 10
39.2395
 20
123.676
 30
-2.74894e-14
  70
    32
  0
VERTEX
  8
0
  5
2C7B
 10
39.2325
 20
123.659
 30
-2.74865e-14
  70
    32
  0
VERTEX
  8
0
  5
2C7C
 10
39.2254
 20
123.643
 30
-2.74836e-14
  70
    32
  0
VERTEX
  8
0
  5
2C7D
 10
39.2183
 20
123.627
 30
-2.74806e-14
  70
    32
  0
VERTEX
  8
0
  5
2C7E
 10
39.2112
 20
123.610
 30
-2.74776e-14
  70
    32
  0
VERTEX
  8
0
  5
2C7F
 10
39.2040
 20
123.594
 30
-2.74746e-14
  70
    32
  0
VERTEX
  8
0
  5
2C80
 10
39.1967
 20
123.577
 30
-2.74716e-14
  70
    32
  0
VERTEX
  8
0
  5
2C81
 10
39.1894
 20
123.561
 30
-2.74685e-14
  70
    32
  0
VERTEX
  8
0
  5
2C82
 10
39.1821
 20
123.545
 30
-2.74655e-14
  70
    32
  0
VERTEX
  8
0
  5
2C83
 10
39.1747
 20
123.529
 30
-2.74624e-14
  70
    32
  0
VERTEX
  8
0
  5
2C84
 10
39.1672
 20
123.512
 30
-2.74593e-14
  70
    32
  0
VERTEX
  8
0
  5
2C85
 10
39.1597
 20
123.496
 30
-2.74561e-14
  70
    32
  0
VERTEX
  8
0
  5
2C86
 10
39.1522
 20
123.480
 30
-2.74530e-14
  70
    32
  0
VERTEX
  8
0
  5
2C87
 10
39.1446
 20
123.464
 30
-2.74498e-14
  70
    32
  0
VERTEX
  8
0
  5
2C88
 10
39.1369
 20
123.447
 30
-2.74466e-14
  70
    32
  0
VERTEX
  8
0
  5
2C89
 10
39.1292
 20
123.431
 30
-2.74434e-14
  70
    32
  0
VERTEX
  8
0
  5
2C8A
 10
39.1215
 20
123.415
 30
-2.74401e-14
  70
    32
  0
VERTEX
  8
0
  5
2C8B
 10
39.1137
 20
123.399
 30
-2.74369e-14
  70
    32
  0
VERTEX
  8
0
  5
2C8C
 10
39.1058
 20
123.383
 30
-2.74336e-14
  70
    32
  0
VERTEX
  8
0
  5
2C8D
 10
39.0980
 20
123.367
 30
-2.74303e-14
  70
    32
  0
VERTEX
  8
0
  5
2C8E
 10
39.0900
 20
123.351
 30
-2.74270e-14
  70
    32
  0
VERTEX
  8
0
  5
2C8F
 10
39.0821
 20
123.335
 30
-2.74237e-14
  70
    32
  0
VERTEX
  8
0
  5
2C90
 10
39.0740
 20
123.319
 30
-2.74203e-14
  70
    32
  0
VERTEX
  8
0
  5
2C91
 10
39.0660
 20
123.303
 30
-2.74170e-14
  70
    32
  0
VERTEX
  8
0
  5
2C92
 10
39.0579
 20
123.287
 30
-2.74136e-14
  70
    32
  0
VERTEX
  8
0
  5
2C93
 10
39.0497
 20
123.271
 30
-2.74103e-14
  70
    32
  0
VERTEX
  8
0
  5
2C94
 10
39.0415
 20
123.255
 30
-2.74069e-14
  70
    32
  0
VERTEX
  8
0
  5
2C95
 10
39.0333
 20
123.239
 30
-2.74035e-14
  70
    32
  0
VERTEX
  8
0
  5
2C96
 10
39.0250
 20
123.223
 30
-2.74001e-14
  70
    32
  0
VERTEX
  8
0
  5
2C97
 10
39.0167
 20
123.207
 30
-2.73966e-14
  70
    32
  0
VERTEX
  8
0
  5
2C98
 10
39.0083
 20
123.191
 30
-2.73932e-14
  70
    32
  0
VERTEX
  8
0
  5
2C99
 10
38.9999
 20
123.175
 30
-2.73897e-14
  70
    32
  0
VERTEX
  8
0
  5
2C9A
 10
38.9915
 20
123.160
 30
-2.73863e-14
  70
    32
  0
VERTEX
  8
0
  5
2C9B
 10
38.9830
 20
123.144
 30
-2.73828e-14
  70
    32
  0
VERTEX
  8
0
  5
2C9C
 10
38.9745
 20
123.128
 30
-2.73794e-14
  70
    32
  0
VERTEX
  8
0
  5
2C9D
 10
38.9659
 20
123.112
 30
-2.73759e-14
  70
    32
  0
VERTEX
  8
0
  5
2C9E
 10
38.9573
 20
123.096
 30
-2.73724e-14
  70
    32
  0
VERTEX
  8
0
  5
2C9F
 10
38.9487
 20
123.081
 30
-2.73689e-14
  70
    32
  0
VERTEX
  8
0
  5
2CA0
 10
38.9400
 20
123.065
 30
-2.73654e-14
  70
    32
  0
VERTEX
  8
0
  5
2CA1
 10
38.9313
 20
123.049
 30
-2.73619e-14
  70
    32
  0
VERTEX
  8
0
  5
2CA2
 10
38.9225
 20
123.033
 30
-2.73584e-14
  70
    32
  0
VERTEX
  8
0
  5
2CA3
 10
38.9137
 20
123.018
 30
-2.73549e-14
  70
    32
  0
VERTEX
  8
0
  5
2CA4
 10
38.9049
 20
123.002
 30
-2.73514e-14
  70
    32
  0
VERTEX
  8
0
  5
2CA5
 10
38.8960
 20
122.986
 30
-2.73478e-14
  70
    32
  0
VERTEX
  8
0
  5
2CA6
 10
38.8871
 20
122.970
 30
-2.73443e-14
  70
    32
  0
VERTEX
  8
0
  5
2CA7
 10
38.8782
 20
122.955
 30
-2.73408e-14
  70
    32
  0
VERTEX
  8
0
  5
2CA8
 10
38.8692
 20
122.939
 30
-2.73373e-14
  70
    32
  0
VERTEX
  8
0
  5
2CA9
 10
38.8602
 20
122.923
 30
-2.73337e-14
  70
    32
  0
VERTEX
  8
0
  5
2CAA
 10
38.8512
 20
122.908
 30
-2.73302e-14
  70
    32
  0
VERTEX
  8
0
  5
2CAB
 10
38.8421
 20
122.892
 30
-2.73267e-14
  70
    32
  0
VERTEX
  8
0
  5
2CAC
 10
38.8330
 20
122.877
 30
-2.73232e-14
  70
    32
  0
VERTEX
  8
0
  5
2CAD
 10
38.8239
 20
122.861
 30
-2.73196e-14
  70
    32
  0
VERTEX
  8
0
  5
2CAE
 10
38.8147
 20
122.845
 30
-2.73161e-14
  70
    32
  0
VERTEX
  8
0
  5
2CAF
 10
38.8055
 20
122.830
 30
-2.73126e-14
  70
    32
  0
VERTEX
  8
0
  5
2CB0
 10
38.7963
 20
122.814
 30
-2.73091e-14
  70
    32
  0
VERTEX
  8
0
  5
2CB1
 10
38.7870
 20
122.799
 30
-2.73055e-14
  70
    32
  0
VERTEX
  8
0
  5
2CB2
 10
38.7777
 20
122.783
 30
-2.73020e-14
  70
    32
  0
VERTEX
  8
0
  5
2CB3
 10
38.7684
 20
122.768
 30
-2.72985e-14
  70
    32
  0
VERTEX
  8
0
  5
2CB4
 10
38.7591
 20
122.752
 30
-2.72950e-14
  70
    32
  0
VERTEX
  8
0
  5
2CB5
 10
38.7497
 20
122.737
 30
-2.72915e-14
  70
    32
  0
VERTEX
  8
0
  5
2CB6
 10
38.7403
 20
122.721
 30
-2.72880e-14
  70
    32
  0
VERTEX
  8
0
  5
2CB7
 10
38.7308
 20
122.706
 30
-2.72845e-14
  70
    32
  0
VERTEX
  8
0
  5
2CB8
 10
38.7214
 20
122.690
 30
-2.72810e-14
  70
    32
  0
VERTEX
  8
0
  5
2CB9
 10
38.7119
 20
122.675
 30
-2.72776e-14
  70
    32
  0
VERTEX
  8
0
  5
2CBA
 10
38.7023
 20
122.659
 30
-2.72741e-14
  70
    32
  0
VERTEX
  8
0
  5
2CBB
 10
38.6928
 20
122.644
 30
-2.72706e-14
  70
    32
  0
VERTEX
  8
0
  5
2CBC
 10
38.6832
 20
122.628
 30
-2.72671e-14
  70
    32
  0
VERTEX
  8
0
  5
2CBD
 10
38.6736
 20
122.613
 30
-2.72636e-14
  70
    32
  0
VERTEX
  8
0
  5
2CBE
 10
38.6640
 20
122.597
 30
-2.72602e-14
  70
    32
  0
VERTEX
  8
0
  5
2CBF
 10
38.6543
 20
122.582
 30
-2.72567e-14
  70
    32
  0
VERTEX
  8
0
  5
2CC0
 10
38.6447
 20
122.566
 30
-2.72532e-14
  70
    32
  0
VERTEX
  8
0
  5
2CC1
 10
38.6350
 20
122.551
 30
-2.72498e-14
  70
    32
  0
VERTEX
  8
0
  5
2CC2
 10
38.6252
 20
122.535
 30
-2.72463e-14
  70
    32
  0
VERTEX
  8
0
  5
2CC3
 10
38.6155
 20
122.520
 30
-2.72428e-14
  70
    32
  0
VERTEX
  8
0
  5
2CC4
 10
38.6057
 20
122.504
 30
-2.72394e-14
  70
    32
  0
VERTEX
  8
0
  5
2CC5
 10
38.5959
 20
122.489
 30
-2.72359e-14
  70
    32
  0
VERTEX
  8
0
  5
2CC6
 10
38.5861
 20
122.474
 30
-2.72325e-14
  70
    32
  0
VERTEX
  8
0
  5
2CC7
 10
38.5763
 20
122.458
 30
-2.72290e-14
  70
    32
  0
VERTEX
  8
0
  5
2CC8
 10
38.5664
 20
122.443
 30
-2.72256e-14
  70
    32
  0
VERTEX
  8
0
  5
2CC9
 10
38.5565
 20
122.427
 30
-2.72222e-14
  70
    32
  0
VERTEX
  8
0
  5
2CCA
 10
38.5466
 20
122.412
 30
-2.72187e-14
  70
    32
  0
VERTEX
  8
0
  5
2CCB
 10
38.5367
 20
122.397
 30
-2.72153e-14
  70
    32
  0
VERTEX
  8
0
  5
2CCC
 10
38.5267
 20
122.381
 30
-2.72118e-14
  70
    32
  0
VERTEX
  8
0
  5
2CCD
 10
38.5168
 20
122.366
 30
-2.72084e-14
  70
    32
  0
VERTEX
  8
0
  5
2CCE
 10
38.5068
 20
122.350
 30
-2.72050e-14
  70
    32
  0
VERTEX
  8
0
  5
2CCF
 10
38.4968
 20
122.335
 30
-2.72016e-14
  70
    32
  0
VERTEX
  8
0
  5
2CD0
 10
38.4868
 20
122.320
 30
-2.71981e-14
  70
    32
  0
VERTEX
  8
0
  5
2CD1
 10
38.4767
 20
122.304
 30
-2.71947e-14
  70
    32
  0
VERTEX
  8
0
  5
2CD2
 10
38.4667
 20
122.289
 30
-2.71913e-14
  70
    32
  0
VERTEX
  8
0
  5
2CD3
 10
38.4566
 20
122.273
 30
-2.71879e-14
  70
    32
  0
VERTEX
  8
0
  5
2CD4
 10
38.4465
 20
122.258
 30
-2.71845e-14
  70
    32
  0
VERTEX
  8
0
  5
2CD5
 10
38.4364
 20
122.243
 30
-2.71810e-14
  70
    32
  0
VERTEX
  8
0
  5
2CD6
 10
38.4263
 20
122.227
 30
-2.71776e-14
  70
    32
  0
VERTEX
  8
0
  5
2CD7
 10
38.4162
 20
122.212
 30
-2.71742e-14
  70
    32
  0
VERTEX
  8
0
  5
2CD8
 10
38.4060
 20
122.196
 30
-2.71708e-14
  70
    32
  0
VERTEX
  8
0
  5
2CD9
 10
38.3959
 20
122.181
 30
-2.71674e-14
  70
    32
  0
VERTEX
  8
0
  5
2CDA
 10
38.3857
 20
122.165
 30
-2.71640e-14
  70
    32
  0
VERTEX
  8
0
  5
2CDB
 10
38.3755
 20
122.150
 30
-2.71606e-14
  70
    32
  0
VERTEX
  8
0
  5
2CDC
 10
38.3653
 20
122.135
 30
-2.71572e-14
  70
    32
  0
VERTEX
  8
0
  5
2CDD
 10
38.3551
 20
122.119
 30
-2.71538e-14
  70
    32
  0
VERTEX
  8
0
  5
2CDE
 10
38.3449
 20
122.104
 30
-2.71504e-14
  70
    32
  0
VERTEX
  8
0
  5
2CDF
 10
38.3346
 20
122.088
 30
-2.71470e-14
  70
    32
  0
VERTEX
  8
0
  5
2CE0
 10
38.3244
 20
122.073
 30
-2.71436e-14
  70
    32
  0
VERTEX
  8
0
  5
2CE1
 10
38.3141
 20
122.058
 30
-2.71402e-14
  70
    32
  0
VERTEX
  8
0
  5
2CE2
 10
38.3038
 20
122.042
 30
-2.71369e-14
  70
    32
  0
VERTEX
  8
0
  5
2CE3
 10
38.2936
 20
122.027
 30
-2.71335e-14
  70
    32
  0
VERTEX
  8
0
  5
2CE4
 10
38.2833
 20
122.011
 30
-2.71301e-14
  70
    32
  0
VERTEX
  8
0
  5
2CE5
 10
38.2730
 20
121.996
 30
-2.71267e-14
  70
    32
  0
VERTEX
  8
0
  5
2CE6
 10
38.2627
 20
121.980
 30
-2.71233e-14
  70
    32
  0
VERTEX
  8
0
  5
2CE7
 10
38.2523
 20
121.965
 30
-2.71199e-14
  70
    32
  0
VERTEX
  8
0
  5
2CE8
 10
38.2420
 20
121.949
 30
-2.71166e-14
  70
    32
  0
VERTEX
  8
0
  5
2CE9
 10
38.2317
 20
121.934
 30
-2.71132e-14
  70
    32
  0
VERTEX
  8
0
  5
2CEA
 10
38.2213
 20
121.918
 30
-2.71098e-14
  70
    32
  0
VERTEX
  8
0
  5
2CEB
 10
38.2110
 20
121.903
 30
-2.71064e-14
  70
    32
  0
VERTEX
  8
0
  5
2CEC
 10
38.2006
 20
121.888
 30
-2.71030e-14
  70
    32
  0
VERTEX
  8
0
  5
2CED
 10
38.1903
 20
121.872
 30
-2.70997e-14
  70
    32
  0
VERTEX
  8
0
  5
2CEE
 10
38.1799
 20
121.857
 30
-2.70963e-14
  70
    32
  0
VERTEX
  8
0
  5
2CEF
 10
38.1695
 20
121.841
 30
-2.70929e-14
  70
    32
  0
VERTEX
  8
0
  5
2CF0
 10
38.1591
 20
121.826
 30
-2.70896e-14
  70
    32
  0
VERTEX
  8
0
  5
2CF1
 10
38.1488
 20
121.810
 30
-2.70862e-14
  70
    32
  0
VERTEX
  8
0
  5
2CF2
 10
38.1384
 20
121.794
 30
-2.70828e-14
  70
    32
  0
VERTEX
  8
0
  5
2CF3
 10
38.1280
 20
121.779
 30
-2.70795e-14
  70
    32
  0
VERTEX
  8
0
  5
2CF4
 10
38.1176
 20
121.763
 30
-2.70761e-14
  70
    32
  0
VERTEX
  8
0
  5
2CF5
 10
38.1072
 20
121.748
 30
-2.70727e-14
  70
    32
  0
VERTEX
  8
0
  5
2CF6
 10
38.0968
 20
121.732
 30
-2.70694e-14
  70
    32
  0
VERTEX
  8
0
  5
2CF7
 10
38.0864
 20
121.717
 30
-2.70660e-14
  70
    32
  0
VERTEX
  8
0
  5
2CF8
 10
38.0760
 20
121.701
 30
-2.70626e-14
  70
    32
  0
VERTEX
  8
0
  5
2CF9
 10
38.0656
 20
121.685
 30
-2.70593e-14
  70
    32
  0
VERTEX
  8
0
  5
2CFA
 10
38.0552
 20
121.670
 30
-2.70559e-14
  70
    32
  0
VERTEX
  8
0
  5
2CFB
 10
38.0448
 20
121.654
 30
-2.70525e-14
  70
    32
  0
VERTEX
  8
0
  5
2CFC
 10
38.0344
 20
121.639
 30
-2.70492e-14
  70
    32
  0
VERTEX
  8
0
  5
2CFD
 10
38.0240
 20
121.623
 30
-2.70458e-14
  70
    32
  0
VERTEX
  8
0
  5
2CFE
 10
38.0136
 20
121.607
 30
-2.70425e-14
  70
    32
  0
VERTEX
  8
0
  5
2CFF
 10
38.0032
 20
121.592
 30
-2.70391e-14
  70
    32
  0
VERTEX
  8
0
  5
2D00
 10
37.9928
 20
121.576
 30
-2.70358e-14
  70
    32
  0
VERTEX
  8
0
  5
2D01
 10
37.9824
 20
121.560
 30
-2.70324e-14
  70
    32
  0
VERTEX
  8
0
  5
2D02
 10
37.9720
 20
121.545
 30
-2.70290e-14
  70
    32
  0
VERTEX
  8
0
  5
2D03
 10
37.9616
 20
121.529
 30
-2.70257e-14
  70
    32
  0
VERTEX
  8
0
  5
2D04
 10
37.9512
 20
121.513
 30
-2.70223e-14
  70
    32
  0
VERTEX
  8
0
  5
2D05
 10
37.9409
 20
121.497
 30
-2.70190e-14
  70
    32
  0
VERTEX
  8
0
  5
2D06
 10
37.9305
 20
121.482
 30
-2.70156e-14
  70
    32
  0
VERTEX
  8
0
  5
2D07
 10
37.9201
 20
121.466
 30
-2.70123e-14
  70
    32
  0
VERTEX
  8
0
  5
2D08
 10
37.9097
 20
121.450
 30
-2.70089e-14
  70
    32
  0
VERTEX
  8
0
  5
2D09
 10
37.8994
 20
121.434
 30
-2.70055e-14
  70
    32
  0
VERTEX
  8
0
  5
2D0A
 10
37.8890
 20
121.419
 30
-2.70022e-14
  70
    32
  0
VERTEX
  8
0
  5
2D0B
 10
37.8787
 20
121.403
 30
-2.69988e-14
  70
    32
  0
VERTEX
  8
0
  5
2D0C
 10
37.8683
 20
121.387
 30
-2.69954e-14
  70
    32
  0
VERTEX
  8
0
  5
2D0D
 10
37.8580
 20
121.371
 30
-2.69919e-14
  70
    32
  0
VERTEX
  8
0
  5
2D0E
 10
37.8477
 20
121.355
 30
-2.69884e-14
  70
    32
  0
VERTEX
  8
0
  5
2D0F
 10
37.8373
 20
121.339
 30
-2.69847e-14
  70
    32
  0
VERTEX
  8
0
  5
2D10
 10
37.8270
 20
121.323
 30
-2.69810e-14
  70
    32
  0
VERTEX
  8
0
  5
2D11
 10
37.8167
 20
121.307
 30
-2.69773e-14
  70
    32
  0
VERTEX
  8
0
  5
2D12
 10
37.8064
 20
121.291
 30
-2.69734e-14
  70
    32
  0
VERTEX
  8
0
  5
2D13
 10
37.7962
 20
121.275
 30
-2.69695e-14
  70
    32
  0
VERTEX
  8
0
  5
2D14
 10
37.7859
 20
121.259
 30
-2.69656e-14
  70
    32
  0
VERTEX
  8
0
  5
2D15
 10
37.7756
 20
121.244
 30
-2.69616e-14
  70
    32
  0
VERTEX
  8
0
  5
2D16
 10
37.7654
 20
121.227
 30
-2.69575e-14
  70
    32
  0
VERTEX
  8
0
  5
2D17
 10
37.7551
 20
121.211
 30
-2.69534e-14
  70
    32
  0
VERTEX
  8
0
  5
2D18
 10
37.7449
 20
121.195
 30
-2.69492e-14
  70
    32
  0
VERTEX
  8
0
  5
2D19
 10
37.7347
 20
121.179
 30
-2.69450e-14
  70
    32
  0
VERTEX
  8
0
  5
2D1A
 10
37.7245
 20
121.163
 30
-2.69407e-14
  70
    32
  0
VERTEX
  8
0
  5
2D1B
 10
37.7143
 20
121.147
 30
-2.69363e-14
  70
    32
  0
VERTEX
  8
0
  5
2D1C
 10
37.7041
 20
121.131
 30
-2.69319e-14
  70
    32
  0
VERTEX
  8
0
  5
2D1D
 10
37.6940
 20
121.115
 30
-2.69275e-14
  70
    32
  0
VERTEX
  8
0
  5
2D1E
 10
37.6838
 20
121.099
 30
-2.69230e-14
  70
    32
  0
VERTEX
  8
0
  5
2D1F
 10
37.6737
 20
121.083
 30
-2.69185e-14
  70
    32
  0
VERTEX
  8
0
  5
2D20
 10
37.6636
 20
121.066
 30
-2.69140e-14
  70
    32
  0
VERTEX
  8
0
  5
2D21
 10
37.6535
 20
121.050
 30
-2.69094e-14
  70
    32
  0
VERTEX
  8
0
  5
2D22
 10
37.6434
 20
121.034
 30
-2.69048e-14
  70
    32
  0
VERTEX
  8
0
  5
2D23
 10
37.6333
 20
121.018
 30
-2.69001e-14
  70
    32
  0
VERTEX
  8
0
  5
2D24
 10
37.6233
 20
121.001
 30
-2.68954e-14
  70
    32
  0
VERTEX
  8
0
  5
2D25
 10
37.6132
 20
120.985
 30
-2.68906e-14
  70
    32
  0
VERTEX
  8
0
  5
2D26
 10
37.6032
 20
120.969
 30
-2.68859e-14
  70
    32
  0
VERTEX
  8
0
  5
2D27
 10
37.5932
 20
120.952
 30
-2.68811e-14
  70
    32
  0
VERTEX
  8
0
  5
2D28
 10
37.5832
 20
120.936
 30
-2.68763e-14
  70
    32
  0
VERTEX
  8
0
  5
2D29
 10
37.5733
 20
120.919
 30
-2.68714e-14
  70
    32
  0
VERTEX
  8
0
  5
2D2A
 10
37.5633
 20
120.903
 30
-2.68665e-14
  70
    32
  0
VERTEX
  8
0
  5
2D2B
 10
37.5534
 20
120.887
 30
-2.68616e-14
  70
    32
  0
VERTEX
  8
0
  5
2D2C
 10
37.5435
 20
120.870
 30
-2.68567e-14
  70
    32
  0
VERTEX
  8
0
  5
2D2D
 10
37.5336
 20
120.854
 30
-2.68518e-14
  70
    32
  0
VERTEX
  8
0
  5
2D2E
 10
37.5237
 20
120.837
 30
-2.68468e-14
  70
    32
  0
VERTEX
  8
0
  5
2D2F
 10
37.5139
 20
120.820
 30
-2.68419e-14
  70
    32
  0
VERTEX
  8
0
  5
2D30
 10
37.5041
 20
120.804
 30
-2.68369e-14
  70
    32
  0
VERTEX
  8
0
  5
2D31
 10
37.4943
 20
120.787
 30
-2.68319e-14
  70
    32
  0
VERTEX
  8
0
  5
2D32
 10
37.4845
 20
120.771
 30
-2.68269e-14
  70
    32
  0
VERTEX
  8
0
  5
2D33
 10
37.4748
 20
120.754
 30
-2.68219e-14
  70
    32
  0
VERTEX
  8
0
  5
2D34
 10
37.4650
 20
120.737
 30
-2.68169e-14
  70
    32
  0
VERTEX
  8
0
  5
2D35
 10
37.4553
 20
120.721
 30
-2.68118e-14
  70
    32
  0
VERTEX
  8
0
  5
2D36
 10
37.4457
 20
120.704
 30
-2.68068e-14
  70
    32
  0
VERTEX
  8
0
  5
2D37
 10
37.4360
 20
120.687
 30
-2.68018e-14
  70
    32
  0
VERTEX
  8
0
  5
2D38
 10
37.4264
 20
120.670
 30
-2.67967e-14
  70
    32
  0
VERTEX
  8
0
  5
2D39
 10
37.4168
 20
120.653
 30
-2.67917e-14
  70
    32
  0
VERTEX
  8
0
  5
2D3A
 10
37.4072
 20
120.637
 30
-2.67867e-14
  70
    32
  0
VERTEX
  8
0
  5
2D3B
 10
37.3977
 20
120.620
 30
-2.67816e-14
  70
    32
  0
VERTEX
  8
0
  5
2D3C
 10
37.3881
 20
120.603
 30
-2.67766e-14
  70
    32
  0
VERTEX
  8
0
  5
2D3D
 10
37.3786
 20
120.586
 30
-2.67716e-14
  70
    32
  0
VERTEX
  8
0
  5
2D3E
 10
37.3692
 20
120.569
 30
-2.67666e-14
  70
    32
  0
VERTEX
  8
0
  5
2D3F
 10
37.3597
 20
120.552
 30
-2.67616e-14
  70
    32
  0
VERTEX
  8
0
  5
2D40
 10
37.3503
 20
120.535
 30
-2.67566e-14
  70
    32
  0
VERTEX
  8
0
  5
2D41
 10
37.3409
 20
120.518
 30
-2.67517e-14
  70
    32
  0
VERTEX
  8
0
  5
2D42
 10
37.3316
 20
120.501
 30
-2.67467e-14
  70
    32
  0
VERTEX
  8
0
  5
2D43
 10
37.3223
 20
120.484
 30
-2.67418e-14
  70
    32
  0
VERTEX
  8
0
  5
2D44
 10
37.3130
 20
120.467
 30
-2.67369e-14
  70
    32
  0
VERTEX
  8
0
  5
2D45
 10
37.3037
 20
120.449
 30
-2.67320e-14
  70
    32
  0
VERTEX
  8
0
  5
2D46
 10
37.2945
 20
120.432
 30
-2.67271e-14
  70
    32
  0
VERTEX
  8
0
  5
2D47
 10
37.2853
 20
120.415
 30
-2.67223e-14
  70
    32
  0
VERTEX
  8
0
  5
2D48
 10
37.2761
 20
120.398
 30
-2.67175e-14
  70
    32
  0
VERTEX
  8
0
  5
2D49
 10
37.2670
 20
120.380
 30
-2.67127e-14
  70
    32
  0
VERTEX
  8
0
  5
2D4A
 10
37.2579
 20
120.363
 30
-2.67079e-14
  70
    32
  0
VERTEX
  8
0
  5
2D4B
 10
37.2488
 20
120.346
 30
-2.67032e-14
  70
    32
  0
VERTEX
  8
0
  5
2D4C
 10
37.2398
 20
120.328
 30
-2.66985e-14
  70
    32
  0
VERTEX
  8
0
  5
2D4D
 10
37.2308
 20
120.311
 30
-2.66939e-14
  70
    32
  0
VERTEX
  8
0
  5
2D4E
 10
37.2218
 20
120.293
 30
-2.66893e-14
  70
    32
  0
VERTEX
  8
0
  5
2D4F
 10
37.2129
 20
120.276
 30
-2.66847e-14
  70
    32
  0
VERTEX
  8
0
  5
2D50
 10
37.2040
 20
120.258
 30
-2.66801e-14
  70
    32
  0
VERTEX
  8
0
  5
2D51
 10
37.1951
 20
120.241
 30
-2.66756e-14
  70
    32
  0
VERTEX
  8
0
  5
2D52
 10
37.1863
 20
120.223
 30
-2.66712e-14
  70
    32
  0
VERTEX
  8
0
  5
2D53
 10
37.1775
 20
120.206
 30
-2.66667e-14
  70
    32
  0
VERTEX
  8
0
  5
2D54
 10
37.1687
 20
120.188
 30
-2.66624e-14
  70
    32
  0
VERTEX
  8
0
  5
2D55
 10
37.1600
 20
120.170
 30
-2.66581e-14
  70
    32
  0
VERTEX
  8
0
  5
2D56
 10
37.1513
 20
120.152
 30
-2.66538e-14
  70
    32
  0
VERTEX
  8
0
  5
2D57
 10
37.1427
 20
120.135
 30
-2.66496e-14
  70
    32
  0
VERTEX
  8
0
  5
2D58
 10
37.1341
 20
120.117
 30
-2.66454e-14
  70
    32
  0
VERTEX
  8
0
  5
2D59
 10
37.1255
 20
120.099
 30
-2.66413e-14
  70
    32
  0
VERTEX
  8
0
  5
2D5A
 10
37.1170
 20
120.081
 30
-2.66372e-14
  70
    32
  0
VERTEX
  8
0
  5
2D5B
 10
37.1085
 20
120.063
 30
-2.66332e-14
  70
    32
  0
VERTEX
  8
0
  5
2D5C
 10
37.1001
 20
120.045
 30
-2.66293e-14
  70
    32
  0
VERTEX
  8
0
  5
2D5D
 10
37.0917
 20
120.027
 30
-2.66254e-14
  70
    32
  0
VERTEX
  8
0
  5
2D5E
 10
37.0833
 20
120.009
 30
-2.66216e-14
  70
    32
  0
VERTEX
  8
0
  5
2D5F
 10
37.0750
 20
119.991
 30
-2.66179e-14
  70
    32
  0
VERTEX
  8
0
  5
2D60
 10
37.0667
 20
119.973
 30
-2.66142e-14
  70
    32
  0
VERTEX
  8
0
  5
2D61
 10
37.0585
 20
119.955
 30
-2.66106e-14
  70
    32
  0
VERTEX
  8
0
  5
2D62
 10
37.0503
 20
119.937
 30
-2.66070e-14
  70
    32
  0
VERTEX
  8
0
  5
2D63
 10
37.0421
 20
119.918
 30
-2.66036e-14
  70
    32
  0
VERTEX
  8
0
  5
2D64
 10
37.0340
 20
119.900
 30
-2.66002e-14
  70
    32
  0
VERTEX
  8
0
  5
2D65
 10
37.0260
 20
119.882
 30
-2.65968e-14
  70
    32
  0
VERTEX
  8
0
  5
2D66
 10
37.0179
 20
119.863
 30
-2.65935e-14
  70
    32
  0
VERTEX
  8
0
  5
2D67
 10
37.0100
 20
119.845
 30
-2.65901e-14
  70
    32
  0
VERTEX
  8
0
  5
2D68
 10
37.0020
 20
119.827
 30
-2.65867e-14
  70
    32
  0
VERTEX
  8
0
  5
2D69
 10
36.9942
 20
119.808
 30
-2.65834e-14
  70
    32
  0
VERTEX
  8
0
  5
2D6A
 10
36.9863
 20
119.790
 30
-2.65800e-14
  70
    32
  0
VERTEX
  8
0
  5
2D6B
 10
36.9785
 20
119.771
 30
-2.65767e-14
  70
    32
  0
VERTEX
  8
0
  5
2D6C
 10
36.9708
 20
119.753
 30
-2.65733e-14
  70
    32
  0
VERTEX
  8
0
  5
2D6D
 10
36.9631
 20
119.734
 30
-2.65699e-14
  70
    32
  0
VERTEX
  8
0
  5
2D6E
 10
36.9554
 20
119.715
 30
-2.65665e-14
  70
    32
  0
VERTEX
  8
0
  5
2D6F
 10
36.9478
 20
119.696
 30
-2.65632e-14
  70
    32
  0
VERTEX
  8
0
  5
2D70
 10
36.9403
 20
119.678
 30
-2.65598e-14
  70
    32
  0
VERTEX
  8
0
  5
2D71
 10
36.9328
 20
119.659
 30
-2.65564e-14
  70
    32
  0
VERTEX
  8
0
  5
2D72
 10
36.9253
 20
119.640
 30
-2.65530e-14
  70
    32
  0
VERTEX
  8
0
  5
2D73
 10
36.9179
 20
119.621
 30
-2.65496e-14
  70
    32
  0
VERTEX
  8
0
  5
2D74
 10
36.9106
 20
119.602
 30
-2.65462e-14
  70
    32
  0
VERTEX
  8
0
  5
2D75
 10
36.9033
 20
119.583
 30
-2.65428e-14
  70
    32
  0
VERTEX
  8
0
  5
2D76
 10
36.8960
 20
119.564
 30
-2.65394e-14
  70
    32
  0
VERTEX
  8
0
  5
2D77
 10
36.8888
 20
119.545
 30
-2.65359e-14
  70
    32
  0
VERTEX
  8
0
  5
2D78
 10
36.8817
 20
119.526
 30
-2.65325e-14
  70
    32
  0
VERTEX
  8
0
  5
2D79
 10
36.8746
 20
119.507
 30
-2.65290e-14
  70
    32
  0
VERTEX
  8
0
  5
2D7A
 10
36.8675
 20
119.488
 30
-2.65256e-14
  70
    32
  0
VERTEX
  8
0
  5
2D7B
 10
36.8605
 20
119.468
 30
-2.65221e-14
  70
    32
  0
VERTEX
  8
0
  5
2D7C
 10
36.8536
 20
119.449
 30
-2.65186e-14
  70
    32
  0
VERTEX
  8
0
  5
2D7D
 10
36.8467
 20
119.430
 30
-2.65152e-14
  70
    32
  0
VERTEX
  8
0
  5
2D7E
 10
36.8399
 20
119.410
 30
-2.65117e-14
  70
    32
  0
VERTEX
  8
0
  5
2D7F
 10
36.8331
 20
119.391
 30
-2.65082e-14
  70
    32
  0
VERTEX
  8
0
  5
2D80
 10
36.8264
 20
119.371
 30
-2.65046e-14
  70
    32
  0
VERTEX
  8
0
  5
2D81
 10
36.8197
 20
119.352
 30
-2.65011e-14
  70
    32
  0
VERTEX
  8
0
  5
2D82
 10
36.8131
 20
119.332
 30
-2.64976e-14
  70
    32
  0
VERTEX
  8
0
  5
2D83
 10
36.8066
 20
119.313
 30
-2.64940e-14
  70
    32
  0
VERTEX
  8
0
  5
2D84
 10
36.8001
 20
119.293
 30
-2.64904e-14
  70
    32
  0
VERTEX
  8
0
  5
2D85
 10
36.7937
 20
119.273
 30
-2.64869e-14
  70
    32
  0
VERTEX
  8
0
  5
2D86
 10
36.7873
 20
119.253
 30
-2.64833e-14
  70
    32
  0
VERTEX
  8
0
  5
2D87
 10
36.7810
 20
119.234
 30
-2.64796e-14
  70
    32
  0
VERTEX
  8
0
  5
2D88
 10
36.7747
 20
119.214
 30
-2.64760e-14
  70
    32
  0
VERTEX
  8
0
  5
2D89
 10
36.7685
 20
119.194
 30
-2.64724e-14
  70
    32
  0
VERTEX
  8
0
  5
2D8A
 10
36.7623
 20
119.174
 30
-2.64687e-14
  70
    32
  0
VERTEX
  8
0
  5
2D8B
 10
36.7563
 20
119.154
 30
-2.64650e-14
  70
    32
  0
VERTEX
  8
0
  5
2D8C
 10
36.7502
 20
119.134
 30
-2.64613e-14
  70
    32
  0
VERTEX
  8
0
  5
2D8D
 10
36.7443
 20
119.114
 30
-2.64576e-14
  70
    32
  0
VERTEX
  8
0
  5
2D8E
 10
36.7384
 20
119.093
 30
-2.64539e-14
  70
    32
  0
VERTEX
  8
0
  5
2D8F
 10
36.7325
 20
119.073
 30
-2.64502e-14
  70
    32
  0
VERTEX
  8
0
  5
2D90
 10
36.7267
 20
119.053
 30
-2.64464e-14
  70
    32
  0
VERTEX
  8
0
  5
2D91
 10
36.7210
 20
119.033
 30
-2.64426e-14
  70
    32
  0
VERTEX
  8
0
  5
2D92
 10
36.7154
 20
119.012
 30
-2.64388e-14
  70
    32
  0
VERTEX
  8
0
  5
2D93
 10
36.7098
 20
118.992
 30
-2.64350e-14
  70
    32
  0
VERTEX
  8
0
  5
2D94
 10
36.7043
 20
118.971
 30
-2.64311e-14
  70
    32
  0
VERTEX
  8
0
  5
2D95
 10
36.6988
 20
118.951
 30
-2.64273e-14
  70
    32
  0
VERTEX
  8
0
  5
2D96
 10
36.6934
 20
118.930
 30
-2.64234e-14
  70
    32
  0
VERTEX
  8
0
  5
2D97
 10
36.6881
 20
118.910
 30
-2.64195e-14
  70
    32
  0
VERTEX
  8
0
  5
2D98
 10
36.6828
 20
118.889
 30
-2.64156e-14
  70
    32
  0
VERTEX
  8
0
  5
2D99
 10
36.6776
 20
118.868
 30
-2.64116e-14
  70
    32
  0
VERTEX
  8
0
  5
2D9A
 10
36.6724
 20
118.847
 30
-2.64076e-14
  70
    32
  0
VERTEX
  8
0
  5
2D9B
 10
36.6674
 20
118.826
 30
-2.64036e-14
  70
    32
  0
VERTEX
  8
0
  5
2D9C
 10
36.6624
 20
118.805
 30
-2.63996e-14
  70
    32
  0
VERTEX
  8
0
  5
2D9D
 10
36.6574
 20
118.785
 30
-2.63956e-14
  70
    32
  0
VERTEX
  8
0
  5
2D9E
 10
36.6526
 20
118.763
 30
-2.63915e-14
  70
    32
  0
VERTEX
  8
0
  5
2D9F
 10
36.6478
 20
118.742
 30
-2.63874e-14
  70
    32
  0
VERTEX
  8
0
  5
2DA0
 10
36.6430
 20
118.721
 30
-2.63833e-14
  70
    32
  0
VERTEX
  8
0
  5
2DA1
 10
36.6384
 20
118.700
 30
-2.63791e-14
  70
    32
  0
VERTEX
  8
0
  5
2DA2
 10
36.6338
 20
118.679
 30
-2.63750e-14
  70
    32
  0
VERTEX
  8
0
  5
2DA3
 10
36.6292
 20
118.657
 30
-2.63708e-14
  70
    32
  0
VERTEX
  8
0
  5
2DA4
 10
36.6248
 20
118.636
 30
-2.63665e-14
  70
    32
  0
VERTEX
  8
0
  5
2DA5
 10
36.6204
 20
118.615
 30
-2.63623e-14
  70
    32
  0
VERTEX
  8
0
  5
2DA6
 10
36.6161
 20
118.593
 30
-2.63580e-14
  70
    32
  0
VERTEX
  8
0
  5
2DA7
 10
36.6119
 20
118.572
 30
-2.63537e-14
  70
    32
  0
VERTEX
  8
0
  5
2DA8
 10
36.6077
 20
118.550
 30
-2.63493e-14
  70
    32
  0
VERTEX
  8
0
  5
2DA9
 10
36.6036
 20
118.528
 30
-2.63450e-14
  70
    32
  0
VERTEX
  8
0
  5
2DAA
 10
36.5996
 20
118.507
 30
-2.63406e-14
  70
    32
  0
VERTEX
  8
0
  5
2DAB
 10
36.5956
 20
118.485
 30
-2.63361e-14
  70
    32
  0
VERTEX
  8
0
  5
2DAC
 10
36.5917
 20
118.463
 30
-2.63317e-14
  70
    32
  0
VERTEX
  8
0
  5
2DAD
 10
36.5879
 20
118.441
 30
-2.63272e-14
  70
    32
  0
VERTEX
  8
0
  5
2DAE
 10
36.5842
 20
118.419
 30
-2.63227e-14
  70
    32
  0
VERTEX
  8
0
  5
2DAF
 10
36.5805
 20
118.397
 30
-2.63181e-14
  70
    32
  0
VERTEX
  8
0
  5
2DB0
 10
36.5770
 20
118.375
 30
-2.63135e-14
  70
    32
  0
VERTEX
  8
0
  5
2DB1
 10
36.5735
 20
118.353
 30
-2.63089e-14
  70
    32
  0
VERTEX
  8
0
  5
2DB2
 10
36.5700
 20
118.331
 30
-2.63042e-14
  70
    32
  0
VERTEX
  8
0
  5
2DB3
 10
36.5667
 20
118.309
 30
-2.62995e-14
  70
    32
  0
VERTEX
  8
0
  5
2DB4
 10
36.5634
 20
118.286
 30
-2.62948e-14
  70
    32
  0
VERTEX
  8
0
  5
2DB5
 10
36.5602
 20
118.264
 30
-2.62901e-14
  70
    32
  0
VERTEX
  8
0
  5
2DB6
 10
36.5571
 20
118.241
 30
-2.62853e-14
  70
    32
  0
VERTEX
  8
0
  5
2DB7
 10
36.5540
 20
118.219
 30
-2.62804e-14
  70
    32
  0
VERTEX
  8
0
  5
2DB8
 10
36.5511
 20
118.196
 30
-2.62756e-14
  70
    32
  0
VERTEX
  8
0
  5
2DB9
 10
36.5482
 20
118.174
 30
-2.62707e-14
  70
    32
  0
VERTEX
  8
0
  5
2DBA
 10
36.5454
 20
118.151
 30
-2.62657e-14
  70
    32
  0
VERTEX
  8
0
  5
2DBB
 10
36.5427
 20
118.128
 30
-2.62608e-14
  70
    32
  0
VERTEX
  8
0
  5
2DBC
 10
36.5400
 20
118.105
 30
-2.62558e-14
  70
    32
  0
VERTEX
  8
0
  5
2DBD
 10
36.5375
 20
118.083
 30
-2.62507e-14
  70
    32
  0
VERTEX
  8
0
  5
2DBE
 10
36.5350
 20
118.060
 30
-2.62456e-14
  70
    32
  0
VERTEX
  8
0
  5
2DBF
 10
36.5326
 20
118.037
 30
-2.62401e-14
  70
    32
  0
VERTEX
  8
0
  5
2DC0
 10
36.5302
 20
118.014
 30
-2.62343e-14
  70
    32
  0
VERTEX
  8
0
  5
2DC1
 10
36.5280
 20
117.990
 30
-2.62283e-14
  70
    32
  0
VERTEX
  8
0
  5
2DC2
 10
36.5258
 20
117.967
 30
-2.62220e-14
  70
    32
  0
VERTEX
  8
0
  5
2DC3
 10
36.5238
 20
117.944
 30
-2.62155e-14
  70
    32
  0
VERTEX
  8
0
  5
2DC4
 10
36.5218
 20
117.921
 30
-2.62088e-14
  70
    32
  0
VERTEX
  8
0
  5
2DC5
 10
36.5199
 20
117.897
 30
-2.62020e-14
  70
    32
  0
VERTEX
  8
0
  5
2DC6
 10
36.5181
 20
117.874
 30
-2.61951e-14
  70
    32
  0
VERTEX
  8
0
  5
2DC7
 10
36.5163
 20
117.850
 30
-2.61882e-14
  70
    32
  0
VERTEX
  8
0
  5
2DC8
 10
36.5147
 20
117.827
 30
-2.61813e-14
  70
    32
  0
VERTEX
  8
0
  5
2DC9
 10
36.5131
 20
117.803
 30
-2.61744e-14
  70
    32
  0
VERTEX
  8
0
  5
2DCA
 10
36.5116
 20
117.779
 30
-2.61675e-14
  70
    32
  0
VERTEX
  8
0
  5
2DCB
 10
36.5102
 20
117.755
 30
-2.61608e-14
  70
    32
  0
VERTEX
  8
0
  5
2DCC
 10
36.5089
 20
117.732
 30
-2.61543e-14
  70
    32
  0
VERTEX
  8
0
  5
2DCD
 10
36.5077
 20
117.708
 30
-2.61479e-14
  70
    32
  0
VERTEX
  8
0
  5
2DCE
 10
36.5066
 20
117.684
 30
-2.61417e-14
  70
    32
  0
VERTEX
  8
0
  5
2DCF
 10
36.5055
 20
117.659
 30
-2.61359e-14
  70
    32
  0
VERTEX
  8
0
  5
2DD0
 10
36.5046
 20
117.635
 30
-2.61303e-14
  70
    32
  0
VERTEX
  8
0
  5
2DD1
 10
36.5037
 20
117.611
 30
-2.61251e-14
  70
    32
  0
VERTEX
  8
0
  5
2DD2
 10
36.5029
 20
117.587
 30
-2.61202e-14
  70
    32
  0
VERTEX
  8
0
  5
2DD3
 10
36.5023
 20
117.562
 30
-2.61158e-14
  70
    32
  0
VERTEX
  8
0
  5
2DD4
 10
36.5017
 20
117.538
 30
-2.61118e-14
  70
    32
  0
VERTEX
  8
0
  5
2DD5
 10
36.5012
 20
117.514
 30
-2.61084e-14
  70
    32
  0
VERTEX
  8
0
  5
2DD6
 10
36.5007
 20
117.489
 30
-2.61055e-14
  70
    32
  0
VERTEX
  8
0
  5
2DD7
 10
36.5004
 20
117.464
 30
-2.61031e-14
  70
    32
  0
VERTEX
  8
0
  5
2DD8
 10
36.5002
 20
117.440
 30
-2.61014e-14
  70
    32
  0
VERTEX
  8
0
  5
2DD9
 10
36.5000
 20
117.415
 30
-2.61004e-14
  70
    32
  0
VERTEX
  8
0
  5
2DDA
 10
36.5000
 20
117.390
 30
-2.61000e-14
  70
    32
  0
SEQEND
  8
0
  5
2DDB
  0
LINE
  5
2995
  8
0
  6
CONTINUOUS
 10
54.1251133647407698
 20
0.0
 30
0.0
 11
-54.1251133647407201
 21
0.0
 31
0.0
210
0.0
220
1.0
230
-0.0000000000000002
  0
LINE
  5
2996
  8
0
  6
CONTINUOUS
 10
-40.0
 20
110.0
 30
-0.0000000000000244
 11
40.0000000000000497
 21
110.0
 31
-0.0000000000000244
210
0.0
220
1.0
230
-0.0000000000000002
  0
ARC
  5
2997
  8
0
  6
CONTINUOUS
 10
-53.9999999999994529
 20
10.0436609429093497
 30
0.0
 40
1.0000000000006031
210
0.0
220
-0.0000000000000002
230
-1.0
 50
179.9999999999996021
 51
184.9999999999961915
  0
ARC
  5
2998
  8
0
  6
CONTINUOUS
 10
53.9999999999993889
 20
10.0436609429093497
 30
0.0
 40
1.0000000000006599
210
0.0
220
-0.0000000000000002
230
-1.0
 50
355.0000000000038085
 51
0.0000000000005216
  0
LINE
  5
2999
  8
0
  6
CONTINUOUS
 10
55.0000000000000568
 20
76.9237468274601639
 30
-0.0000000000000171
 11
55.0000000000000568
 21
10.0436609429093604
 31
-0.0000000000000022
210
0.0
220
1.0
230
-0.0000000000000002
  0
LINE
  5
299A
  8
0
  6
CONTINUOUS
 10
-55.0000000000000568
 20
76.9237468274601639
 30
-0.0000000000000171
 11
-55.0000000000000568
 21
10.0436609429093604
 31
-0.0000000000000022
210
0.0
220
1.0
230
-0.0000000000000002
  0
LINE
  5
299B
  8
0
  6
CONTINUOUS
 10
-54.1251133647407201
 20
0.0000000000000009
 30
0.0
 11
-54.9961946980917702
 21
9.9565052001616987
 31
-0.0000000000000022
210
0.0
220
1.0
230
-0.0000000000000002
  0
LINE
  5
299C
  8
0
  6
CONTINUOUS
 10
54.1251133647407698
 20
0.0000000000000009
 30
0.0
 11
54.9961946980918199
 21
9.9565052001616987
 31
-0.0000000000000022
210
0.0
220
1.0
230
-0.0000000000000002
  0
LINE
  5
299D
  8
0
  6
CONTINUOUS
 10
40.0000000000000426
 20
110.0
 30
-0.0000000000000244
 11
53.7519387787042007
 21
82.2525189654858337
 31
-0.0000000000000183
210
0.0
220
1.0
230
-0.0000000000000002
  0
LINE
  5
299E
  8
0
  6
CONTINUOUS
 10
-39.9999999999999929
 20
110.0
 30
-0.0000000000000244
 11
-53.7519387787041367
 21
82.2525189654858337
 31
-0.0000000000000183
210
0.0
220
1.0
230
-0.0000000000000002
  0
ARC
  5
299F
  8
0
  6
CONTINUOUS
 10
42.9999999999998295
 20
76.9237468274601639
 30
0.0
 40
12.0000000000001794
210
0.0
220
-0.0000000000000002
230
-1.0
 50
360.0
 51
26.3634913474656507
  0
ARC
  5
29A0
  8
0
  6
CONTINUOUS
 10
-42.9999999999998934
 20
76.9237468274601639
 30
0.0
 40
12.0000000000001794
210
0.0
220
-0.0000000000000002
230
-1.0
 50
153.6365086525343031
 51
180.0
  0
LINE
  5
29A1
  8
0
  6
VERDECKT
 62
     1
 10
38.0
 20
174.3250843637997036
 30
-0.0000000000000387
 11
-38.0
 21
174.3250843637997036
 31
-0.0000000000000387
210
0.0
220
1.0
230
-0.0000000000000002
  0
LINE
  5
29A2
  8
0
  6
VERDECKT
 62
     1
 10
38.5883742351513703
 20
109.2467983667599043
 30
-0.0000000000000243
 11
-38.5883742351513703
 21
109.2467983667599043
 31
-0.0000000000000243
210
0.0
220
1.0
230
-0.0000000000000002
  0
LINE
  5
29A3
  8
0
  6
VERDECKT
 62
     1
 10
-38.0000000000001066
 20
125.3900000000000006
 30
-0.0000000000000278
 11
-38.0000000000001066
 21
146.3312735825865047
 31
-0.0000000000000325
210
0.0
220
1.0
230
-0.0000000000000002
  0
LINE
  5
29A4
  8
0
  6
VERDECKT
 62
     1
 10
38.0000000000001066
 20
125.3900000000000006
 30
-0.0000000000000278
 11
38.0000000000001066
 21
146.3312735825865047
 31
-0.0000000000000325
210
0.0
220
1.0
230
-0.0000000000000002
  0
ARC
  5
29A5
  8
0
  6
VERDECKT
 62
     1
 10
-51.5999999999997527
 20
146.33127358258659
 30
0.0
 40
13.5999999999996302
210
0.0
220
-0.0000000000000002
230
-1.0
 50
359.9999999999993747
 51
21.18315439303095
  0
ARC
  5
29A6
  8
0
  6
VERDECKT
 62
     1
 10
51.6000000000001577
 20
146.33127358258659
 30
0.0
 40
13.6000000000000405
210
0.0
220
-0.0000000000000002
230
-1.0
 50
158.8168456069693946
 51
180.0000000000001137
  0
ARC
  5
29A7
  8
0
  6
VERDECKT
 62
     1
 10
-17.0999999999914287
 20
159.7012735825877883
 30
0.0
 40
23.4000932431343003
210
0.0
220
-0.0000000000000002
230
-1.0
 50
179.8382525687266877
 51
201.1831543930335044
  0
ARC
  5
29A8
  8
0
  6
VERDECKT
 62
     1
 10
17.0999999999907608
 20
159.7012735825879872
 30
0.0
 40
23.4000932431349717
210
0.0
220
-0.0000000000000002
230
-1.0
 50
338.8168456069665808
 51
0.1617474312728726
  0
LINE
  5
29A9
  8
0
  6
VERDECKT
 62
     1
 10
-40.4999999999999929
 20
159.7673325485102112
 30
-0.0000000000000355
 11
-40.4999999999999929
 21
163.7761619566811078
 31
-0.0000000000000364
210
0.0
220
1.0
230
-0.0000000000000002
  0
LINE
  5
29AA
  8
0
  6
VERDECKT
 62
     1
 10
40.4999999999999929
 20
159.7673325485102112
 30
-0.0000000000000355
 11
40.4999999999999929
 21
163.7761619566811078
 31
-0.0000000000000364
210
0.0
220
1.0
230
-0.0000000000000002
  0
ARC
  5
29AB
  8
0
  6
VERDECKT
 62
     1
 10
-17.0999999999989711
 20
163.7761619566809088
 30
0.0
 40
23.4000000000010289
210
0.0
220
-0.0000000000000002
230
-1.0
 50
154.9999999999967031
 51
179.9999999999994884
  0
ARC
  5
29AC
  8
0
  6
VERDECKT
 62
     1
 10
17.0999999999989711
 20
163.7761619566809088
 30
0.0
 40
23.4000000000010289
210
0.0
220
-0.0000000000000002
230
-1.0
 50
0.0000000000004962
 51
25.0000000000032188
  0
LINE
  5
29AD
  8
0
  6
VERDECKT
 62
     1
 10
38.0
 20
174.3250843637997036
 30
-0.0000000000000387
 11
38.3076022166569601
 21
173.6654292814149017
 31
-0.0000000000000386
210
0.0
220
1.0
230
-0.0000000000000002
  0
LINE
  5
29AE
  8
0
  6
VERDECKT
 62
     1
 10
-38.0
 20
174.3250843637997036
 30
-0.0000000000000387
 11
-38.3076022166569601
 21
173.6654292814149017
 31
-0.0000000000000386
210
0.0
220
1.0
230
-0.0000000000000002
  0
LINE
  5
29AF
  8
0
  6
VERDECKT
 62
     1
 10
-38.0000000000000071
 20
174.3250843637995899
 30
-0.0000000000000387
 11
-39.4500924592586131
 21
175.0012735825849006
 31
-0.0000000000000389
210
0.0
220
1.0
230
-0.0000000000000002
  0
LINE
  5
29B0
  8
0
  6
VERDECKT
 62
     1
 10
38.0000000000000071
 20
174.3250843637995899
 30
-0.0000000000000387
 11
39.4500924592586983
 21
175.0012735825849006
 31
-0.0000000000000389
210
0.0
220
1.0
230
-0.0000000000000002
  0
POLYLINE
  8
0
  5
2DDC
  62
1
  66
     1
 10
0.000000
 20
0.000000
 30
0.000000
  70
     8
  0
VERTEX
  8
0
  5
2DDD
 10
-34.9000
 20
117.390
 30
-2.61000e-14
  70
    32
  0
VERTEX
  8
0
  5
2DDE
 10
-34.9001
 20
117.421
 30
-2.61070e-14
  70
    32
  0
VERTEX
  8
0
  5
2DDF
 10
-34.9002
 20
117.452
 30
-2.61139e-14
  70
    32
  0
VERTEX
  8
0
  5
2DE0
 10
-34.9005
 20
117.482
 30
-2.61208e-14
  70
    32
  0
VERTEX
  8
0
  5
2DE1
 10
-34.9009
 20
117.513
 30
-2.61276e-14
  70
    32
  0
VERTEX
  8
0
  5
2DE2
 10
-34.9015
 20
117.544
 30
-2.61342e-14
  70
    32
  0
VERTEX
  8
0
  5
2DE3
 10
-34.9021
 20
117.574
 30
-2.61409e-14
  70
    32
  0
VERTEX
  8
0
  5
2DE4
 10
-34.9029
 20
117.605
 30
-2.61474e-14
  70
    32
  0
VERTEX
  8
0
  5
2DE5
 10
-34.9038
 20
117.635
 30
-2.61539e-14
  70
    32
  0
VERTEX
  8
0
  5
2DE6
 10
-34.9047
 20
117.665
 30
-2.61603e-14
  70
    32
  0
VERTEX
  8
0
  5
2DE7
 10
-34.9058
 20
117.695
 30
-2.61667e-14
  70
    32
  0
VERTEX
  8
0
  5
2DE8
 10
-34.9071
 20
117.726
 30
-2.61729e-14
  70
    32
  0
VERTEX
  8
0
  5
2DE9
 10
-34.9084
 20
117.756
 30
-2.61792e-14
  70
    32
  0
VERTEX
  8
0
  5
2DEA
 10
-34.9098
 20
117.786
 30
-2.61853e-14
  70
    32
  0
VERTEX
  8
0
  5
2DEB
 10
-34.9114
 20
117.816
 30
-2.61914e-14
  70
    32
  0
VERTEX
  8
0
  5
2DEC
 10
-34.9130
 20
117.846
 30
-2.61975e-14
  70
    32
  0
VERTEX
  8
0
  5
2DED
 10
-34.9148
 20
117.876
 30
-2.62035e-14
  70
    32
  0
VERTEX
  8
0
  5
2DEE
 10
-34.9167
 20
117.905
 30
-2.62094e-14
  70
    32
  0
VERTEX
  8
0
  5
2DEF
 10
-34.9187
 20
117.935
 30
-2.62153e-14
  70
    32
  0
VERTEX
  8
0
  5
2DF0
 10
-34.9208
 20
117.965
 30
-2.62211e-14
  70
    32
  0
VERTEX
  8
0
  5
2DF1
 10
-34.9230
 20
117.994
 30
-2.62269e-14
  70
    32
  0
VERTEX
  8
0
  5
2DF2
 10
-34.9253
 20
118.024
 30
-2.62327e-14
  70
    32
  0
VERTEX
  8
0
  5
2DF3
 10
-34.9277
 20
118.053
 30
-2.62384e-14
  70
    32
  0
VERTEX
  8
0
  5
2DF4
 10
-34.9303
 20
118.083
 30
-2.62441e-14
  70
    32
  0
VERTEX
  8
0
  5
2DF5
 10
-34.9329
 20
118.112
 30
-2.62497e-14
  70
    32
  0
VERTEX
  8
0
  5
2DF6
 10
-34.9357
 20
118.141
 30
-2.62553e-14
  70
    32
  0
VERTEX
  8
0
  5
2DF7
 10
-34.9385
 20
118.171
 30
-2.62608e-14
  70
    32
  0
VERTEX
  8
0
  5
2DF8
 10
-34.9415
 20
118.200
 30
-2.62664e-14
  70
    32
  0
VERTEX
  8
0
  5
2DF9
 10
-34.9445
 20
118.229
 30
-2.62718e-14
  70
    32
  0
VERTEX
  8
0
  5
2DFA
 10
-34.9477
 20
118.258
 30
-2.62773e-14
  70
    32
  0
VERTEX
  8
0
  5
2DFB
 10
-34.9509
 20
118.287
 30
-2.62827e-14
  70
    32
  0
VERTEX
  8
0
  5
2DFC
 10
-34.9543
 20
118.315
 30
-2.62881e-14
  70
    32
  0
VERTEX
  8
0
  5
2DFD
 10
-34.9577
 20
118.344
 30
-2.62935e-14
  70
    32
  0
VERTEX
  8
0
  5
2DFE
 10
-34.9613
 20
118.373
 30
-2.62989e-14
  70
    32
  0
VERTEX
  8
0
  5
2DFF
 10
-34.9650
 20
118.402
 30
-2.63042e-14
  70
    32
  0
VERTEX
  8
0
  5
2E00
 10
-34.9687
 20
118.430
 30
-2.63095e-14
  70
    32
  0
VERTEX
  8
0
  5
2E01
 10
-34.9726
 20
118.459
 30
-2.63149e-14
  70
    32
  0
VERTEX
  8
0
  5
2E02
 10
-34.9766
 20
118.487
 30
-2.63201e-14
  70
    32
  0
VERTEX
  8
0
  5
2E03
 10
-34.9806
 20
118.515
 30
-2.63254e-14
  70
    32
  0
VERTEX
  8
0
  5
2E04
 10
-34.9848
 20
118.544
 30
-2.63307e-14
  70
    32
  0
VERTEX
  8
0
  5
2E05
 10
-34.9890
 20
118.572
 30
-2.63359e-14
  70
    32
  0
VERTEX
  8
0
  5
2E06
 10
-34.9934
 20
118.600
 30
-2.63412e-14
  70
    32
  0
VERTEX
  8
0
  5
2E07
 10
-34.9978
 20
118.628
 30
-2.63464e-14
  70
    32
  0
VERTEX
  8
0
  5
2E08
 10
-35.0024
 20
118.656
 30
-2.63517e-14
  70
    32
  0
VERTEX
  8
0
  5
2E09
 10
-35.0070
 20
118.684
 30
-2.63569e-14
  70
    32
  0
VERTEX
  8
0
  5
2E0A
 10
-35.0117
 20
118.712
 30
-2.63622e-14
  70
    32
  0
VERTEX
  8
0
  5
2E0B
 10
-35.0166
 20
118.740
 30
-2.63674e-14
  70
    32
  0
VERTEX
  8
0
  5
2E0C
 10
-35.0215
 20
118.768
 30
-2.63727e-14
  70
    32
  0
VERTEX
  8
0
  5
2E0D
 10
-35.0265
 20
118.795
 30
-2.63779e-14
  70
    32
  0
VERTEX
  8
0
  5
2E0E
 10
-35.0316
 20
118.823
 30
-2.63832e-14
  70
    32
  0
VERTEX
  8
0
  5
2E0F
 10
-35.0368
 20
118.850
 30
-2.63885e-14
  70
    32
  0
VERTEX
  8
0
  5
2E10
 10
-35.0421
 20
118.878
 30
-2.63938e-14
  70
    32
  0
VERTEX
  8
0
  5
2E11
 10
-35.0474
 20
118.905
 30
-2.63991e-14
  70
    32
  0
VERTEX
  8
0
  5
2E12
 10
-35.0529
 20
118.932
 30
-2.64044e-14
  70
    32
  0
VERTEX
  8
0
  5
2E13
 10
-35.0585
 20
118.960
 30
-2.64097e-14
  70
    32
  0
VERTEX
  8
0
  5
2E14
 10
-35.0641
 20
118.987
 30
-2.64151e-14
  70
    32
  0
VERTEX
  8
0
  5
2E15
 10
-35.0698
 20
119.014
 30
-2.64204e-14
  70
    32
  0
VERTEX
  8
0
  5
2E16
 10
-35.0756
 20
119.041
 30
-2.64258e-14
  70
    32
  0
VERTEX
  8
0
  5
2E17
 10
-35.0816
 20
119.068
 30
-2.64313e-14
  70
    32
  0
VERTEX
  8
0
  5
2E18
 10
-35.0875
 20
119.095
 30
-2.64367e-14
  70
    32
  0
VERTEX
  8
0
  5
2E19
 10
-35.0936
 20
119.121
 30
-2.64422e-14
  70
    32
  0
VERTEX
  8
0
  5
2E1A
 10
-35.0998
 20
119.148
 30
-2.64477e-14
  70
    32
  0
VERTEX
  8
0
  5
2E1B
 10
-35.1060
 20
119.175
 30
-2.64532e-14
  70
    32
  0
VERTEX
  8
0
  5
2E1C
 10
-35.1124
 20
119.201
 30
-2.64588e-14
  70
    32
  0
VERTEX
  8
0
  5
2E1D
 10
-35.1188
 20
119.228
 30
-2.64644e-14
  70
    32
  0
VERTEX
  8
0
  5
2E1E
 10
-35.1253
 20
119.254
 30
-2.64701e-14
  70
    32
  0
VERTEX
  8
0
  5
2E1F
 10
-35.1318
 20
119.281
 30
-2.64758e-14
  70
    32
  0
VERTEX
  8
0
  5
2E20
 10
-35.1385
 20
119.307
 30
-2.64815e-14
  70
    32
  0
VERTEX
  8
0
  5
2E21
 10
-35.1452
 20
119.333
 30
-2.64873e-14
  70
    32
  0
VERTEX
  8
0
  5
2E22
 10
-35.1521
 20
119.359
 30
-2.64931e-14
  70
    32
  0
VERTEX
  8
0
  5
2E23
 10
-35.1590
 20
119.385
 30
-2.64990e-14
  70
    32
  0
VERTEX
  8
0
  5
2E24
 10
-35.1659
 20
119.411
 30
-2.65050e-14
  70
    32
  0
VERTEX
  8
0
  5
2E25
 10
-35.1730
 20
119.437
 30
-2.65109e-14
  70
    32
  0
VERTEX
  8
0
  5
2E26
 10
-35.1801
 20
119.463
 30
-2.65170e-14
  70
    32
  0
VERTEX
  8
0
  5
2E27
 10
-35.1874
 20
119.489
 30
-2.65231e-14
  70
    32
  0
VERTEX
  8
0
  5
2E28
 10
-35.1947
 20
119.514
 30
-2.65292e-14
  70
    32
  0
VERTEX
  8
0
  5
2E29
 10
-35.2020
 20
119.540
 30
-2.65354e-14
  70
    32
  0
VERTEX
  8
0
  5
2E2A
 10
-35.2095
 20
119.566
 30
-2.65417e-14
  70
    32
  0
VERTEX
  8
0
  5
2E2B
 10
-35.2170
 20
119.591
 30
-2.65480e-14
  70
    32
  0
VERTEX
  8
0
  5
2E2C
 10
-35.2246
 20
119.616
 30
-2.65544e-14
  70
    32
  0
VERTEX
  8
0
  5
2E2D
 10
-35.2323
 20
119.642
 30
-2.65609e-14
  70
    32
  0
VERTEX
  8
0
  5
2E2E
 10
-35.2400
 20
119.667
 30
-2.65674e-14
  70
    32
  0
VERTEX
  8
0
  5
2E2F
 10
-35.2478
 20
119.692
 30
-2.65740e-14
  70
    32
  0
VERTEX
  8
0
  5
2E30
 10
-35.2557
 20
119.717
 30
-2.65807e-14
  70
    32
  0
VERTEX
  8
0
  5
2E31
 10
-35.2637
 20
119.742
 30
-2.65874e-14
  70
    32
  0
VERTEX
  8
0
  5
2E32
 10
-35.2717
 20
119.767
 30
-2.65943e-14
  70
    32
  0
VERTEX
  8
0
  5
2E33
 10
-35.2798
 20
119.792
 30
-2.66011e-14
  70
    32
  0
VERTEX
  8
0
  5
2E34
 10
-35.2880
 20
119.817
 30
-2.66079e-14
  70
    32
  0
VERTEX
  8
0
  5
2E35
 10
-35.2962
 20
119.841
 30
-2.66146e-14
  70
    32
  0
VERTEX
  8
0
  5
2E36
 10
-35.3045
 20
119.866
 30
-2.66212e-14
  70
    32
  0
VERTEX
  8
0
  5
2E37
 10
-35.3129
 20
119.890
 30
-2.66277e-14
  70
    32
  0
VERTEX
  8
0
  5
2E38
 10
-35.3213
 20
119.915
 30
-2.66342e-14
  70
    32
  0
VERTEX
  8
0
  5
2E39
 10
-35.3298
 20
119.939
 30
-2.66406e-14
  70
    32
  0
VERTEX
  8
0
  5
2E3A
 10
-35.3384
 20
119.964
 30
-2.66469e-14
  70
    32
  0
VERTEX
  8
0
  5
2E3B
 10
-35.3470
 20
119.988
 30
-2.66531e-14
  70
    32
  0
VERTEX
  8
0
  5
2E3C
 10
-35.3557
 20
120.012
 30
-2.66593e-14
  70
    32
  0
VERTEX
  8
0
  5
2E3D
 10
-35.3644
 20
120.036
 30
-2.66654e-14
  70
    32
  0
VERTEX
  8
0
  5
2E3E
 10
-35.3732
 20
120.060
 30
-2.66715e-14
  70
    32
  0
VERTEX
  8
0
  5
2E3F
 10
-35.3821
 20
120.084
 30
-2.66774e-14
  70
    32
  0
VERTEX
  8
0
  5
2E40
 10
-35.3910
 20
120.108
 30
-2.66833e-14
  70
    32
  0
VERTEX
  8
0
  5
2E41
 10
-35.4000
 20
120.131
 30
-2.66892e-14
  70
    32
  0
VERTEX
  8
0
  5
2E42
 10
-35.4090
 20
120.155
 30
-2.66949e-14
  70
    32
  0
VERTEX
  8
0
  5
2E43
 10
-35.4181
 20
120.179
 30
-2.67006e-14
  70
    32
  0
VERTEX
  8
0
  5
2E44
 10
-35.4272
 20
120.202
 30
-2.67063e-14
  70
    32
  0
VERTEX
  8
0
  5
2E45
 10
-35.4364
 20
120.226
 30
-2.67119e-14
  70
    32
  0
VERTEX
  8
0
  5
2E46
 10
-35.4456
 20
120.249
 30
-2.67174e-14
  70
    32
  0
VERTEX
  8
0
  5
2E47
 10
-35.4549
 20
120.272
 30
-2.67228e-14
  70
    32
  0
VERTEX
  8
0
  5
2E48
 10
-35.4643
 20
120.296
 30
-2.67282e-14
  70
    32
  0
VERTEX
  8
0
  5
2E49
 10
-35.4737
 20
120.319
 30
-2.67335e-14
  70
    32
  0
VERTEX
  8
0
  5
2E4A
 10
-35.4832
 20
120.342
 30
-2.67388e-14
  70
    32
  0
VERTEX
  8
0
  5
2E4B
 10
-35.4927
 20
120.365
 30
-2.67440e-14
  70
    32
  0
VERTEX
  8
0
  5
2E4C
 10
-35.5022
 20
120.388
 30
-2.67492e-14
  70
    32
  0
VERTEX
  8
0
  5
2E4D
 10
-35.5118
 20
120.411
 30
-2.67543e-14
  70
    32
  0
VERTEX
  8
0
  5
2E4E
 10
-35.5215
 20
120.434
 30
-2.67594e-14
  70
    32
  0
VERTEX
  8
0
  5
2E4F
 10
-35.5311
 20
120.456
 30
-2.67644e-14
  70
    32
  0
VERTEX
  8
0
  5
2E50
 10
-35.5409
 20
120.479
 30
-2.67693e-14
  70
    32
  0
VERTEX
  8
0
  5
2E51
 10
-35.5507
 20
120.502
 30
-2.67742e-14
  70
    32
  0
VERTEX
  8
0
  5
2E52
 10
-35.5605
 20
120.524
 30
-2.67790e-14
  70
    32
  0
VERTEX
  8
0
  5
2E53
 10
-35.5704
 20
120.546
 30
-2.67838e-14
  70
    32
  0
VERTEX
  8
0
  5
2E54
 10
-35.5803
 20
120.569
 30
-2.67886e-14
  70
    32
  0
VERTEX
  8
0
  5
2E55
 10
-35.5903
 20
120.591
 30
-2.67932e-14
  70
    32
  0
VERTEX
  8
0
  5
2E56
 10
-35.6003
 20
120.613
 30
-2.67979e-14
  70
    32
  0
VERTEX
  8
0
  5
2E57
 10
-35.6103
 20
120.635
 30
-2.68025e-14
  70
    32
  0
VERTEX
  8
0
  5
2E58
 10
-35.6204
 20
120.658
 30
-2.68070e-14
  70
    32
  0
VERTEX
  8
0
  5
2E59
 10
-35.6305
 20
120.680
 30
-2.68115e-14
  70
    32
  0
VERTEX
  8
0
  5
2E5A
 10
-35.6407
 20
120.701
 30
-2.68160e-14
  70
    32
  0
VERTEX
  8
0
  5
2E5B
 10
-35.6509
 20
120.723
 30
-2.68204e-14
  70
    32
  0
VERTEX
  8
0
  5
2E5C
 10
-35.6611
 20
120.745
 30
-2.68248e-14
  70
    32
  0
VERTEX
  8
0
  5
2E5D
 10
-35.6714
 20
120.767
 30
-2.68291e-14
  70
    32
  0
VERTEX
  8
0
  5
2E5E
 10
-35.6817
 20
120.788
 30
-2.68334e-14
  70
    32
  0
VERTEX
  8
0
  5
2E5F
 10
-35.6921
 20
120.810
 30
-2.68376e-14
  70
    32
  0
VERTEX
  8
0
  5
2E60
 10
-35.7024
 20
120.832
 30
-2.68418e-14
  70
    32
  0
VERTEX
  8
0
  5
2E61
 10
-35.7129
 20
120.853
 30
-2.68460e-14
  70
    32
  0
VERTEX
  8
0
  5
2E62
 10
-35.7233
 20
120.874
 30
-2.68502e-14
  70
    32
  0
VERTEX
  8
0
  5
2E63
 10
-35.7338
 20
120.896
 30
-2.68542e-14
  70
    32
  0
VERTEX
  8
0
  5
2E64
 10
-35.7443
 20
120.917
 30
-2.68583e-14
  70
    32
  0
VERTEX
  8
0
  5
2E65
 10
-35.7548
 20
120.938
 30
-2.68623e-14
  70
    32
  0
VERTEX
  8
0
  5
2E66
 10
-35.7654
 20
120.959
 30
-2.68663e-14
  70
    32
  0
VERTEX
  8
0
  5
2E67
 10
-35.7760
 20
120.980
 30
-2.68703e-14
  70
    32
  0
VERTEX
  8
0
  5
2E68
 10
-35.7867
 20
121.001
 30
-2.68742e-14
  70
    32
  0
VERTEX
  8
0
  5
2E69
 10
-35.7973
 20
121.022
 30
-2.68781e-14
  70
    32
  0
VERTEX
  8
0
  5
2E6A
 10
-35.8080
 20
121.043
 30
-2.68820e-14
  70
    32
  0
VERTEX
  8
0
  5
2E6B
 10
-35.8187
 20
121.064
 30
-2.68858e-14
  70
    32
  0
VERTEX
  8
0
  5
2E6C
 10
-35.8295
 20
121.084
 30
-2.68896e-14
  70
    32
  0
VERTEX
  8
0
  5
2E6D
 10
-35.8402
 20
121.105
 30
-2.68934e-14
  70
    32
  0
VERTEX
  8
0
  5
2E6E
 10
-35.8510
 20
121.125
 30
-2.68972e-14
  70
    32
  0
VERTEX
  8
0
  5
2E6F
 10
-35.8618
 20
121.146
 30
-2.69009e-14
  70
    32
  0
VERTEX
  8
0
  5
2E70
 10
-35.8727
 20
121.166
 30
-2.69046e-14
  70
    32
  0
VERTEX
  8
0
  5
2E71
 10
-35.8835
 20
121.187
 30
-2.69083e-14
  70
    32
  0
VERTEX
  8
0
  5
2E72
 10
-35.8944
 20
121.207
 30
-2.69119e-14
  70
    32
  0
VERTEX
  8
0
  5
2E73
 10
-35.9053
 20
121.227
 30
-2.69155e-14
  70
    32
  0
VERTEX
  8
0
  5
2E74
 10
-35.9162
 20
121.247
 30
-2.69192e-14
  70
    32
  0
VERTEX
  8
0
  5
2E75
 10
-35.9272
 20
121.267
 30
-2.69227e-14
  70
    32
  0
VERTEX
  8
0
  5
2E76
 10
-35.9381
 20
121.287
 30
-2.69263e-14
  70
    32
  0
VERTEX
  8
0
  5
2E77
 10
-35.9491
 20
121.307
 30
-2.69299e-14
  70
    32
  0
VERTEX
  8
0
  5
2E78
 10
-35.9601
 20
121.327
 30
-2.69334e-14
  70
    32
  0
VERTEX
  8
0
  5
2E79
 10
-35.9711
 20
121.347
 30
-2.69369e-14
  70
    32
  0
VERTEX
  8
0
  5
2E7A
 10
-35.9822
 20
121.367
 30
-2.69404e-14
  70
    32
  0
VERTEX
  8
0
  5
2E7B
 10
-35.9932
 20
121.387
 30
-2.69439e-14
  70
    32
  0
VERTEX
  8
0
  5
2E7C
 10
-36.0043
 20
121.406
 30
-2.69474e-14
  70
    32
  0
VERTEX
  8
0
  5
2E7D
 10
-36.0153
 20
121.426
 30
-2.69508e-14
  70
    32
  0
VERTEX
  8
0
  5
2E7E
 10
-36.0264
 20
121.445
 30
-2.69543e-14
  70
    32
  0
VERTEX
  8
0
  5
2E7F
 10
-36.0375
 20
121.465
 30
-2.69577e-14
  70
    32
  0
VERTEX
  8
0
  5
2E80
 10
-36.0486
 20
121.484
 30
-2.69611e-14
  70
    32
  0
VERTEX
  8
0
  5
2E81
 10
-36.0597
 20
121.503
 30
-2.69645e-14
  70
    32
  0
VERTEX
  8
0
  5
2E82
 10
-36.0709
 20
121.523
 30
-2.69679e-14
  70
    32
  0
VERTEX
  8
0
  5
2E83
 10
-36.0820
 20
121.542
 30
-2.69713e-14
  70
    32
  0
VERTEX
  8
0
  5
2E84
 10
-36.0932
 20
121.561
 30
-2.69747e-14
  70
    32
  0
VERTEX
  8
0
  5
2E85
 10
-36.1043
 20
121.580
 30
-2.69781e-14
  70
    32
  0
VERTEX
  8
0
  5
2E86
 10
-36.1155
 20
121.599
 30
-2.69814e-14
  70
    32
  0
VERTEX
  8
0
  5
2E87
 10
-36.1267
 20
121.618
 30
-2.69848e-14
  70
    32
  0
VERTEX
  8
0
  5
2E88
 10
-36.1378
 20
121.637
 30
-2.69882e-14
  70
    32
  0
VERTEX
  8
0
  5
2E89
 10
-36.1490
 20
121.656
 30
-2.69915e-14
  70
    32
  0
VERTEX
  8
0
  5
2E8A
 10
-36.1602
 20
121.674
 30
-2.69949e-14
  70
    32
  0
VERTEX
  8
0
  5
2E8B
 10
-36.1714
 20
121.693
 30
-2.69982e-14
  70
    32
  0
VERTEX
  8
0
  5
2E8C
 10
-36.1826
 20
121.712
 30
-2.70016e-14
  70
    32
  0
VERTEX
  8
0
  5
2E8D
 10
-36.1938
 20
121.730
 30
-2.70050e-14
  70
    32
  0
VERTEX
  8
0
  5
2E8E
 10
-36.2050
 20
121.749
 30
-2.70085e-14
  70
    32
  0
VERTEX
  8
0
  5
2E8F
 10
-36.2161
 20
121.767
 30
-2.70121e-14
  70
    32
  0
VERTEX
  8
0
  5
2E90
 10
-36.2273
 20
121.786
 30
-2.70157e-14
  70
    32
  0
VERTEX
  8
0
  5
2E91
 10
-36.2385
 20
121.804
 30
-2.70194e-14
  70
    32
  0
VERTEX
  8
0
  5
2E92
 10
-36.2497
 20
121.822
 30
-2.70232e-14
  70
    32
  0
VERTEX
  8
0
  5
2E93
 10
-36.2609
 20
121.840
 30
-2.70270e-14
  70
    32
  0
VERTEX
  8
0
  5
2E94
 10
-36.2721
 20
121.859
 30
-2.70309e-14
  70
    32
  0
VERTEX
  8
0
  5
2E95
 10
-36.2833
 20
121.877
 30
-2.70349e-14
  70
    32
  0
VERTEX
  8
0
  5
2E96
 10
-36.2945
 20
121.895
 30
-2.70389e-14
  70
    32
  0
VERTEX
  8
0
  5
2E97
 10
-36.3057
 20
121.913
 30
-2.70429e-14
  70
    32
  0
VERTEX
  8
0
  5
2E98
 10
-36.3168
 20
121.931
 30
-2.70470e-14
  70
    32
  0
VERTEX
  8
0
  5
2E99
 10
-36.3280
 20
121.949
 30
-2.70512e-14
  70
    32
  0
VERTEX
  8
0
  5
2E9A
 10
-36.3392
 20
121.966
 30
-2.70554e-14
  70
    32
  0
VERTEX
  8
0
  5
2E9B
 10
-36.3504
 20
121.984
 30
-2.70596e-14
  70
    32
  0
VERTEX
  8
0
  5
2E9C
 10
-36.3615
 20
122.002
 30
-2.70639e-14
  70
    32
  0
VERTEX
  8
0
  5
2E9D
 10
-36.3727
 20
122.019
 30
-2.70682e-14
  70
    32
  0
VERTEX
  8
0
  5
2E9E
 10
-36.3838
 20
122.037
 30
-2.70726e-14
  70
    32
  0
VERTEX
  8
0
  5
2E9F
 10
-36.3950
 20
122.055
 30
-2.70770e-14
  70
    32
  0
VERTEX
  8
0
  5
2EA0
 10
-36.4061
 20
122.072
 30
-2.70815e-14
  70
    32
  0
VERTEX
  8
0
  5
2EA1
 10
-36.4172
 20
122.090
 30
-2.70859e-14
  70
    32
  0
VERTEX
  8
0
  5
2EA2
 10
-36.4283
 20
122.107
 30
-2.70904e-14
  70
    32
  0
VERTEX
  8
0
  5
2EA3
 10
-36.4394
 20
122.124
 30
-2.70949e-14
  70
    32
  0
VERTEX
  8
0
  5
2EA4
 10
-36.4505
 20
122.142
 30
-2.70995e-14
  70
    32
  0
VERTEX
  8
0
  5
2EA5
 10
-36.4616
 20
122.159
 30
-2.71041e-14
  70
    32
  0
VERTEX
  8
0
  5
2EA6
 10
-36.4727
 20
122.176
 30
-2.71087e-14
  70
    32
  0
VERTEX
  8
0
  5
2EA7
 10
-36.4837
 20
122.193
 30
-2.71133e-14
  70
    32
  0
VERTEX
  8
0
  5
2EA8
 10
-36.4948
 20
122.210
 30
-2.71179e-14
  70
    32
  0
VERTEX
  8
0
  5
2EA9
 10
-36.5058
 20
122.227
 30
-2.71226e-14
  70
    32
  0
VERTEX
  8
0
  5
2EAA
 10
-36.5169
 20
122.244
 30
-2.71272e-14
  70
    32
  0
VERTEX
  8
0
  5
2EAB
 10
-36.5279
 20
122.261
 30
-2.71319e-14
  70
    32
  0
VERTEX
  8
0
  5
2EAC
 10
-36.5389
 20
122.278
 30
-2.71366e-14
  70
    32
  0
VERTEX
  8
0
  5
2EAD
 10
-36.5499
 20
122.295
 30
-2.71413e-14
  70
    32
  0
VERTEX
  8
0
  5
2EAE
 10
-36.5608
 20
122.312
 30
-2.71460e-14
  70
    32
  0
VERTEX
  8
0
  5
2EAF
 10
-36.5718
 20
122.328
 30
-2.71507e-14
  70
    32
  0
VERTEX
  8
0
  5
2EB0
 10
-36.5827
 20
122.345
 30
-2.71554e-14
  70
    32
  0
VERTEX
  8
0
  5
2EB1
 10
-36.5937
 20
122.362
 30
-2.71601e-14
  70
    32
  0
VERTEX
  8
0
  5
2EB2
 10
-36.6046
 20
122.378
 30
-2.71648e-14
  70
    32
  0
VERTEX
  8
0
  5
2EB3
 10
-36.6154
 20
122.395
 30
-2.71694e-14
  70
    32
  0
VERTEX
  8
0
  5
2EB4
 10
-36.6263
 20
122.411
 30
-2.71741e-14
  70
    32
  0
VERTEX
  8
0
  5
2EB5
 10
-36.6372
 20
122.428
 30
-2.71788e-14
  70
    32
  0
VERTEX
  8
0
  5
2EB6
 10
-36.6480
 20
122.444
 30
-2.71835e-14
  70
    32
  0
VERTEX
  8
0
  5
2EB7
 10
-36.6588
 20
122.460
 30
-2.71881e-14
  70
    32
  0
VERTEX
  8
0
  5
2EB8
 10
-36.6696
 20
122.477
 30
-2.71927e-14
  70
    32
  0
VERTEX
  8
0
  5
2EB9
 10
-36.6804
 20
122.493
 30
-2.71973e-14
  70
    32
  0
VERTEX
  8
0
  5
2EBA
 10
-36.6912
 20
122.509
 30
-2.72019e-14
  70
    32
  0
VERTEX
  8
0
  5
2EBB
 10
-36.7019
 20
122.525
 30
-2.72065e-14
  70
    32
  0
VERTEX
  8
0
  5
2EBC
 10
-36.7126
 20
122.541
 30
-2.72110e-14
  70
    32
  0
VERTEX
  8
0
  5
2EBD
 10
-36.7233
 20
122.557
 30
-2.72155e-14
  70
    32
  0
VERTEX
  8
0
  5
2EBE
 10
-36.7340
 20
122.573
 30
-2.72200e-14
  70
    32
  0
VERTEX
  8
0
  5
2EBF
 10
-36.7446
 20
122.589
 30
-2.72245e-14
  70
    32
  0
VERTEX
  8
0
  5
2EC0
 10
-36.7552
 20
122.605
 30
-2.72289e-14
  70
    32
  0
VERTEX
  8
0
  5
2EC1
 10
-36.7658
 20
122.621
 30
-2.72333e-14
  70
    32
  0
VERTEX
  8
0
  5
2EC2
 10
-36.7764
 20
122.637
 30
-2.72376e-14
  70
    32
  0
VERTEX
  8
0
  5
2EC3
 10
-36.7870
 20
122.653
 30
-2.72419e-14
  70
    32
  0
VERTEX
  8
0
  5
2EC4
 10
-36.7975
 20
122.668
 30
-2.72462e-14
  70
    32
  0
VERTEX
  8
0
  5
2EC5
 10
-36.8080
 20
122.684
 30
-2.72504e-14
  70
    32
  0
VERTEX
  8
0
  5
2EC6
 10
-36.8185
 20
122.700
 30
-2.72546e-14
  70
    32
  0
VERTEX
  8
0
  5
2EC7
 10
-36.8289
 20
122.715
 30
-2.72588e-14
  70
    32
  0
VERTEX
  8
0
  5
2EC8
 10
-36.8393
 20
122.731
 30
-2.72628e-14
  70
    32
  0
VERTEX
  8
0
  5
2EC9
 10
-36.8497
 20
122.746
 30
-2.72669e-14
  70
    32
  0
VERTEX
  8
0
  5
2ECA
 10
-36.8601
 20
122.762
 30
-2.72708e-14
  70
    32
  0
VERTEX
  8
0
  5
2ECB
 10
-36.8704
 20
122.777
 30
-2.72748e-14
  70
    32
  0
VERTEX
  8
0
  5
2ECC
 10
-36.8807
 20
122.793
 30
-2.72786e-14
  70
    32
  0
VERTEX
  8
0
  5
2ECD
 10
-36.8910
 20
122.808
 30
-2.72824e-14
  70
    32
  0
VERTEX
  8
0
  5
2ECE
 10
-36.9012
 20
122.823
 30
-2.72862e-14
  70
    32
  0
VERTEX
  8
0
  5
2ECF
 10
-36.9114
 20
122.838
 30
-2.72898e-14
  70
    32
  0
VERTEX
  8
0
  5
2ED0
 10
-36.9216
 20
122.854
 30
-2.72935e-14
  70
    32
  0
VERTEX
  8
0
  5
2ED1
 10
-36.9318
 20
122.869
 30
-2.72970e-14
  70
    32
  0
VERTEX
  8
0
  5
2ED2
 10
-36.9419
 20
122.884
 30
-2.73005e-14
  70
    32
  0
VERTEX
  8
0
  5
2ED3
 10
-36.9519
 20
122.899
 30
-2.73039e-14
  70
    32
  0
VERTEX
  8
0
  5
2ED4
 10
-36.9620
 20
122.914
 30
-2.73072e-14
  70
    32
  0
VERTEX
  8
0
  5
2ED5
 10
-36.9720
 20
122.929
 30
-2.73104e-14
  70
    32
  0
VERTEX
  8
0
  5
2ED6
 10
-36.9820
 20
122.944
 30
-2.73136e-14
  70
    32
  0
VERTEX
  8
0
  5
2ED7
 10
-36.9919
 20
122.959
 30
-2.73167e-14
  70
    32
  0
VERTEX
  8
0
  5
2ED8
 10
-37.0018
 20
122.974
 30
-2.73197e-14
  70
    32
  0
VERTEX
  8
0
  5
2ED9
 10
-37.0117
 20
122.989
 30
-2.73226e-14
  70
    32
  0
VERTEX
  8
0
  5
2EDA
 10
-37.0216
 20
123.003
 30
-2.73254e-14
  70
    32
  0
VERTEX
  8
0
  5
2EDB
 10
-37.0314
 20
123.018
 30
-2.73281e-14
  70
    32
  0
VERTEX
  8
0
  5
2EDC
 10
-37.0411
 20
123.033
 30
-2.73308e-14
  70
    32
  0
VERTEX
  8
0
  5
2EDD
 10
-37.0508
 20
123.048
 30
-2.73333e-14
  70
    32
  0
VERTEX
  8
0
  5
2EDE
 10
-37.0605
 20
123.062
 30
-2.73358e-14
  70
    32
  0
VERTEX
  8
0
  5
2EDF
 10
-37.0702
 20
123.077
 30
-2.73382e-14
  70
    32
  0
VERTEX
  8
0
  5
2EE0
 10
-37.0798
 20
123.091
 30
-2.73404e-14
  70
    32
  0
VERTEX
  8
0
  5
2EE1
 10
-37.0893
 20
123.106
 30
-2.73426e-14
  70
    32
  0
VERTEX
  8
0
  5
2EE2
 10
-37.0989
 20
123.120
 30
-2.73446e-14
  70
    32
  0
VERTEX
  8
0
  5
2EE3
 10
-37.1084
 20
123.135
 30
-2.73466e-14
  70
    32
  0
VERTEX
  8
0
  5
2EE4
 10
-37.1178
 20
123.149
 30
-2.73484e-14
  70
    32
  0
VERTEX
  8
0
  5
2EE5
 10
-37.1272
 20
123.164
 30
-2.73501e-14
  70
    32
  0
VERTEX
  8
0
  5
2EE6
 10
-37.1366
 20
123.178
 30
-2.73518e-14
  70
    32
  0
VERTEX
  8
0
  5
2EE7
 10
-37.1459
 20
123.192
 30
-2.73536e-14
  70
    32
  0
VERTEX
  8
0
  5
2EE8
 10
-37.1552
 20
123.207
 30
-2.73553e-14
  70
    32
  0
VERTEX
  8
0
  5
2EE9
 10
-37.1644
 20
123.221
 30
-2.73571e-14
  70
    32
  0
VERTEX
  8
0
  5
2EEA
 10
-37.1736
 20
123.235
 30
-2.73590e-14
  70
    32
  0
VERTEX
  8
0
  5
2EEB
 10
-37.1827
 20
123.249
 30
-2.73609e-14
  70
    32
  0
VERTEX
  8
0
  5
2EEC
 10
-37.1918
 20
123.263
 30
-2.73628e-14
  70
    32
  0
VERTEX
  8
0
  5
2EED
 10
-37.2008
 20
123.277
 30
-2.73647e-14
  70
    32
  0
VERTEX
  8
0
  5
2EEE
 10
-37.2099
 20
123.292
 30
-2.73667e-14
  70
    32
  0
VERTEX
  8
0
  5
2EEF
 10
-37.2188
 20
123.306
 30
-2.73687e-14
  70
    32
  0
VERTEX
  8
0
  5
2EF0
 10
-37.2277
 20
123.319
 30
-2.73708e-14
  70
    32
  0
VERTEX
  8
0
  5
2EF1
 10
-37.2366
 20
123.333
 30
-2.73729e-14
  70
    32
  0
VERTEX
  8
0
  5
2EF2
 10
-37.2454
 20
123.347
 30
-2.73750e-14
  70
    32
  0
VERTEX
  8
0
  5
2EF3
 10
-37.2542
 20
123.361
 30
-2.73771e-14
  70
    32
  0
VERTEX
  8
0
  5
2EF4
 10
-37.2629
 20
123.375
 30
-2.73793e-14
  70
    32
  0
VERTEX
  8
0
  5
2EF5
 10
-37.2716
 20
123.389
 30
-2.73815e-14
  70
    32
  0
VERTEX
  8
0
  5
2EF6
 10
-37.2803
 20
123.403
 30
-2.73838e-14
  70
    32
  0
VERTEX
  8
0
  5
2EF7
 10
-37.2888
 20
123.416
 30
-2.73861e-14
  70
    32
  0
VERTEX
  8
0
  5
2EF8
 10
-37.2974
 20
123.430
 30
-2.73884e-14
  70
    32
  0
VERTEX
  8
0
  5
2EF9
 10
-37.3059
 20
123.444
 30
-2.73907e-14
  70
    32
  0
VERTEX
  8
0
  5
2EFA
 10
-37.3143
 20
123.457
 30
-2.73930e-14
  70
    32
  0
VERTEX
  8
0
  5
2EFB
 10
-37.3228
 20
123.471
 30
-2.73954e-14
  70
    32
  0
VERTEX
  8
0
  5
2EFC
 10
-37.3311
 20
123.484
 30
-2.73979e-14
  70
    32
  0
VERTEX
  8
0
  5
2EFD
 10
-37.3394
 20
123.498
 30
-2.74003e-14
  70
    32
  0
VERTEX
  8
0
  5
2EFE
 10
-37.3477
 20
123.511
 30
-2.74028e-14
  70
    32
  0
VERTEX
  8
0
  5
2EFF
 10
-37.3559
 20
123.525
 30
-2.74053e-14
  70
    32
  0
VERTEX
  8
0
  5
2F00
 10
-37.3641
 20
123.538
 30
-2.74078e-14
  70
    32
  0
VERTEX
  8
0
  5
2F01
 10
-37.3722
 20
123.552
 30
-2.74104e-14
  70
    32
  0
VERTEX
  8
0
  5
2F02
 10
-37.3803
 20
123.565
 30
-2.74129e-14
  70
    32
  0
VERTEX
  8
0
  5
2F03
 10
-37.3883
 20
123.578
 30
-2.74155e-14
  70
    32
  0
VERTEX
  8
0
  5
2F04
 10
-37.3963
 20
123.592
 30
-2.74182e-14
  70
    32
  0
VERTEX
  8
0
  5
2F05
 10
-37.4042
 20
123.605
 30
-2.74208e-14
  70
    32
  0
VERTEX
  8
0
  5
2F06
 10
-37.4121
 20
123.618
 30
-2.74235e-14
  70
    32
  0
VERTEX
  8
0
  5
2F07
 10
-37.4199
 20
123.631
 30
-2.74262e-14
  70
    32
  0
VERTEX
  8
0
  5
2F08
 10
-37.4277
 20
123.644
 30
-2.74289e-14
  70
    32
  0
VERTEX
  8
0
  5
2F09
 10
-37.4354
 20
123.657
 30
-2.74317e-14
  70
    32
  0
VERTEX
  8
0
  5
2F0A
 10
-37.4431
 20
123.671
 30
-2.74344e-14
  70
    32
  0
VERTEX
  8
0
  5
2F0B
 10
-37.4507
 20
123.684
 30
-2.74372e-14
  70
    32
  0
VERTEX
  8
0
  5
2F0C
 10
-37.4583
 20
123.697
 30
-2.74400e-14
  70
    32
  0
VERTEX
  8
0
  5
2F0D
 10
-37.4659
 20
123.710
 30
-2.74429e-14
  70
    32
  0
VERTEX
  8
0
  5
2F0E
 10
-37.4733
 20
123.723
 30
-2.74457e-14
  70
    32
  0
VERTEX
  8
0
  5
2F0F
 10
-37.4808
 20
123.735
 30
-2.74486e-14
  70
    32
  0
VERTEX
  8
0
  5
2F10
 10
-37.4882
 20
123.748
 30
-2.74515e-14
  70
    32
  0
VERTEX
  8
0
  5
2F11
 10
-37.4955
 20
123.761
 30
-2.74544e-14
  70
    32
  0
VERTEX
  8
0
  5
2F12
 10
-37.5028
 20
123.774
 30
-2.74574e-14
  70
    32
  0
VERTEX
  8
0
  5
2F13
 10
-37.5100
 20
123.787
 30
-2.74603e-14
  70
    32
  0
VERTEX
  8
0
  5
2F14
 10
-37.5172
 20
123.800
 30
-2.74633e-14
  70
    32
  0
VERTEX
  8
0
  5
2F15
 10
-37.5243
 20
123.812
 30
-2.74663e-14
  70
    32
  0
VERTEX
  8
0
  5
2F16
 10
-37.5314
 20
123.825
 30
-2.74693e-14
  70
    32
  0
VERTEX
  8
0
  5
2F17
 10
-37.5384
 20
123.838
 30
-2.74723e-14
  70
    32
  0
VERTEX
  8
0
  5
2F18
 10
-37.5454
 20
123.850
 30
-2.74753e-14
  70
    32
  0
VERTEX
  8
0
  5
2F19
 10
-37.5523
 20
123.863
 30
-2.74784e-14
  70
    32
  0
VERTEX
  8
0
  5
2F1A
 10
-37.5592
 20
123.876
 30
-2.74815e-14
  70
    32
  0
VERTEX
  8
0
  5
2F1B
 10
-37.5660
 20
123.888
 30
-2.74846e-14
  70
    32
  0
VERTEX
  8
0
  5
2F1C
 10
-37.5728
 20
123.901
 30
-2.74877e-14
  70
    32
  0
VERTEX
  8
0
  5
2F1D
 10
-37.5795
 20
123.913
 30
-2.74908e-14
  70
    32
  0
VERTEX
  8
0
  5
2F1E
 10
-37.5861
 20
123.926
 30
-2.74939e-14
  70
    32
  0
VERTEX
  8
0
  5
2F1F
 10
-37.5927
 20
123.938
 30
-2.74970e-14
  70
    32
  0
VERTEX
  8
0
  5
2F20
 10
-37.5993
 20
123.950
 30
-2.75002e-14
  70
    32
  0
VERTEX
  8
0
  5
2F21
 10
-37.6058
 20
123.963
 30
-2.75034e-14
  70
    32
  0
VERTEX
  8
0
  5
2F22
 10
-37.6123
 20
123.975
 30
-2.75065e-14
  70
    32
  0
VERTEX
  8
0
  5
2F23
 10
-37.6186
 20
123.988
 30
-2.75097e-14
  70
    32
  0
VERTEX
  8
0
  5
2F24
 10
-37.6250
 20
124.000
 30
-2.75129e-14
  70
    32
  0
VERTEX
  8
0
  5
2F25
 10
-37.6313
 20
124.012
 30
-2.75162e-14
  70
    32
  0
VERTEX
  8
0
  5
2F26
 10
-37.6375
 20
124.024
 30
-2.75194e-14
  70
    32
  0
VERTEX
  8
0
  5
2F27
 10
-37.6437
 20
124.037
 30
-2.75226e-14
  70
    32
  0
VERTEX
  8
0
  5
2F28
 10
-37.6498
 20
124.049
 30
-2.75259e-14
  70
    32
  0
VERTEX
  8
0
  5
2F29
 10
-37.6559
 20
124.061
 30
-2.75291e-14
  70
    32
  0
VERTEX
  8
0
  5
2F2A
 10
-37.6619
 20
124.073
 30
-2.75324e-14
  70
    32
  0
VERTEX
  8
0
  5
2F2B
 10
-37.6679
 20
124.085
 30
-2.75357e-14
  70
    32
  0
VERTEX
  8
0
  5
2F2C
 10
-37.6738
 20
124.097
 30
-2.75389e-14
  70
    32
  0
VERTEX
  8
0
  5
2F2D
 10
-37.6796
 20
124.109
 30
-2.75422e-14
  70
    32
  0
VERTEX
  8
0
  5
2F2E
 10
-37.6854
 20
124.121
 30
-2.75455e-14
  70
    32
  0
VERTEX
  8
0
  5
2F2F
 10
-37.6912
 20
124.133
 30
-2.75488e-14
  70
    32
  0
VERTEX
  8
0
  5
2F30
 10
-37.6969
 20
124.145
 30
-2.75521e-14
  70
    32
  0
VERTEX
  8
0
  5
2F31
 10
-37.7025
 20
124.157
 30
-2.75555e-14
  70
    32
  0
VERTEX
  8
0
  5
2F32
 10
-37.7081
 20
124.169
 30
-2.75588e-14
  70
    32
  0
VERTEX
  8
0
  5
2F33
 10
-37.7136
 20
124.181
 30
-2.75621e-14
  70
    32
  0
VERTEX
  8
0
  5
2F34
 10
-37.7191
 20
124.193
 30
-2.75654e-14
  70
    32
  0
VERTEX
  8
0
  5
2F35
 10
-37.7245
 20
124.205
 30
-2.75688e-14
  70
    32
  0
VERTEX
  8
0
  5
2F36
 10
-37.7298
 20
124.217
 30
-2.75721e-14
  70
    32
  0
VERTEX
  8
0
  5
2F37
 10
-37.7351
 20
124.228
 30
-2.75755e-14
  70
    32
  0
VERTEX
  8
0
  5
2F38
 10
-37.7404
 20
124.240
 30
-2.75788e-14
  70
    32
  0
VERTEX
  8
0
  5
2F39
 10
-37.7455
 20
124.252
 30
-2.75821e-14
  70
    32
  0
VERTEX
  8
0
  5
2F3A
 10
-37.7507
 20
124.264
 30
-2.75855e-14
  70
    32
  0
VERTEX
  8
0
  5
2F3B
 10
-37.7557
 20
124.275
 30
-2.75889e-14
  70
    32
  0
VERTEX
  8
0
  5
2F3C
 10
-37.7607
 20
124.287
 30
-2.75922e-14
  70
    32
  0
VERTEX
  8
0
  5
2F3D
 10
-37.7657
 20
124.299
 30
-2.75956e-14
  70
    32
  0
VERTEX
  8
0
  5
2F3E
 10
-37.7706
 20
124.310
 30
-2.75989e-14
  70
    32
  0
VERTEX
  8
0
  5
2F3F
 10
-37.7754
 20
124.322
 30
-2.76023e-14
  70
    32
  0
VERTEX
  8
0
  5
2F40
 10
-37.7802
 20
124.334
 30
-2.76055e-14
  70
    32
  0
VERTEX
  8
0
  5
2F41
 10
-37.7849
 20
124.345
 30
-2.76087e-14
  70
    32
  0
VERTEX
  8
0
  5
2F42
 10
-37.7896
 20
124.357
 30
-2.76118e-14
  70
    32
  0
VERTEX
  8
0
  5
2F43
 10
-37.7943
 20
124.368
 30
-2.76149e-14
  70
    32
  0
VERTEX
  8
0
  5
2F44
 10
-37.7988
 20
124.380
 30
-2.76179e-14
  70
    32
  0
VERTEX
  8
0
  5
2F45
 10
-37.8034
 20
124.391
 30
-2.76208e-14
  70
    32
  0
VERTEX
  8
0
  5
2F46
 10
-37.8078
 20
124.403
 30
-2.76237e-14
  70
    32
  0
VERTEX
  8
0
  5
2F47
 10
-37.8123
 20
124.414
 30
-2.76265e-14
  70
    32
  0
VERTEX
  8
0
  5
2F48
 10
-37.8166
 20
124.425
 30
-2.76292e-14
  70
    32
  0
VERTEX
  8
0
  5
2F49
 10
-37.8210
 20
124.437
 30
-2.76319e-14
  70
    32
  0
VERTEX
  8
0
  5
2F4A
 10
-37.8252
 20
124.448
 30
-2.76345e-14
  70
    32
  0
VERTEX
  8
0
  5
2F4B
 10
-37.8295
 20
124.459
 30
-2.76371e-14
  70
    32
  0
VERTEX
  8
0
  5
2F4C
 10
-37.8336
 20
124.471
 30
-2.76396e-14
  70
    32
  0
VERTEX
  8
0
  5
2F4D
 10
-37.8377
 20
124.482
 30
-2.76420e-14
  70
    32
  0
VERTEX
  8
0
  5
2F4E
 10
-37.8418
 20
124.493
 30
-2.76444e-14
  70
    32
  0
VERTEX
  8
0
  5
2F4F
 10
-37.8458
 20
124.505
 30
-2.76468e-14
  70
    32
  0
VERTEX
  8
0
  5
2F50
 10
-37.8498
 20
124.516
 30
-2.76491e-14
  70
    32
  0
VERTEX
  8
0
  5
2F51
 10
-37.8537
 20
124.527
 30
-2.76514e-14
  70
    32
  0
VERTEX
  8
0
  5
2F52
 10
-37.8575
 20
124.538
 30
-2.76536e-14
  70
    32
  0
VERTEX
  8
0
  5
2F53
 10
-37.8613
 20
124.549
 30
-2.76558e-14
  70
    32
  0
VERTEX
  8
0
  5
2F54
 10
-37.8651
 20
124.561
 30
-2.76579e-14
  70
    32
  0
VERTEX
  8
0
  5
2F55
 10
-37.8688
 20
124.572
 30
-2.76600e-14
  70
    32
  0
VERTEX
  8
0
  5
2F56
 10
-37.8725
 20
124.583
 30
-2.76620e-14
  70
    32
  0
VERTEX
  8
0
  5
2F57
 10
-37.8761
 20
124.594
 30
-2.76641e-14
  70
    32
  0
VERTEX
  8
0
  5
2F58
 10
-37.8796
 20
124.605
 30
-2.76660e-14
  70
    32
  0
VERTEX
  8
0
  5
2F59
 10
-37.8831
 20
124.616
 30
-2.76680e-14
  70
    32
  0
VERTEX
  8
0
  5
2F5A
 10
-37.8865
 20
124.628
 30
-2.76699e-14
  70
    32
  0
VERTEX
  8
0
  5
2F5B
 10
-37.8899
 20
124.639
 30
-2.76718e-14
  70
    32
  0
VERTEX
  8
0
  5
2F5C
 10
-37.8933
 20
124.650
 30
-2.76737e-14
  70
    32
  0
VERTEX
  8
0
  5
2F5D
 10
-37.8966
 20
124.661
 30
-2.76755e-14
  70
    32
  0
VERTEX
  8
0
  5
2F5E
 10
-37.8998
 20
124.672
 30
-2.76773e-14
  70
    32
  0
VERTEX
  8
0
  5
2F5F
 10
-37.9030
 20
124.683
 30
-2.76791e-14
  70
    32
  0
VERTEX
  8
0
  5
2F60
 10
-37.9061
 20
124.694
 30
-2.76809e-14
  70
    32
  0
VERTEX
  8
0
  5
2F61
 10
-37.9092
 20
124.706
 30
-2.76826e-14
  70
    32
  0
VERTEX
  8
0
  5
2F62
 10
-37.9123
 20
124.717
 30
-2.76844e-14
  70
    32
  0
VERTEX
  8
0
  5
2F63
 10
-37.9152
 20
124.728
 30
-2.76861e-14
  70
    32
  0
VERTEX
  8
0
  5
2F64
 10
-37.9182
 20
124.739
 30
-2.76878e-14
  70
    32
  0
VERTEX
  8
0
  5
2F65
 10
-37.9210
 20
124.750
 30
-2.76895e-14
  70
    32
  0
VERTEX
  8
0
  5
2F66
 10
-37.9239
 20
124.761
 30
-2.76911e-14
  70
    32
  0
VERTEX
  8
0
  5
2F67
 10
-37.9266
 20
124.772
 30
-2.76928e-14
  70
    32
  0
VERTEX
  8
0
  5
2F68
 10
-37.9294
 20
124.783
 30
-2.76945e-14
  70
    32
  0
VERTEX
  8
0
  5
2F69
 10
-37.9320
 20
124.795
 30
-2.76961e-14
  70
    32
  0
VERTEX
  8
0
  5
2F6A
 10
-37.9347
 20
124.806
 30
-2.76978e-14
  70
    32
  0
VERTEX
  8
0
  5
2F6B
 10
-37.9372
 20
124.817
 30
-2.76994e-14
  70
    32
  0
VERTEX
  8
0
  5
2F6C
 10
-37.9398
 20
124.828
 30
-2.77010e-14
  70
    32
  0
VERTEX
  8
0
  5
2F6D
 10
-37.9422
 20
124.839
 30
-2.77027e-14
  70
    32
  0
VERTEX
  8
0
  5
2F6E
 10
-37.9446
 20
124.850
 30
-2.77043e-14
  70
    32
  0
VERTEX
  8
0
  5
2F6F
 10
-37.9470
 20
124.862
 30
-2.77060e-14
  70
    32
  0
VERTEX
  8
0
  5
2F70
 10
-37.9493
 20
124.873
 30
-2.77076e-14
  70
    32
  0
VERTEX
  8
0
  5
2F71
 10
-37.9516
 20
124.884
 30
-2.77093e-14
  70
    32
  0
VERTEX
  8
0
  5
2F72
 10
-37.9538
 20
124.895
 30
-2.77109e-14
  70
    32
  0
VERTEX
  8
0
  5
2F73
 10
-37.9559
 20
124.907
 30
-2.77126e-14
  70
    32
  0
VERTEX
  8
0
  5
2F74
 10
-37.9580
 20
124.918
 30
-2.77143e-14
  70
    32
  0
VERTEX
  8
0
  5
2F75
 10
-37.9601
 20
124.929
 30
-2.77160e-14
  70
    32
  0
VERTEX
  8
0
  5
2F76
 10
-37.9621
 20
124.940
 30
-2.77177e-14
  70
    32
  0
VERTEX
  8
0
  5
2F77
 10
-37.9640
 20
124.952
 30
-2.77194e-14
  70
    32
  0
VERTEX
  8
0
  5
2F78
 10
-37.9659
 20
124.963
 30
-2.77212e-14
  70
    32
  0
VERTEX
  8
0
  5
2F79
 10
-37.9678
 20
124.974
 30
-2.77229e-14
  70
    32
  0
VERTEX
  8
0
  5
2F7A
 10
-37.9696
 20
124.986
 30
-2.77247e-14
  70
    32
  0
VERTEX
  8
0
  5
2F7B
 10
-37.9713
 20
124.997
 30
-2.77265e-14
  70
    32
  0
VERTEX
  8
0
  5
2F7C
 10
-37.9730
 20
125.009
 30
-2.77284e-14
  70
    32
  0
VERTEX
  8
0
  5
2F7D
 10
-37.9747
 20
125.020
 30
-2.77302e-14
  70
    32
  0
VERTEX
  8
0
  5
2F7E
 10
-37.9763
 20
125.031
 30
-2.77321e-14
  70
    32
  0
VERTEX
  8
0
  5
2F7F
 10
-37.9778
 20
125.043
 30
-2.77340e-14
  70
    32
  0
VERTEX
  8
0
  5
2F80
 10
-37.9793
 20
125.054
 30
-2.77360e-14
  70
    32
  0
VERTEX
  8
0
  5
2F81
 10
-37.9807
 20
125.066
 30
-2.77380e-14
  70
    32
  0
VERTEX
  8
0
  5
2F82
 10
-37.9821
 20
125.078
 30
-2.77400e-14
  70
    32
  0
VERTEX
  8
0
  5
2F83
 10
-37.9834
 20
125.089
 30
-2.77420e-14
  70
    32
  0
VERTEX
  8
0
  5
2F84
 10
-37.9847
 20
125.101
 30
-2.77441e-14
  70
    32
  0
VERTEX
  8
0
  5
2F85
 10
-37.9860
 20
125.112
 30
-2.77462e-14
  70
    32
  0
VERTEX
  8
0
  5
2F86
 10
-37.9871
 20
125.124
 30
-2.77484e-14
  70
    32
  0
VERTEX
  8
0
  5
2F87
 10
-37.9883
 20
125.136
 30
-2.77506e-14
  70
    32
  0
VERTEX
  8
0
  5
2F88
 10
-37.9893
 20
125.147
 30
-2.77529e-14
  70
    32
  0
VERTEX
  8
0
  5
2F89
 10
-37.9904
 20
125.159
 30
-2.77552e-14
  70
    32
  0
VERTEX
  8
0
  5
2F8A
 10
-37.9913
 20
125.171
 30
-2.77575e-14
  70
    32
  0
VERTEX
  8
0
  5
2F8B
 10
-37.9923
 20
125.183
 30
-2.77599e-14
  70
    32
  0
VERTEX
  8
0
  5
2F8C
 10
-37.9931
 20
125.195
 30
-2.77624e-14
  70
    32
  0
VERTEX
  8
0
  5
2F8D
 10
-37.9939
 20
125.207
 30
-2.77649e-14
  70
    32
  0
VERTEX
  8
0
  5
2F8E
 10
-37.9947
 20
125.219
 30
-2.77674e-14
  70
    32
  0
VERTEX
  8
0
  5
2F8F
 10
-37.9954
 20
125.231
 30
-2.77700e-14
  70
    32
  0
VERTEX
  8
0
  5
2F90
 10
-37.9961
 20
125.243
 30
-2.77727e-14
  70
    32
  0
VERTEX
  8
0
  5
2F91
 10
-37.9967
 20
125.255
 30
-2.77754e-14
  70
    32
  0
VERTEX
  8
0
  5
2F92
 10
-37.9973
 20
125.267
 30
-2.77782e-14
  70
    32
  0
VERTEX
  8
0
  5
2F93
 10
-37.9978
 20
125.279
 30
-2.77811e-14
  70
    32
  0
VERTEX
  8
0
  5
2F94
 10
-37.9982
 20
125.291
 30
-2.77840e-14
  70
    32
  0
VERTEX
  8
0
  5
2F95
 10
-37.9986
 20
125.303
 30
-2.77870e-14
  70
    32
  0
VERTEX
  8
0
  5
2F96
 10
-37.9990
 20
125.315
 30
-2.77900e-14
  70
    32
  0
VERTEX
  8
0
  5
2F97
 10
-37.9993
 20
125.328
 30
-2.77931e-14
  70
    32
  0
VERTEX
  8
0
  5
2F98
 10
-37.9995
 20
125.340
 30
-2.77963e-14
  70
    32
  0
VERTEX
  8
0
  5
2F99
 10
-37.9997
 20
125.353
 30
-2.77984e-14
  70
    32
  0
VERTEX
  8
0
  5
2F9A
 10
-37.9999
 20
125.365
 30
-2.77995e-14
  70
    32
  0
VERTEX
  8
0
  5
2F9B
 10
-38.0000
 20
125.377
 30
-2.77999e-14
  70
    32
  0
VERTEX
  8
0
  5
2F9C
 10
-38.0000
 20
125.390
 30
-2.78000e-14
  70
    32
  0
SEQEND
  8
0
  5
2F9D
  0
POLYLINE
  8
0
  5
2F9E
  62
1
  66
     1
 10
0.000000
 20
0.000000
 30
0.000000
  70
     8
  0
VERTEX
  8
0
  5
2F9F
 10
34.9000
 20
117.390
 30
-2.61000e-14
  70
    32
  0
VERTEX
  8
0
  5
2FA0
 10
34.9001
 20
117.421
 30
-2.61070e-14
  70
    32
  0
VERTEX
  8
0
  5
2FA1
 10
34.9002
 20
117.452
 30
-2.61139e-14
  70
    32
  0
VERTEX
  8
0
  5
2FA2
 10
34.9005
 20
117.482
 30
-2.61208e-14
  70
    32
  0
VERTEX
  8
0
  5
2FA3
 10
34.9009
 20
117.513
 30
-2.61276e-14
  70
    32
  0
VERTEX
  8
0
  5
2FA4
 10
34.9015
 20
117.544
 30
-2.61342e-14
  70
    32
  0
VERTEX
  8
0
  5
2FA5
 10
34.9021
 20
117.574
 30
-2.61409e-14
  70
    32
  0
VERTEX
  8
0
  5
2FA6
 10
34.9029
 20
117.605
 30
-2.61474e-14
  70
    32
  0
VERTEX
  8
0
  5
2FA7
 10
34.9038
 20
117.635
 30
-2.61539e-14
  70
    32
  0
VERTEX
  8
0
  5
2FA8
 10
34.9047
 20
117.665
 30
-2.61603e-14
  70
    32
  0
VERTEX
  8
0
  5
2FA9
 10
34.9058
 20
117.695
 30
-2.61667e-14
  70
    32
  0
VERTEX
  8
0
  5
2FAA
 10
34.9071
 20
117.726
 30
-2.61729e-14
  70
    32
  0
VERTEX
  8
0
  5
2FAB
 10
34.9084
 20
117.756
 30
-2.61792e-14
  70
    32
  0
VERTEX
  8
0
  5
2FAC
 10
34.9098
 20
117.786
 30
-2.61853e-14
  70
    32
  0
VERTEX
  8
0
  5
2FAD
 10
34.9114
 20
117.816
 30
-2.61914e-14
  70
    32
  0
VERTEX
  8
0
  5
2FAE
 10
34.9130
 20
117.846
 30
-2.61975e-14
  70
    32
  0
VERTEX
  8
0
  5
2FAF
 10
34.9148
 20
117.876
 30
-2.62035e-14
  70
    32
  0
VERTEX
  8
0
  5
2FB0
 10
34.9167
 20
117.905
 30
-2.62094e-14
  70
    32
  0
VERTEX
  8
0
  5
2FB1
 10
34.9187
 20
117.935
 30
-2.62153e-14
  70
    32
  0
VERTEX
  8
0
  5
2FB2
 10
34.9208
 20
117.965
 30
-2.62211e-14
  70
    32
  0
VERTEX
  8
0
  5
2FB3
 10
34.9230
 20
117.994
 30
-2.62269e-14
  70
    32
  0
VERTEX
  8
0
  5
2FB4
 10
34.9253
 20
118.024
 30
-2.62327e-14
  70
    32
  0
VERTEX
  8
0
  5
2FB5
 10
34.9277
 20
118.053
 30
-2.62384e-14
  70
    32
  0
VERTEX
  8
0
  5
2FB6
 10
34.9303
 20
118.083
 30
-2.62441e-14
  70
    32
  0
VERTEX
  8
0
  5
2FB7
 10
34.9329
 20
118.112
 30
-2.62497e-14
  70
    32
  0
VERTEX
  8
0
  5
2FB8
 10
34.9357
 20
118.141
 30
-2.62553e-14
  70
    32
  0
VERTEX
  8
0
  5
2FB9
 10
34.9385
 20
118.171
 30
-2.62608e-14
  70
    32
  0
VERTEX
  8
0
  5
2FBA
 10
34.9415
 20
118.200
 30
-2.62664e-14
  70
    32
  0
VERTEX
  8
0
  5
2FBB
 10
34.9445
 20
118.229
 30
-2.62718e-14
  70
    32
  0
VERTEX
  8
0
  5
2FBC
 10
34.9477
 20
118.258
 30
-2.62773e-14
  70
    32
  0
VERTEX
  8
0
  5
2FBD
 10
34.9509
 20
118.287
 30
-2.62827e-14
  70
    32
  0
VERTEX
  8
0
  5
2FBE
 10
34.9543
 20
118.315
 30
-2.62881e-14
  70
    32
  0
VERTEX
  8
0
  5
2FBF
 10
34.9577
 20
118.344
 30
-2.62935e-14
  70
    32
  0
VERTEX
  8
0
  5
2FC0
 10
34.9613
 20
118.373
 30
-2.62989e-14
  70
    32
  0
VERTEX
  8
0
  5
2FC1
 10
34.9650
 20
118.402
 30
-2.63042e-14
  70
    32
  0
VERTEX
  8
0
  5
2FC2
 10
34.9687
 20
118.430
 30
-2.63095e-14
  70
    32
  0
VERTEX
  8
0
  5
2FC3
 10
34.9726
 20
118.459
 30
-2.63149e-14
  70
    32
  0
VERTEX
  8
0
  5
2FC4
 10
34.9766
 20
118.487
 30
-2.63201e-14
  70
    32
  0
VERTEX
  8
0
  5
2FC5
 10
34.9806
 20
118.515
 30
-2.63254e-14
  70
    32
  0
VERTEX
  8
0
  5
2FC6
 10
34.9848
 20
118.544
 30
-2.63307e-14
  70
    32
  0
VERTEX
  8
0
  5
2FC7
 10
34.9890
 20
118.572
 30
-2.63359e-14
  70
    32
  0
VERTEX
  8
0
  5
2FC8
 10
34.9934
 20
118.600
 30
-2.63412e-14
  70
    32
  0
VERTEX
  8
0
  5
2FC9
 10
34.9978
 20
118.628
 30
-2.63464e-14
  70
    32
  0
VERTEX
  8
0
  5
2FCA
 10
35.0024
 20
118.656
 30
-2.63517e-14
  70
    32
  0
VERTEX
  8
0
  5
2FCB
 10
35.0070
 20
118.684
 30
-2.63569e-14
  70
    32
  0
VERTEX
  8
0
  5
2FCC
 10
35.0117
 20
118.712
 30
-2.63622e-14
  70
    32
  0
VERTEX
  8
0
  5
2FCD
 10
35.0166
 20
118.740
 30
-2.63674e-14
  70
    32
  0
VERTEX
  8
0
  5
2FCE
 10
35.0215
 20
118.768
 30
-2.63727e-14
  70
    32
  0
VERTEX
  8
0
  5
2FCF
 10
35.0265
 20
118.795
 30
-2.63779e-14
  70
    32
  0
VERTEX
  8
0
  5
2FD0
 10
35.0316
 20
118.823
 30
-2.63832e-14
  70
    32
  0
VERTEX
  8
0
  5
2FD1
 10
35.0368
 20
118.850
 30
-2.63885e-14
  70
    32
  0
VERTEX
  8
0
  5
2FD2
 10
35.0421
 20
118.878
 30
-2.63938e-14
  70
    32
  0
VERTEX
  8
0
  5
2FD3
 10
35.0474
 20
118.905
 30
-2.63991e-14
  70
    32
  0
VERTEX
  8
0
  5
2FD4
 10
35.0529
 20
118.932
 30
-2.64044e-14
  70
    32
  0
VERTEX
  8
0
  5
2FD5
 10
35.0585
 20
118.960
 30
-2.64097e-14
  70
    32
  0
VERTEX
  8
0
  5
2FD6
 10
35.0641
 20
118.987
 30
-2.64151e-14
  70
    32
  0
VERTEX
  8
0
  5
2FD7
 10
35.0698
 20
119.014
 30
-2.64204e-14
  70
    32
  0
VERTEX
  8
0
  5
2FD8
 10
35.0756
 20
119.041
 30
-2.64258e-14
  70
    32
  0
VERTEX
  8
0
  5
2FD9
 10
35.0816
 20
119.068
 30
-2.64313e-14
  70
    32
  0
VERTEX
  8
0
  5
2FDA
 10
35.0875
 20
119.095
 30
-2.64367e-14
  70
    32
  0
VERTEX
  8
0
  5
2FDB
 10
35.0936
 20
119.121
 30
-2.64422e-14
  70
    32
  0
VERTEX
  8
0
  5
2FDC
 10
35.0998
 20
119.148
 30
-2.64477e-14
  70
    32
  0
VERTEX
  8
0
  5
2FDD
 10
35.1060
 20
119.175
 30
-2.64532e-14
  70
    32
  0
VERTEX
  8
0
  5
2FDE
 10
35.1124
 20
119.201
 30
-2.64588e-14
  70
    32
  0
VERTEX
  8
0
  5
2FDF
 10
35.1188
 20
119.228
 30
-2.64644e-14
  70
    32
  0
VERTEX
  8
0
  5
2FE0
 10
35.1253
 20
119.254
 30
-2.64701e-14
  70
    32
  0
VERTEX
  8
0
  5
2FE1
 10
35.1318
 20
119.281
 30
-2.64758e-14
  70
    32
  0
VERTEX
  8
0
  5
2FE2
 10
35.1385
 20
119.307
 30
-2.64815e-14
  70
    32
  0
VERTEX
  8
0
  5
2FE3
 10
35.1452
 20
119.333
 30
-2.64873e-14
  70
    32
  0
VERTEX
  8
0
  5
2FE4
 10
35.1521
 20
119.359
 30
-2.64931e-14
  70
    32
  0
VERTEX
  8
0
  5
2FE5
 10
35.1590
 20
119.385
 30
-2.64990e-14
  70
    32
  0
VERTEX
  8
0
  5
2FE6
 10
35.1659
 20
119.411
 30
-2.65050e-14
  70
    32
  0
VERTEX
  8
0
  5
2FE7
 10
35.1730
 20
119.437
 30
-2.65109e-14
  70
    32
  0
VERTEX
  8
0
  5
2FE8
 10
35.1801
 20
119.463
 30
-2.65170e-14
  70
    32
  0
VERTEX
  8
0
  5
2FE9
 10
35.1874
 20
119.489
 30
-2.65231e-14
  70
    32
  0
VERTEX
  8
0
  5
2FEA
 10
35.1947
 20
119.514
 30
-2.65292e-14
  70
    32
  0
VERTEX
  8
0
  5
2FEB
 10
35.2020
 20
119.540
 30
-2.65354e-14
  70
    32
  0
VERTEX
  8
0
  5
2FEC
 10
35.2095
 20
119.566
 30
-2.65417e-14
  70
    32
  0
VERTEX
  8
0
  5
2FED
 10
35.2170
 20
119.591
 30
-2.65480e-14
  70
    32
  0
VERTEX
  8
0
  5
2FEE
 10
35.2246
 20
119.616
 30
-2.65544e-14
  70
    32
  0
VERTEX
  8
0
  5
2FEF
 10
35.2323
 20
119.642
 30
-2.65609e-14
  70
    32
  0
VERTEX
  8
0
  5
2FF0
 10
35.2400
 20
119.667
 30
-2.65674e-14
  70
    32
  0
VERTEX
  8
0
  5
2FF1
 10
35.2478
 20
119.692
 30
-2.65740e-14
  70
    32
  0
VERTEX
  8
0
  5
2FF2
 10
35.2557
 20
119.717
 30
-2.65807e-14
  70
    32
  0
VERTEX
  8
0
  5
2FF3
 10
35.2637
 20
119.742
 30
-2.65874e-14
  70
    32
  0
VERTEX
  8
0
  5
2FF4
 10
35.2717
 20
119.767
 30
-2.65943e-14
  70
    32
  0
VERTEX
  8
0
  5
2FF5
 10
35.2798
 20
119.792
 30
-2.66011e-14
  70
    32
  0
VERTEX
  8
0
  5
2FF6
 10
35.2880
 20
119.817
 30
-2.66079e-14
  70
    32
  0
VERTEX
  8
0
  5
2FF7
 10
35.2962
 20
119.841
 30
-2.66146e-14
  70
    32
  0
VERTEX
  8
0
  5
2FF8
 10
35.3045
 20
119.866
 30
-2.66212e-14
  70
    32
  0
VERTEX
  8
0
  5
2FF9
 10
35.3129
 20
119.890
 30
-2.66277e-14
  70
    32
  0
VERTEX
  8
0
  5
2FFA
 10
35.3213
 20
119.915
 30
-2.66342e-14
  70
    32
  0
VERTEX
  8
0
  5
2FFB
 10
35.3298
 20
119.939
 30
-2.66406e-14
  70
    32
  0
VERTEX
  8
0
  5
2FFC
 10
35.3384
 20
119.964
 30
-2.66469e-14
  70
    32
  0
VERTEX
  8
0
  5
2FFD
 10
35.3470
 20
119.988
 30
-2.66531e-14
  70
    32
  0
VERTEX
  8
0
  5
2FFE
 10
35.3557
 20
120.012
 30
-2.66593e-14
  70
    32
  0
VERTEX
  8
0
  5
2FFF
 10
35.3644
 20
120.036
 30
-2.66654e-14
  70
    32
  0
VERTEX
  8
0
  5
3000
 10
35.3732
 20
120.060
 30
-2.66715e-14
  70
    32
  0
VERTEX
  8
0
  5
3001
 10
35.3821
 20
120.084
 30
-2.66774e-14
  70
    32
  0
VERTEX
  8
0
  5
3002
 10
35.3910
 20
120.108
 30
-2.66833e-14
  70
    32
  0
VERTEX
  8
0
  5
3003
 10
35.4000
 20
120.131
 30
-2.66892e-14
  70
    32
  0
VERTEX
  8
0
  5
3004
 10
35.4090
 20
120.155
 30
-2.66949e-14
  70
    32
  0
VERTEX
  8
0
  5
3005
 10
35.4181
 20
120.179
 30
-2.67006e-14
  70
    32
  0
VERTEX
  8
0
  5
3006
 10
35.4272
 20
120.202
 30
-2.67063e-14
  70
    32
  0
VERTEX
  8
0
  5
3007
 10
35.4364
 20
120.226
 30
-2.67119e-14
  70
    32
  0
VERTEX
  8
0
  5
3008
 10
35.4456
 20
120.249
 30
-2.67174e-14
  70
    32
  0
VERTEX
  8
0
  5
3009
 10
35.4549
 20
120.272
 30
-2.67228e-14
  70
    32
  0
VERTEX
  8
0
  5
300A
 10
35.4643
 20
120.296
 30
-2.67282e-14
  70
    32
  0
VERTEX
  8
0
  5
300B
 10
35.4737
 20
120.319
 30
-2.67335e-14
  70
    32
  0
VERTEX
  8
0
  5
300C
 10
35.4832
 20
120.342
 30
-2.67388e-14
  70
    32
  0
VERTEX
  8
0
  5
300D
 10
35.4927
 20
120.365
 30
-2.67440e-14
  70
    32
  0
VERTEX
  8
0
  5
300E
 10
35.5022
 20
120.388
 30
-2.67492e-14
  70
    32
  0
VERTEX
  8
0
  5
300F
 10
35.5118
 20
120.411
 30
-2.67543e-14
  70
    32
  0
VERTEX
  8
0
  5
3010
 10
35.5215
 20
120.434
 30
-2.67594e-14
  70
    32
  0
VERTEX
  8
0
  5
3011
 10
35.5311
 20
120.456
 30
-2.67644e-14
  70
    32
  0
VERTEX
  8
0
  5
3012
 10
35.5409
 20
120.479
 30
-2.67693e-14
  70
    32
  0
VERTEX
  8
0
  5
3013
 10
35.5507
 20
120.502
 30
-2.67742e-14
  70
    32
  0
VERTEX
  8
0
  5
3014
 10
35.5605
 20
120.524
 30
-2.67790e-14
  70
    32
  0
VERTEX
  8
0
  5
3015
 10
35.5704
 20
120.546
 30
-2.67838e-14
  70
    32
  0
VERTEX
  8
0
  5
3016
 10
35.5803
 20
120.569
 30
-2.67886e-14
  70
    32
  0
VERTEX
  8
0
  5
3017
 10
35.5903
 20
120.591
 30
-2.67932e-14
  70
    32
  0
VERTEX
  8
0
  5
3018
 10
35.6003
 20
120.613
 30
-2.67979e-14
  70
    32
  0
VERTEX
  8
0
  5
3019
 10
35.6103
 20
120.635
 30
-2.68025e-14
  70
    32
  0
VERTEX
  8
0
  5
301A
 10
35.6204
 20
120.658
 30
-2.68070e-14
  70
    32
  0
VERTEX
  8
0
  5
301B
 10
35.6305
 20
120.680
 30
-2.68115e-14
  70
    32
  0
VERTEX
  8
0
  5
301C
 10
35.6407
 20
120.701
 30
-2.68160e-14
  70
    32
  0
VERTEX
  8
0
  5
301D
 10
35.6509
 20
120.723
 30
-2.68204e-14
  70
    32
  0
VERTEX
  8
0
  5
301E
 10
35.6611
 20
120.745
 30
-2.68248e-14
  70
    32
  0
VERTEX
  8
0
  5
301F
 10
35.6714
 20
120.767
 30
-2.68291e-14
  70
    32
  0
VERTEX
  8
0
  5
3020
 10
35.6817
 20
120.788
 30
-2.68334e-14
  70
    32
  0
VERTEX
  8
0
  5
3021
 10
35.6921
 20
120.810
 30
-2.68376e-14
  70
    32
  0
VERTEX
  8
0
  5
3022
 10
35.7024
 20
120.832
 30
-2.68418e-14
  70
    32
  0
VERTEX
  8
0
  5
3023
 10
35.7129
 20
120.853
 30
-2.68460e-14
  70
    32
  0
VERTEX
  8
0
  5
3024
 10
35.7233
 20
120.874
 30
-2.68502e-14
  70
    32
  0
VERTEX
  8
0
  5
3025
 10
35.7338
 20
120.896
 30
-2.68542e-14
  70
    32
  0
VERTEX
  8
0
  5
3026
 10
35.7443
 20
120.917
 30
-2.68583e-14
  70
    32
  0
VERTEX
  8
0
  5
3027
 10
35.7548
 20
120.938
 30
-2.68623e-14
  70
    32
  0
VERTEX
  8
0
  5
3028
 10
35.7654
 20
120.959
 30
-2.68663e-14
  70
    32
  0
VERTEX
  8
0
  5
3029
 10
35.7760
 20
120.980
 30
-2.68703e-14
  70
    32
  0
VERTEX
  8
0
  5
302A
 10
35.7867
 20
121.001
 30
-2.68742e-14
  70
    32
  0
VERTEX
  8
0
  5
302B
 10
35.7973
 20
121.022
 30
-2.68781e-14
  70
    32
  0
VERTEX
  8
0
  5
302C
 10
35.8080
 20
121.043
 30
-2.68820e-14
  70
    32
  0
VERTEX
  8
0
  5
302D
 10
35.8187
 20
121.064
 30
-2.68858e-14
  70
    32
  0
VERTEX
  8
0
  5
302E
 10
35.8295
 20
121.084
 30
-2.68896e-14
  70
    32
  0
VERTEX
  8
0
  5
302F
 10
35.8402
 20
121.105
 30
-2.68934e-14
  70
    32
  0
VERTEX
  8
0
  5
3030
 10
35.8510
 20
121.125
 30
-2.68972e-14
  70
    32
  0
VERTEX
  8
0
  5
3031
 10
35.8618
 20
121.146
 30
-2.69009e-14
  70
    32
  0
VERTEX
  8
0
  5
3032
 10
35.8727
 20
121.166
 30
-2.69046e-14
  70
    32
  0
VERTEX
  8
0
  5
3033
 10
35.8835
 20
121.187
 30
-2.69083e-14
  70
    32
  0
VERTEX
  8
0
  5
3034
 10
35.8944
 20
121.207
 30
-2.69119e-14
  70
    32
  0
VERTEX
  8
0
  5
3035
 10
35.9053
 20
121.227
 30
-2.69155e-14
  70
    32
  0
VERTEX
  8
0
  5
3036
 10
35.9162
 20
121.247
 30
-2.69192e-14
  70
    32
  0
VERTEX
  8
0
  5
3037
 10
35.9272
 20
121.267
 30
-2.69227e-14
  70
    32
  0
VERTEX
  8
0
  5
3038
 10
35.9381
 20
121.287
 30
-2.69263e-14
  70
    32
  0
VERTEX
  8
0
  5
3039
 10
35.9491
 20
121.307
 30
-2.69299e-14
  70
    32
  0
VERTEX
  8
0
  5
303A
 10
35.9601
 20
121.327
 30
-2.69334e-14
  70
    32
  0
VERTEX
  8
0
  5
303B
 10
35.9711
 20
121.347
 30
-2.69369e-14
  70
    32
  0
VERTEX
  8
0
  5
303C
 10
35.9822
 20
121.367
 30
-2.69404e-14
  70
    32
  0
VERTEX
  8
0
  5
303D
 10
35.9932
 20
121.387
 30
-2.69439e-14
  70
    32
  0
VERTEX
  8
0
  5
303E
 10
36.0043
 20
121.406
 30
-2.69474e-14
  70
    32
  0
VERTEX
  8
0
  5
303F
 10
36.0153
 20
121.426
 30
-2.69508e-14
  70
    32
  0
VERTEX
  8
0
  5
3040
 10
36.0264
 20
121.445
 30
-2.69543e-14
  70
    32
  0
VERTEX
  8
0
  5
3041
 10
36.0375
 20
121.465
 30
-2.69577e-14
  70
    32
  0
VERTEX
  8
0
  5
3042
 10
36.0486
 20
121.484
 30
-2.69611e-14
  70
    32
  0
VERTEX
  8
0
  5
3043
 10
36.0597
 20
121.503
 30
-2.69645e-14
  70
    32
  0
VERTEX
  8
0
  5
3044
 10
36.0709
 20
121.523
 30
-2.69679e-14
  70
    32
  0
VERTEX
  8
0
  5
3045
 10
36.0820
 20
121.542
 30
-2.69713e-14
  70
    32
  0
VERTEX
  8
0
  5
3046
 10
36.0932
 20
121.561
 30
-2.69747e-14
  70
    32
  0
VERTEX
  8
0
  5
3047
 10
36.1043
 20
121.580
 30
-2.69781e-14
  70
    32
  0
VERTEX
  8
0
  5
3048
 10
36.1155
 20
121.599
 30
-2.69814e-14
  70
    32
  0
VERTEX
  8
0
  5
3049
 10
36.1267
 20
121.618
 30
-2.69848e-14
  70
    32
  0
VERTEX
  8
0
  5
304A
 10
36.1378
 20
121.637
 30
-2.69882e-14
  70
    32
  0
VERTEX
  8
0
  5
304B
 10
36.1490
 20
121.656
 30
-2.69915e-14
  70
    32
  0
VERTEX
  8
0
  5
304C
 10
36.1602
 20
121.674
 30
-2.69949e-14
  70
    32
  0
VERTEX
  8
0
  5
304D
 10
36.1714
 20
121.693
 30
-2.69982e-14
  70
    32
  0
VERTEX
  8
0
  5
304E
 10
36.1826
 20
121.712
 30
-2.70016e-14
  70
    32
  0
VERTEX
  8
0
  5
304F
 10
36.1938
 20
121.730
 30
-2.70050e-14
  70
    32
  0
VERTEX
  8
0
  5
3050
 10
36.2050
 20
121.749
 30
-2.70085e-14
  70
    32
  0
VERTEX
  8
0
  5
3051
 10
36.2161
 20
121.767
 30
-2.70121e-14
  70
    32
  0
VERTEX
  8
0
  5
3052
 10
36.2273
 20
121.786
 30
-2.70157e-14
  70
    32
  0
VERTEX
  8
0
  5
3053
 10
36.2385
 20
121.804
 30
-2.70194e-14
  70
    32
  0
VERTEX
  8
0
  5
3054
 10
36.2497
 20
121.822
 30
-2.70232e-14
  70
    32
  0
VERTEX
  8
0
  5
3055
 10
36.2609
 20
121.840
 30
-2.70270e-14
  70
    32
  0
VERTEX
  8
0
  5
3056
 10
36.2721
 20
121.859
 30
-2.70309e-14
  70
    32
  0
VERTEX
  8
0
  5
3057
 10
36.2833
 20
121.877
 30
-2.70349e-14
  70
    32
  0
VERTEX
  8
0
  5
3058
 10
36.2945
 20
121.895
 30
-2.70389e-14
  70
    32
  0
VERTEX
  8
0
  5
3059
 10
36.3057
 20
121.913
 30
-2.70429e-14
  70
    32
  0
VERTEX
  8
0
  5
305A
 10
36.3168
 20
121.931
 30
-2.70470e-14
  70
    32
  0
VERTEX
  8
0
  5
305B
 10
36.3280
 20
121.949
 30
-2.70512e-14
  70
    32
  0
VERTEX
  8
0
  5
305C
 10
36.3392
 20
121.966
 30
-2.70554e-14
  70
    32
  0
VERTEX
  8
0
  5
305D
 10
36.3504
 20
121.984
 30
-2.70596e-14
  70
    32
  0
VERTEX
  8
0
  5
305E
 10
36.3615
 20
122.002
 30
-2.70639e-14
  70
    32
  0
VERTEX
  8
0
  5
305F
 10
36.3727
 20
122.019
 30
-2.70682e-14
  70
    32
  0
VERTEX
  8
0
  5
3060
 10
36.3838
 20
122.037
 30
-2.70726e-14
  70
    32
  0
VERTEX
  8
0
  5
3061
 10
36.3950
 20
122.055
 30
-2.70770e-14
  70
    32
  0
VERTEX
  8
0
  5
3062
 10
36.4061
 20
122.072
 30
-2.70815e-14
  70
    32
  0
VERTEX
  8
0
  5
3063
 10
36.4172
 20
122.090
 30
-2.70859e-14
  70
    32
  0
VERTEX
  8
0
  5
3064
 10
36.4283
 20
122.107
 30
-2.70904e-14
  70
    32
  0
VERTEX
  8
0
  5
3065
 10
36.4394
 20
122.124
 30
-2.70949e-14
  70
    32
  0
VERTEX
  8
0
  5
3066
 10
36.4505
 20
122.142
 30
-2.70995e-14
  70
    32
  0
VERTEX
  8
0
  5
3067
 10
36.4616
 20
122.159
 30
-2.71041e-14
  70
    32
  0
VERTEX
  8
0
  5
3068
 10
36.4727
 20
122.176
 30
-2.71087e-14
  70
    32
  0
VERTEX
  8
0
  5
3069
 10
36.4837
 20
122.193
 30
-2.71133e-14
  70
    32
  0
VERTEX
  8
0
  5
306A
 10
36.4948
 20
122.210
 30
-2.71179e-14
  70
    32
  0
VERTEX
  8
0
  5
306B
 10
36.5058
 20
122.227
 30
-2.71226e-14
  70
    32
  0
VERTEX
  8
0
  5
306C
 10
36.5169
 20
122.244
 30
-2.71272e-14
  70
    32
  0
VERTEX
  8
0
  5
306D
 10
36.5279
 20
122.261
 30
-2.71319e-14
  70
    32
  0
VERTEX
  8
0
  5
306E
 10
36.5389
 20
122.278
 30
-2.71366e-14
  70
    32
  0
VERTEX
  8
0
  5
306F
 10
36.5499
 20
122.295
 30
-2.71413e-14
  70
    32
  0
VERTEX
  8
0
  5
3070
 10
36.5608
 20
122.312
 30
-2.71460e-14
  70
    32
  0
VERTEX
  8
0
  5
3071
 10
36.5718
 20
122.328
 30
-2.71507e-14
  70
    32
  0
VERTEX
  8
0
  5
3072
 10
36.5827
 20
122.345
 30
-2.71554e-14
  70
    32
  0
VERTEX
  8
0
  5
3073
 10
36.5937
 20
122.362
 30
-2.71601e-14
  70
    32
  0
VERTEX
  8
0
  5
3074
 10
36.6046
 20
122.378
 30
-2.71648e-14
  70
    32
  0
VERTEX
  8
0
  5
3075
 10
36.6154
 20
122.395
 30
-2.71694e-14
  70
    32
  0
VERTEX
  8
0
  5
3076
 10
36.6263
 20
122.411
 30
-2.71741e-14
  70
    32
  0
VERTEX
  8
0
  5
3077
 10
36.6372
 20
122.428
 30
-2.71788e-14
  70
    32
  0
VERTEX
  8
0
  5
3078
 10
36.6480
 20
122.444
 30
-2.71835e-14
  70
    32
  0
VERTEX
  8
0
  5
3079
 10
36.6588
 20
122.460
 30
-2.71881e-14
  70
    32
  0
VERTEX
  8
0
  5
307A
 10
36.6696
 20
122.477
 30
-2.71927e-14
  70
    32
  0
VERTEX
  8
0
  5
307B
 10
36.6804
 20
122.493
 30
-2.71973e-14
  70
    32
  0
VERTEX
  8
0
  5
307C
 10
36.6912
 20
122.509
 30
-2.72019e-14
  70
    32
  0
VERTEX
  8
0
  5
307D
 10
36.7019
 20
122.525
 30
-2.72065e-14
  70
    32
  0
VERTEX
  8
0
  5
307E
 10
36.7126
 20
122.541
 30
-2.72110e-14
  70
    32
  0
VERTEX
  8
0
  5
307F
 10
36.7233
 20
122.557
 30
-2.72155e-14
  70
    32
  0
VERTEX
  8
0
  5
3080
 10
36.7340
 20
122.573
 30
-2.72200e-14
  70
    32
  0
VERTEX
  8
0
  5
3081
 10
36.7446
 20
122.589
 30
-2.72245e-14
  70
    32
  0
VERTEX
  8
0
  5
3082
 10
36.7552
 20
122.605
 30
-2.72289e-14
  70
    32
  0
VERTEX
  8
0
  5
3083
 10
36.7658
 20
122.621
 30
-2.72333e-14
  70
    32
  0
VERTEX
  8
0
  5
3084
 10
36.7764
 20
122.637
 30
-2.72376e-14
  70
    32
  0
VERTEX
  8
0
  5
3085
 10
36.7870
 20
122.653
 30
-2.72419e-14
  70
    32
  0
VERTEX
  8
0
  5
3086
 10
36.7975
 20
122.668
 30
-2.72462e-14
  70
    32
  0
VERTEX
  8
0
  5
3087
 10
36.8080
 20
122.684
 30
-2.72504e-14
  70
    32
  0
VERTEX
  8
0
  5
3088
 10
36.8185
 20
122.700
 30
-2.72546e-14
  70
    32
  0
VERTEX
  8
0
  5
3089
 10
36.8289
 20
122.715
 30
-2.72588e-14
  70
    32
  0
VERTEX
  8
0
  5
308A
 10
36.8393
 20
122.731
 30
-2.72628e-14
  70
    32
  0
VERTEX
  8
0
  5
308B
 10
36.8497
 20
122.746
 30
-2.72669e-14
  70
    32
  0
VERTEX
  8
0
  5
308C
 10
36.8601
 20
122.762
 30
-2.72708e-14
  70
    32
  0
VERTEX
  8
0
  5
308D
 10
36.8704
 20
122.777
 30
-2.72748e-14
  70
    32
  0
VERTEX
  8
0
  5
308E
 10
36.8807
 20
122.793
 30
-2.72786e-14
  70
    32
  0
VERTEX
  8
0
  5
308F
 10
36.8910
 20
122.808
 30
-2.72824e-14
  70
    32
  0
VERTEX
  8
0
  5
3090
 10
36.9012
 20
122.823
 30
-2.72862e-14
  70
    32
  0
VERTEX
  8
0
  5
3091
 10
36.9114
 20
122.838
 30
-2.72898e-14
  70
    32
  0
VERTEX
  8
0
  5
3092
 10
36.9216
 20
122.854
 30
-2.72935e-14
  70
    32
  0
VERTEX
  8
0
  5
3093
 10
36.9318
 20
122.869
 30
-2.72970e-14
  70
    32
  0
VERTEX
  8
0
  5
3094
 10
36.9419
 20
122.884
 30
-2.73005e-14
  70
    32
  0
VERTEX
  8
0
  5
3095
 10
36.9519
 20
122.899
 30
-2.73039e-14
  70
    32
  0
VERTEX
  8
0
  5
3096
 10
36.9620
 20
122.914
 30
-2.73072e-14
  70
    32
  0
VERTEX
  8
0
  5
3097
 10
36.9720
 20
122.929
 30
-2.73104e-14
  70
    32
  0
VERTEX
  8
0
  5
3098
 10
36.9820
 20
122.944
 30
-2.73136e-14
  70
    32
  0
VERTEX
  8
0
  5
3099
 10
36.9919
 20
122.959
 30
-2.73167e-14
  70
    32
  0
VERTEX
  8
0
  5
309A
 10
37.0018
 20
122.974
 30
-2.73197e-14
  70
    32
  0
VERTEX
  8
0
  5
309B
 10
37.0117
 20
122.989
 30
-2.73226e-14
  70
    32
  0
VERTEX
  8
0
  5
309C
 10
37.0216
 20
123.003
 30
-2.73254e-14
  70
    32
  0
VERTEX
  8
0
  5
309D
 10
37.0314
 20
123.018
 30
-2.73281e-14
  70
    32
  0
VERTEX
  8
0
  5
309E
 10
37.0411
 20
123.033
 30
-2.73308e-14
  70
    32
  0
VERTEX
  8
0
  5
309F
 10
37.0508
 20
123.048
 30
-2.73333e-14
  70
    32
  0
VERTEX
  8
0
  5
30A0
 10
37.0605
 20
123.062
 30
-2.73358e-14
  70
    32
  0
VERTEX
  8
0
  5
30A1
 10
37.0702
 20
123.077
 30
-2.73382e-14
  70
    32
  0
VERTEX
  8
0
  5
30A2
 10
37.0798
 20
123.091
 30
-2.73404e-14
  70
    32
  0
VERTEX
  8
0
  5
30A3
 10
37.0893
 20
123.106
 30
-2.73426e-14
  70
    32
  0
VERTEX
  8
0
  5
30A4
 10
37.0989
 20
123.120
 30
-2.73446e-14
  70
    32
  0
VERTEX
  8
0
  5
30A5
 10
37.1084
 20
123.135
 30
-2.73466e-14
  70
    32
  0
VERTEX
  8
0
  5
30A6
 10
37.1178
 20
123.149
 30
-2.73484e-14
  70
    32
  0
VERTEX
  8
0
  5
30A7
 10
37.1272
 20
123.164
 30
-2.73501e-14
  70
    32
  0
VERTEX
  8
0
  5
30A8
 10
37.1366
 20
123.178
 30
-2.73518e-14
  70
    32
  0
VERTEX
  8
0
  5
30A9
 10
37.1459
 20
123.192
 30
-2.73536e-14
  70
    32
  0
VERTEX
  8
0
  5
30AA
 10
37.1552
 20
123.207
 30
-2.73553e-14
  70
    32
  0
VERTEX
  8
0
  5
30AB
 10
37.1644
 20
123.221
 30
-2.73571e-14
  70
    32
  0
VERTEX
  8
0
  5
30AC
 10
37.1736
 20
123.235
 30
-2.73590e-14
  70
    32
  0
VERTEX
  8
0
  5
30AD
 10
37.1827
 20
123.249
 30
-2.73609e-14
  70
    32
  0
VERTEX
  8
0
  5
30AE
 10
37.1918
 20
123.263
 30
-2.73628e-14
  70
    32
  0
VERTEX
  8
0
  5
30AF
 10
37.2008
 20
123.277
 30
-2.73647e-14
  70
    32
  0
VERTEX
  8
0
  5
30B0
 10
37.2099
 20
123.292
 30
-2.73667e-14
  70
    32
  0
VERTEX
  8
0
  5
30B1
 10
37.2188
 20
123.306
 30
-2.73687e-14
  70
    32
  0
VERTEX
  8
0
  5
30B2
 10
37.2277
 20
123.319
 30
-2.73708e-14
  70
    32
  0
VERTEX
  8
0
  5
30B3
 10
37.2366
 20
123.333
 30
-2.73729e-14
  70
    32
  0
VERTEX
  8
0
  5
30B4
 10
37.2454
 20
123.347
 30
-2.73750e-14
  70
    32
  0
VERTEX
  8
0
  5
30B5
 10
37.2542
 20
123.361
 30
-2.73771e-14
  70
    32
  0
VERTEX
  8
0
  5
30B6
 10
37.2629
 20
123.375
 30
-2.73793e-14
  70
    32
  0
VERTEX
  8
0
  5
30B7
 10
37.2716
 20
123.389
 30
-2.73815e-14
  70
    32
  0
VERTEX
  8
0
  5
30B8
 10
37.2803
 20
123.403
 30
-2.73838e-14
  70
    32
  0
VERTEX
  8
0
  5
30B9
 10
37.2888
 20
123.416
 30
-2.73861e-14
  70
    32
  0
VERTEX
  8
0
  5
30BA
 10
37.2974
 20
123.430
 30
-2.73884e-14
  70
    32
  0
VERTEX
  8
0
  5
30BB
 10
37.3059
 20
123.444
 30
-2.73907e-14
  70
    32
  0
VERTEX
  8
0
  5
30BC
 10
37.3143
 20
123.457
 30
-2.73930e-14
  70
    32
  0
VERTEX
  8
0
  5
30BD
 10
37.3228
 20
123.471
 30
-2.73954e-14
  70
    32
  0
VERTEX
  8
0
  5
30BE
 10
37.3311
 20
123.484
 30
-2.73979e-14
  70
    32
  0
VERTEX
  8
0
  5
30BF
 10
37.3394
 20
123.498
 30
-2.74003e-14
  70
    32
  0
VERTEX
  8
0
  5
30C0
 10
37.3477
 20
123.511
 30
-2.74028e-14
  70
    32
  0
VERTEX
  8
0
  5
30C1
 10
37.3559
 20
123.525
 30
-2.74053e-14
  70
    32
  0
VERTEX
  8
0
  5
30C2
 10
37.3641
 20
123.538
 30
-2.74078e-14
  70
    32
  0
VERTEX
  8
0
  5
30C3
 10
37.3722
 20
123.552
 30
-2.74104e-14
  70
    32
  0
VERTEX
  8
0
  5
30C4
 10
37.3803
 20
123.565
 30
-2.74129e-14
  70
    32
  0
VERTEX
  8
0
  5
30C5
 10
37.3883
 20
123.578
 30
-2.74155e-14
  70
    32
  0
VERTEX
  8
0
  5
30C6
 10
37.3963
 20
123.592
 30
-2.74182e-14
  70
    32
  0
VERTEX
  8
0
  5
30C7
 10
37.4042
 20
123.605
 30
-2.74208e-14
  70
    32
  0
VERTEX
  8
0
  5
30C8
 10
37.4121
 20
123.618
 30
-2.74235e-14
  70
    32
  0
VERTEX
  8
0
  5
30C9
 10
37.4199
 20
123.631
 30
-2.74262e-14
  70
    32
  0
VERTEX
  8
0
  5
30CA
 10
37.4277
 20
123.644
 30
-2.74289e-14
  70
    32
  0
VERTEX
  8
0
  5
30CB
 10
37.4354
 20
123.657
 30
-2.74317e-14
  70
    32
  0
VERTEX
  8
0
  5
30CC
 10
37.4431
 20
123.671
 30
-2.74344e-14
  70
    32
  0
VERTEX
  8
0
  5
30CD
 10
37.4507
 20
123.684
 30
-2.74372e-14
  70
    32
  0
VERTEX
  8
0
  5
30CE
 10
37.4583
 20
123.697
 30
-2.74400e-14
  70
    32
  0
VERTEX
  8
0
  5
30CF
 10
37.4659
 20
123.710
 30
-2.74429e-14
  70
    32
  0
VERTEX
  8
0
  5
30D0
 10
37.4733
 20
123.723
 30
-2.74457e-14
  70
    32
  0
VERTEX
  8
0
  5
30D1
 10
37.4808
 20
123.735
 30
-2.74486e-14
  70
    32
  0
VERTEX
  8
0
  5
30D2
 10
37.4882
 20
123.748
 30
-2.74515e-14
  70
    32
  0
VERTEX
  8
0
  5
30D3
 10
37.4955
 20
123.761
 30
-2.74544e-14
  70
    32
  0
VERTEX
  8
0
  5
30D4
 10
37.5028
 20
123.774
 30
-2.74574e-14
  70
    32
  0
VERTEX
  8
0
  5
30D5
 10
37.5100
 20
123.787
 30
-2.74603e-14
  70
    32
  0
VERTEX
  8
0
  5
30D6
 10
37.5172
 20
123.800
 30
-2.74633e-14
  70
    32
  0
VERTEX
  8
0
  5
30D7
 10
37.5243
 20
123.812
 30
-2.74663e-14
  70
    32
  0
VERTEX
  8
0
  5
30D8
 10
37.5314
 20
123.825
 30
-2.74693e-14
  70
    32
  0
VERTEX
  8
0
  5
30D9
 10
37.5384
 20
123.838
 30
-2.74723e-14
  70
    32
  0
VERTEX
  8
0
  5
30DA
 10
37.5454
 20
123.850
 30
-2.74753e-14
  70
    32
  0
VERTEX
  8
0
  5
30DB
 10
37.5523
 20
123.863
 30
-2.74784e-14
  70
    32
  0
VERTEX
  8
0
  5
30DC
 10
37.5592
 20
123.876
 30
-2.74815e-14
  70
    32
  0
VERTEX
  8
0
  5
30DD
 10
37.5660
 20
123.888
 30
-2.74846e-14
  70
    32
  0
VERTEX
  8
0
  5
30DE
 10
37.5728
 20
123.901
 30
-2.74877e-14
  70
    32
  0
VERTEX
  8
0
  5
30DF
 10
37.5795
 20
123.913
 30
-2.74908e-14
  70
    32
  0
VERTEX
  8
0
  5
30E0
 10
37.5861
 20
123.926
 30
-2.74939e-14
  70
    32
  0
VERTEX
  8
0
  5
30E1
 10
37.5927
 20
123.938
 30
-2.74970e-14
  70
    32
  0
VERTEX
  8
0
  5
30E2
 10
37.5993
 20
123.950
 30
-2.75002e-14
  70
    32
  0
VERTEX
  8
0
  5
30E3
 10
37.6058
 20
123.963
 30
-2.75034e-14
  70
    32
  0
VERTEX
  8
0
  5
30E4
 10
37.6123
 20
123.975
 30
-2.75065e-14
  70
    32
  0
VERTEX
  8
0
  5
30E5
 10
37.6186
 20
123.988
 30
-2.75097e-14
  70
    32
  0
VERTEX
  8
0
  5
30E6
 10
37.6250
 20
124.000
 30
-2.75129e-14
  70
    32
  0
VERTEX
  8
0
  5
30E7
 10
37.6313
 20
124.012
 30
-2.75162e-14
  70
    32
  0
VERTEX
  8
0
  5
30E8
 10
37.6375
 20
124.024
 30
-2.75194e-14
  70
    32
  0
VERTEX
  8
0
  5
30E9
 10
37.6437
 20
124.037
 30
-2.75226e-14
  70
    32
  0
VERTEX
  8
0
  5
30EA
 10
37.6498
 20
124.049
 30
-2.75259e-14
  70
    32
  0
VERTEX
  8
0
  5
30EB
 10
37.6559
 20
124.061
 30
-2.75291e-14
  70
    32
  0
VERTEX
  8
0
  5
30EC
 10
37.6619
 20
124.073
 30
-2.75324e-14
  70
    32
  0
VERTEX
  8
0
  5
30ED
 10
37.6679
 20
124.085
 30
-2.75357e-14
  70
    32
  0
VERTEX
  8
0
  5
30EE
 10
37.6738
 20
124.097
 30
-2.75389e-14
  70
    32
  0
VERTEX
  8
0
  5
30EF
 10
37.6796
 20
124.109
 30
-2.75422e-14
  70
    32
  0
VERTEX
  8
0
  5
30F0
 10
37.6854
 20
124.121
 30
-2.75455e-14
  70
    32
  0
VERTEX
  8
0
  5
30F1
 10
37.6912
 20
124.133
 30
-2.75488e-14
  70
    32
  0
VERTEX
  8
0
  5
30F2
 10
37.6969
 20
124.145
 30
-2.75521e-14
  70
    32
  0
VERTEX
  8
0
  5
30F3
 10
37.7025
 20
124.157
 30
-2.75555e-14
  70
    32
  0
VERTEX
  8
0
  5
30F4
 10
37.7081
 20
124.169
 30
-2.75588e-14
  70
    32
  0
VERTEX
  8
0
  5
30F5
 10
37.7136
 20
124.181
 30
-2.75621e-14
  70
    32
  0
VERTEX
  8
0
  5
30F6
 10
37.7191
 20
124.193
 30
-2.75654e-14
  70
    32
  0
VERTEX
  8
0
  5
30F7
 10
37.7245
 20
124.205
 30
-2.75688e-14
  70
    32
  0
VERTEX
  8
0
  5
30F8
 10
37.7298
 20
124.217
 30
-2.75721e-14
  70
    32
  0
VERTEX
  8
0
  5
30F9
 10
37.7351
 20
124.228
 30
-2.75755e-14
  70
    32
  0
VERTEX
  8
0
  5
30FA
 10
37.7404
 20
124.240
 30
-2.75788e-14
  70
    32
  0
VERTEX
  8
0
  5
30FB
 10
37.7455
 20
124.252
 30
-2.75821e-14
  70
    32
  0
VERTEX
  8
0
  5
30FC
 10
37.7507
 20
124.264
 30
-2.75855e-14
  70
    32
  0
VERTEX
  8
0
  5
30FD
 10
37.7557
 20
124.275
 30
-2.75889e-14
  70
    32
  0
VERTEX
  8
0
  5
30FE
 10
37.7607
 20
124.287
 30
-2.75922e-14
  70
    32
  0
VERTEX
  8
0
  5
30FF
 10
37.7657
 20
124.299
 30
-2.75956e-14
  70
    32
  0
VERTEX
  8
0
  5
3100
 10
37.7706
 20
124.310
 30
-2.75989e-14
  70
    32
  0
VERTEX
  8
0
  5
3101
 10
37.7754
 20
124.322
 30
-2.76023e-14
  70
    32
  0
VERTEX
  8
0
  5
3102
 10
37.7802
 20
124.334
 30
-2.76055e-14
  70
    32
  0
VERTEX
  8
0
  5
3103
 10
37.7849
 20
124.345
 30
-2.76087e-14
  70
    32
  0
VERTEX
  8
0
  5
3104
 10
37.7896
 20
124.357
 30
-2.76118e-14
  70
    32
  0
VERTEX
  8
0
  5
3105
 10
37.7943
 20
124.368
 30
-2.76149e-14
  70
    32
  0
VERTEX
  8
0
  5
3106
 10
37.7988
 20
124.380
 30
-2.76179e-14
  70
    32
  0
VERTEX
  8
0
  5
3107
 10
37.8034
 20
124.391
 30
-2.76208e-14
  70
    32
  0
VERTEX
  8
0
  5
3108
 10
37.8078
 20
124.403
 30
-2.76237e-14
  70
    32
  0
VERTEX
  8
0
  5
3109
 10
37.8123
 20
124.414
 30
-2.76265e-14
  70
    32
  0
VERTEX
  8
0
  5
310A
 10
37.8166
 20
124.425
 30
-2.76292e-14
  70
    32
  0
VERTEX
  8
0
  5
310B
 10
37.8210
 20
124.437
 30
-2.76319e-14
  70
    32
  0
VERTEX
  8
0
  5
310C
 10
37.8252
 20
124.448
 30
-2.76345e-14
  70
    32
  0
VERTEX
  8
0
  5
310D
 10
37.8295
 20
124.459
 30
-2.76371e-14
  70
    32
  0
VERTEX
  8
0
  5
310E
 10
37.8336
 20
124.471
 30
-2.76396e-14
  70
    32
  0
VERTEX
  8
0
  5
310F
 10
37.8377
 20
124.482
 30
-2.76420e-14
  70
    32
  0
VERTEX
  8
0
  5
3110
 10
37.8418
 20
124.493
 30
-2.76444e-14
  70
    32
  0
VERTEX
  8
0
  5
3111
 10
37.8458
 20
124.505
 30
-2.76468e-14
  70
    32
  0
VERTEX
  8
0
  5
3112
 10
37.8498
 20
124.516
 30
-2.76491e-14
  70
    32
  0
VERTEX
  8
0
  5
3113
 10
37.8537
 20
124.527
 30
-2.76514e-14
  70
    32
  0
VERTEX
  8
0
  5
3114
 10
37.8575
 20
124.538
 30
-2.76536e-14
  70
    32
  0
VERTEX
  8
0
  5
3115
 10
37.8613
 20
124.549
 30
-2.76558e-14
  70
    32
  0
VERTEX
  8
0
  5
3116
 10
37.8651
 20
124.561
 30
-2.76579e-14
  70
    32
  0
VERTEX
  8
0
  5
3117
 10
37.8688
 20
124.572
 30
-2.76600e-14
  70
    32
  0
VERTEX
  8
0
  5
3118
 10
37.8725
 20
124.583
 30
-2.76620e-14
  70
    32
  0
VERTEX
  8
0
  5
3119
 10
37.8761
 20
124.594
 30
-2.76641e-14
  70
    32
  0
VERTEX
  8
0
  5
311A
 10
37.8796
 20
124.605
 30
-2.76660e-14
  70
    32
  0
VERTEX
  8
0
  5
311B
 10
37.8831
 20
124.616
 30
-2.76680e-14
  70
    32
  0
VERTEX
  8
0
  5
311C
 10
37.8865
 20
124.628
 30
-2.76699e-14
  70
    32
  0
VERTEX
  8
0
  5
311D
 10
37.8899
 20
124.639
 30
-2.76718e-14
  70
    32
  0
VERTEX
  8
0
  5
311E
 10
37.8933
 20
124.650
 30
-2.76737e-14
  70
    32
  0
VERTEX
  8
0
  5
311F
 10
37.8966
 20
124.661
 30
-2.76755e-14
  70
    32
  0
VERTEX
  8
0
  5
3120
 10
37.8998
 20
124.672
 30
-2.76773e-14
  70
    32
  0
VERTEX
  8
0
  5
3121
 10
37.9030
 20
124.683
 30
-2.76791e-14
  70
    32
  0
VERTEX
  8
0
  5
3122
 10
37.9061
 20
124.694
 30
-2.76809e-14
  70
    32
  0
VERTEX
  8
0
  5
3123
 10
37.9092
 20
124.706
 30
-2.76826e-14
  70
    32
  0
VERTEX
  8
0
  5
3124
 10
37.9123
 20
124.717
 30
-2.76844e-14
  70
    32
  0
VERTEX
  8
0
  5
3125
 10
37.9152
 20
124.728
 30
-2.76861e-14
  70
    32
  0
VERTEX
  8
0
  5
3126
 10
37.9182
 20
124.739
 30
-2.76878e-14
  70
    32
  0
VERTEX
  8
0
  5
3127
 10
37.9210
 20
124.750
 30
-2.76895e-14
  70
    32
  0
VERTEX
  8
0
  5
3128
 10
37.9239
 20
124.761
 30
-2.76911e-14
  70
    32
  0
VERTEX
  8
0
  5
3129
 10
37.9266
 20
124.772
 30
-2.76928e-14
  70
    32
  0
VERTEX
  8
0
  5
312A
 10
37.9294
 20
124.783
 30
-2.76945e-14
  70
    32
  0
VERTEX
  8
0
  5
312B
 10
37.9320
 20
124.795
 30
-2.76961e-14
  70
    32
  0
VERTEX
  8
0
  5
312C
 10
37.9347
 20
124.806
 30
-2.76978e-14
  70
    32
  0
VERTEX
  8
0
  5
312D
 10
37.9372
 20
124.817
 30
-2.76994e-14
  70
    32
  0
VERTEX
  8
0
  5
312E
 10
37.9398
 20
124.828
 30
-2.77010e-14
  70
    32
  0
VERTEX
  8
0
  5
312F
 10
37.9422
 20
124.839
 30
-2.77027e-14
  70
    32
  0
VERTEX
  8
0
  5
3130
 10
37.9446
 20
124.850
 30
-2.77043e-14
  70
    32
  0
VERTEX
  8
0
  5
3131
 10
37.9470
 20
124.862
 30
-2.77060e-14
  70
    32
  0
VERTEX
  8
0
  5
3132
 10
37.9493
 20
124.873
 30
-2.77076e-14
  70
    32
  0
VERTEX
  8
0
  5
3133
 10
37.9516
 20
124.884
 30
-2.77093e-14
  70
    32
  0
VERTEX
  8
0
  5
3134
 10
37.9538
 20
124.895
 30
-2.77109e-14
  70
    32
  0
VERTEX
  8
0
  5
3135
 10
37.9559
 20
124.907
 30
-2.77126e-14
  70
    32
  0
VERTEX
  8
0
  5
3136
 10
37.9580
 20
124.918
 30
-2.77143e-14
  70
    32
  0
VERTEX
  8
0
  5
3137
 10
37.9601
 20
124.929
 30
-2.77160e-14
  70
    32
  0
VERTEX
  8
0
  5
3138
 10
37.9621
 20
124.940
 30
-2.77177e-14
  70
    32
  0
VERTEX
  8
0
  5
3139
 10
37.9640
 20
124.952
 30
-2.77194e-14
  70
    32
  0
VERTEX
  8
0
  5
313A
 10
37.9659
 20
124.963
 30
-2.77212e-14
  70
    32
  0
VERTEX
  8
0
  5
313B
 10
37.9678
 20
124.974
 30
-2.77229e-14
  70
    32
  0
VERTEX
  8
0
  5
313C
 10
37.9696
 20
124.986
 30
-2.77247e-14
  70
    32
  0
VERTEX
  8
0
  5
313D
 10
37.9713
 20
124.997
 30
-2.77265e-14
  70
    32
  0
VERTEX
  8
0
  5
313E
 10
37.9730
 20
125.009
 30
-2.77284e-14
  70
    32
  0
VERTEX
  8
0
  5
313F
 10
37.9747
 20
125.020
 30
-2.77302e-14
  70
    32
  0
VERTEX
  8
0
  5
3140
 10
37.9763
 20
125.031
 30
-2.77321e-14
  70
    32
  0
VERTEX
  8
0
  5
3141
 10
37.9778
 20
125.043
 30
-2.77340e-14
  70
    32
  0
VERTEX
  8
0
  5
3142
 10
37.9793
 20
125.054
 30
-2.77360e-14
  70
    32
  0
VERTEX
  8
0
  5
3143
 10
37.9807
 20
125.066
 30
-2.77380e-14
  70
    32
  0
VERTEX
  8
0
  5
3144
 10
37.9821
 20
125.078
 30
-2.77400e-14
  70
    32
  0
VERTEX
  8
0
  5
3145
 10
37.9834
 20
125.089
 30
-2.77420e-14
  70
    32
  0
VERTEX
  8
0
  5
3146
 10
37.9847
 20
125.101
 30
-2.77441e-14
  70
    32
  0
VERTEX
  8
0
  5
3147
 10
37.9860
 20
125.112
 30
-2.77462e-14
  70
    32
  0
VERTEX
  8
0
  5
3148
 10
37.9871
 20
125.124
 30
-2.77484e-14
  70
    32
  0
VERTEX
  8
0
  5
3149
 10
37.9883
 20
125.136
 30
-2.77506e-14
  70
    32
  0
VERTEX
  8
0
  5
314A
 10
37.9893
 20
125.147
 30
-2.77529e-14
  70
    32
  0
VERTEX
  8
0
  5
314B
 10
37.9904
 20
125.159
 30
-2.77552e-14
  70
    32
  0
VERTEX
  8
0
  5
314C
 10
37.9913
 20
125.171
 30
-2.77575e-14
  70
    32
  0
VERTEX
  8
0
  5
314D
 10
37.9923
 20
125.183
 30
-2.77599e-14
  70
    32
  0
VERTEX
  8
0
  5
314E
 10
37.9931
 20
125.195
 30
-2.77624e-14
  70
    32
  0
VERTEX
  8
0
  5
314F
 10
37.9939
 20
125.207
 30
-2.77649e-14
  70
    32
  0
VERTEX
  8
0
  5
3150
 10
37.9947
 20
125.219
 30
-2.77674e-14
  70
    32
  0
VERTEX
  8
0
  5
3151
 10
37.9954
 20
125.231
 30
-2.77700e-14
  70
    32
  0
VERTEX
  8
0
  5
3152
 10
37.9961
 20
125.243
 30
-2.77727e-14
  70
    32
  0
VERTEX
  8
0
  5
3153
 10
37.9967
 20
125.255
 30
-2.77754e-14
  70
    32
  0
VERTEX
  8
0
  5
3154
 10
37.9973
 20
125.267
 30
-2.77782e-14
  70
    32
  0
VERTEX
  8
0
  5
3155
 10
37.9978
 20
125.279
 30
-2.77811e-14
  70
    32
  0
VERTEX
  8
0
  5
3156
 10
37.9982
 20
125.291
 30
-2.77840e-14
  70
    32
  0
VERTEX
  8
0
  5
3157
 10
37.9986
 20
125.303
 30
-2.77870e-14
  70
    32
  0
VERTEX
  8
0
  5
3158
 10
37.9990
 20
125.315
 30
-2.77900e-14
  70
    32
  0
VERTEX
  8
0
  5
3159
 10
37.9993
 20
125.328
 30
-2.77931e-14
  70
    32
  0
VERTEX
  8
0
  5
315A
 10
37.9995
 20
125.340
 30
-2.77963e-14
  70
    32
  0
VERTEX
  8
0
  5
315B
 10
37.9997
 20
125.353
 30
-2.77984e-14
  70
    32
  0
VERTEX
  8
0
  5
315C
 10
37.9999
 20
125.365
 30
-2.77995e-14
  70
    32
  0
VERTEX
  8
0
  5
315D
 10
38.0000
 20
125.377
 30
-2.77999e-14
  70
    32
  0
VERTEX
  8
0
  5
315E
 10
38.0000
 20
125.390
 30
-2.78000e-14
  70
    32
  0
SEQEND
  8
0
  5
315F
  0
ARC
  5
29B3
  8
0
  6
VERDECKT
 62
     1
 10
-39.8203579664698708
 20
117.3900000000000006
 30
0.0
 40
4.9203579664698651
210
0.0
220
-0.0000000000000002
230
-1.0
 50
331.9169420364909229
 51
359.9999999999997726
  0
ARC
  5
29B4
  8
0
  6
VERDECKT
 62
     1
 10
39.8203579664696576
 20
117.3900000000000006
 30
0.0
 40
4.9203579664696511
210
0.0
220
-0.0000000000000002
230
-1.0
 50
179.9999999999994884
 51
208.0830579635097024
  0
LINE
  5
29B5
  8
0
  6
VERDECKT
 62
     1
 10
35.4792929180985084
 20
115.0737364649399979
 30
-0.0000000000000256
 11
38.5883742351513703
 21
109.2467983667599043
 31
-0.0000000000000243
210
0.0
220
1.0
230
-0.0000000000000002
  0
LINE
  5
29B6
  8
0
  6
VERDECKT
 62
     1
 10
-35.4792929180985084
 20
115.0737364649399979
 30
-0.0000000000000256
 11
-38.5883742351513703
 21
109.2467983667599043
 31
-0.0000000000000243
210
0.0
220
1.0
230
-0.0000000000000002
  0
LINE
  5
29B7
  8
0
  6
VERDECKT
 62
     1
 10
-38.5883742351513703
 20
109.2467983667599043
 30
-0.0000000000000243
 11
-40.0
 21
110.0
 31
-0.0000000000000244
210
0.0
220
1.0
230
-0.0000000000000002
  0
LINE
  5
29B8
  8
0
  6
VERDECKT
 62
     1
 10
38.5883742351513703
 20
109.2467983667599043
 30
-0.0000000000000243
 11
40.0
 21
110.0
 31
-0.0000000000000244
210
0.0
220
1.0
230
-0.0000000000000002
  0
LINE
  5
29B9
  8
0
  6
VERDECKT
 62
     1
 10
52.1327239685572792
 20
0.1743114854953092
 30
0.0
 11
-52.1327239685572223
 21
0.1743114854953092
 31
0.0
210
0.0
220
1.0
230
-0.0000000000000002
  0
LINE
  5
29BA
  8
0
  6
VERDECKT
 62
     1
 10
-38.2080102035493212
 20
109.1118713103289934
 30
-0.0000000000000242
 11
38.208010203549378
 21
109.1118713103289934
 31
-0.0000000000000242
210
0.0
220
1.0
230
-0.0000000000000002
  0
ARC
  5
29BB
  8
0
  6
VERDECKT
 62
     1
 10
-51.9999999999994671
 20
10.1309828287264594
 30
0.0
 40
1.000000000000582
210
0.0
220
-0.0000000000000002
230
-1.0
 50
179.9999999999994884
 51
184.9999999999963052
  0
ARC
  5
29BC
  8
0
  6
VERDECKT
 62
     1
 10
51.9999999999994671
 20
10.1309828287264594
 30
0.0
 40
1.000000000000582
210
0.0
220
-0.0000000000000002
230
-1.0
 50
355.0000000000035811
 51
0.0000000000005216
  0
LINE
  5
29BD
  8
0
  6
VERDECKT
 62
     1
 10
53.0000000000000568
 20
76.9237468274601639
 30
-0.0000000000000171
 11
53.0000000000000568
 21
10.13098282872647
 31
-0.0000000000000022
210
0.0
220
1.0
230
-0.0000000000000002
  0
LINE
  5
29BE
  8
0
  6
VERDECKT
 62
     1
 10
-53.0000000000000568
 20
76.9237468274601639
 30
-0.0000000000000171
 11
-53.0000000000000568
 21
10.13098282872647
 31
-0.0000000000000022
210
0.0
220
1.0
230
-0.0000000000000002
  0
LINE
  5
29BF
  8
0
  6
VERDECKT
 62
     1
 10
-52.1327239685572223
 20
0.1743114854953101
 30
0.0
 11
-52.9961946980917773
 21
10.0438270859788208
 31
-0.0000000000000022
210
0.0
220
1.0
230
-0.0000000000000002
  0
LINE
  5
29C0
  8
0
  6
VERDECKT
 62
     1
 10
52.1327239685572792
 20
0.1743114854953101
 30
0.0
 11
52.996194698091827
 21
10.0438270859788208
 31
-0.0000000000000022
210
0.0
220
1.0
230
-0.0000000000000002
  0
ARC
  5
29C1
  8
0
  6
VERDECKT
 62
     1
 10
43.0000000000001208
 20
76.9237468274602065
 30
0.0
 40
9.9999999999999076
210
0.0
220
-0.0000000000000002
230
-1.0
 50
359.9999999999997158
 51
26.3634913474660202
  0
ARC
  5
29C2
  8
0
  6
VERDECKT
 62
     1
 10
-43.0000000000001705
 20
76.9237468274602065
 30
0.0
 40
9.9999999999999094
210
0.0
220
-0.0000000000000002
230
-1.0
 50
153.6365086525339905
 51
180.000000000000199
  0
LINE
  5
29C3
  8
0
  6
VERDECKT
 62
     1
 10
38.2080102035493923
 20
109.1118713103289934
 30
-0.0000000000000242
 11
51.9599489822535503
 21
81.3643902758148556
 31
-0.0000000000000181
210
0.0
220
1.0
230
-0.0000000000000002
  0
LINE
  5
29C4
  8
0
  6
VERDECKT
 62
     1
 10
-38.2080102035493425
 20
109.1118713103289934
 30
-0.0000000000000242
 11
-51.9599489822534935
 21
81.3643902758148556
 31
-0.0000000000000181
210
0.0
220
1.0
230
-0.0000000000000002
  0
LINE
  5
29C5
  8
0
  6
VERDECKT
 62
     1
 10
-38.2080102035493283
 20
109.1118713103289934
 30
-0.0000000000000242
 11
-40.0
 21
110.0
 31
-0.0000000000000244
210
0.0
220
1.0
230
-0.0000000000000002
  0
LINE
  5
29C6
  8
0
  6
VERDECKT
 62
     1
 10
38.208010203549378
 20
109.1118713103289934
 30
-0.0000000000000242
 11
40.0000000000000568
 21
110.0
 31
-0.0000000000000244
210
0.0
220
1.0
230
-0.0000000000000002
  0
LINE
  5
29C7
  8
0
  6
VERDECKT
 62
     1
 10
52.1327239685572792
 20
0.1743114854953095
 30
0.0
 11
54.1251133647407698
 21
0.0000000000000003
 31
0.0
210
0.0
220
1.0
230
-0.0000000000000002
  0
LINE
  5
29C8
  8
0
  6
VERDECKT
 62
     1
 10
-52.1327239685572223
 20
0.1743114854953095
 30
0.0
 11
-54.1251133647407201
 21
0.0000000000000003
 31
0.0
210
0.0
220
1.0
230
-0.0000000000000002
  0
ENDBLK
  5
29CA
  8
0
  0
BLOCK
  8
0
  2
*U17
 70
     1
 10
0.0
 20
0.0
 30
0.0
  3
*U17
  1

  0
TEXT
  5
2A51
  8
STEMPEL
 62
     1
 10
32.8084619879479291
 20
236.2801426421914073
 30
0.0
 40
3.5
  1
55
 50
90.0
 41
0.8
  0
ENDBLK
  5
2A53
  8
0
  0
BLOCK
  8
0
  2
*U18
 70
     1
 10
0.0
 20
0.0
 30
0.0
  3
*U18
  1

  0
TEXT
  5
2A55
  8
STEMPEL
 62
     1
 10
40.4107117854422384
 20
231.2788690596065067
 30
0.0
 40
3.5
  1
65
 50
90.0
 41
0.8
  0
ENDBLK
  5
2A57
  8
0
  0
ENDSEC
  0
SECTION
  2
ENTITIES
  0
INSERT
  5
573
  8
ADSK_ASSOC_ENTITY_BACKUPS
  2
*S0
 10
0.0
 20
0.0
 30
0.0
  0
INSERT
  5
297E
  8
STEMPEL
  2
A$C8D2F503F
 10
0.0
 20
-104.5815670755244042
 30
0.0
  0
INSERT
  5
29CB
  8
STEMPEL
  2
A$C6376C476
 10
0.0
 20
0.0
 30
0.0
  0
VIEWPORT
  5
609
 67
     1
  8
0
 10
99.3674208292058836
 20
145.4559455147372091
 30
0.0
 40
558.8319832755776133
 41
298.5191815856778135
 68
     1
 69
     1
1001
ACAD
1000
MVIEW
1002
{
1070
    16
1010
0.0
1020
0.0
1030
0.0
1010
0.0
1020
0.0
1030
1.0
1040
0.0
1040
298.5191815856778135
1040
99.3674208292058836
1040
145.4559455147372091
1040
50.0
1040
0.0
1040
0.0
1070
     0
1070
  1500
1070
     1
1070
     1
1070
     0
1070
     0
1070
     0
1070
     0
1040
0.0
1040
0.0
1040
0.0
1040
10.0
1040
10.0
1040
10.0
1040
10.0
1070
     0
1002
{
1002
}
1002
}
  0
ENDSEC
  0
EOF
