  0
SECTION
  2
HEADER
  9
$ACADVER
  1
AC1009
  9
$INSBASE
 10
0.0
 20
0.0
 30
0.0
  9
$EXTMIN
 10
-53.1969152365104421
 20
-202.2019052782009112
 30
-0.0048824399767682
  9
$EXTMAX
 10
53.2055119578591302
 20
160.0044164423518964
 30
0.0073244050229278
  9
$LIMMIN
 10
0.0
 20
0.0
  9
$LIMMAX
 10
210.0
 20
297.0
  9
$ORTHOMODE
 70
     1
  9
$REGENMODE
 70
     1
  9
$FILLMODE
 70
     1
  9
$QTEXTMODE
 70
     0
  9
$MIRRTEXT
 70
     1
  9
$DRAGMODE
 70
     2
  9
$LTSCALE
 40
10.0
  9
$OSMODE
 70
  2559
  9
$ATTMODE
 70
     1
  9
$TEXTSIZE
 40
3.5
  9
$TRACEWID
 40
0.5
  9
$TEXTSTYLE
  7
STANDARD
  9
$CLAYER
  8
STEMPEL
  9
$CELTYPE
  6
BYLAYER
  9
$CECOLOR
 62
   256
  9
$DIMSCALE
 40
1.0
  9
$DIMASZ
 40
3.5
  9
$DIMEXO
 40
1.0
  9
$DIMDLI
 40
7.0
  9
$DIMRND
 40
0.0
  9
$DIMDLE
 40
0.0
  9
$DIMEXE
 40
1.0
  9
$DIMTP
 40
0.2
  9
$DIMTM
 40
0.0
  9
$DIMTXT
 40
3.5
  9
$DIMCEN
 40
1.5
  9
$DIMTSZ
 40
0.0
  9
$DIMTOL
 70
     0
  9
$DIMLIM
 70
     0
  9
$DIMTIH
 70
     0
  9
$DIMTOH
 70
     0
  9
$DIMSE1
 70
     0
  9
$DIMSE2
 70
     0
  9
$DIMTAD
 70
     1
  9
$DIMZIN
 70
     8
  9
$DIMBLK
  1

  9
$DIMASO
 70
     1
  9
$DIMSHO
 70
     0
  9
$DIMPOST
  1

  9
$DIMAPOST
  1

  9
$DIMALT
 70
     0
  9
$DIMALTD
 70
     2
  9
$DIMALTF
 40
25.3999999999999986
  9
$DIMLFAC
 40
1.0
  9
$DIMTOFL
 70
     1
  9
$DIMTVP
 40
0.0
  9
$DIMTIX
 70
     0
  9
$DIMSOXD
 70
     0
  9
$DIMSAH
 70
     0
  9
$DIMBLK1
  1

  9
$DIMBLK2
  1

  9
$DIMSTYLE
  2
STANDARD
  9
$DIMCLRD
 70
     0
  9
$DIMCLRE
 70
     0
  9
$DIMCLRT
 70
     1
  9
$DIMTFAC
 40
0.5142857142857143
  9
$DIMGAP
 40
1.5
  9
$LUNITS
 70
     2
  9
$LUPREC
 70
     2
  9
$SKETCHINC
 40
1.0
  9
$FILLETRAD
 40
8.0
  9
$AUNITS
 70
     0
  9
$AUPREC
 70
     0
  9
$MENU
  1
ACAD
  9
$ELEVATION
 40
0.0
  9
$PELEVATION
 40
0.0
  9
$THICKNESS
 40
0.0
  9
$LIMCHECK
 70
     0
  9
$BLIPMODE
 70
     0
  9
$CHAMFERA
 40
0.0
  9
$CHAMFERB
 40
0.0
  9
$SKPOLY
 70
     0
  9
$TDCREATE
 40
2452536.3468865738250315
  9
$TDUPDATE
 40
2458376.3330902778543532
  9
$TDINDWG
 40
0.2480966782
  9
$TDUSRTIMER
 40
0.2480966782
  9
$USRTIMER
 70
     1
  9
$ANGBASE
 50
0.0
  9
$ANGDIR
 70
     0
  9
$PDMODE
 70
     0
  9
$PDSIZE
 40
0.0
  9
$PLINEWID
 40
0.0
  9
$COORDS
 70
     1
  9
$SPLFRAME
 70
     0
  9
$SPLINETYPE
 70
     6
  9
$SPLINESEGS
 70
     8
  9
$ATTDIA
 70
     1
  9
$ATTREQ
 70
     1
  9
$HANDLING
 70
     1
  9
$HANDSEED
  5
D48
  9
$SURFTAB1
 70
     6
  9
$SURFTAB2
 70
     6
  9
$SURFTYPE
 70
     6
  9
$SURFU
 70
     6
  9
$SURFV
 70
     6
  9
$UCSNAME
  2

  9
$UCSORG
 10
0.0
 20
0.0
 30
0.0
  9
$UCSXDIR
 10
1.0
 20
0.0
 30
0.0
  9
$UCSYDIR
 10
0.0
 20
1.0
 30
0.0
  9
$PUCSNAME
  2

  9
$PUCSORG
 10
0.0
 20
0.0
 30
0.0
  9
$PUCSXDIR
 10
1.0
 20
0.0
 30
0.0
  9
$PUCSYDIR
 10
0.0
 20
1.0
 30
0.0
  9
$USERI1
 70
     0
  9
$USERI2
 70
     0
  9
$USERI3
 70
     0
  9
$USERI4
 70
     0
  9
$USERI5
 70
     0
  9
$USERR1
 40
0.0
  9
$USERR2
 40
0.0
  9
$USERR3
 40
0.0
  9
$USERR4
 40
0.0
  9
$USERR5
 40
0.0
  9
$WORLDVIEW
 70
     1
  9
$SHADEDGE
 70
     3
  9
$SHADEDIF
 70
    70
  9
$TILEMODE
 70
     1
  9
$MAXACTVP
 70
    16
  9
$PLIMCHECK
 70
     0
  9
$PEXTMIN
 10
-0.19374138786754
 20
-0.1860869157356575
 30
-0.0000000000112498
  9
$PEXTMAX
 10
23.0842264683047489
 20
32.4719602923809276
 30
0.0000000000002956
  9
$PLIMMIN
 10
-0.2500002402958907
 20
-0.2499999962453767
  9
$PLIMMAX
 10
10.7499995194082203
 20
8.2499997634587334
  9
$UNITMODE
 70
     0
  9
$VISRETAIN
 70
     0
  9
$PLINEGEN
 70
     0
  9
$PSLTSCALE
 70
     0
  0
ENDSEC
  0
SECTION
  2
TABLES
  0
TABLE
  2
VPORT
 70
     1
  0
VPORT
  2
*ACTIVE
 70
     0
 10
0.0
 20
0.0
 11
1.0
 21
1.0
 12
0.0042983606743405
 22
-75.5566854732223305
 13
0.0
 23
0.0
 14
1.0
 24
1.0
 15
10.0
 25
10.0
 16
-0.0000000000001339
 26
0.0
 36
603.1229335484116518
 17
0.0
 27
54.4579410552978516
 37
-0.0000000000000178
 40
364.0527430717197035
 41
1.868197278911564
 42
50.0
 43
0.0
 44
0.0
 50
0.0
 51
0.0
 71
     0
 72
  1500
 73
     1
 74
     0
 75
     0
 76
     0
 77
     0
 78
     0
  0
ENDTAB
  0
TABLE
  2
LTYPE
 70
     3
  0
LTYPE
  2
CONTINUOUS
 70
     0
  3
Solid line
 72
    65
 73
     0
 40
0.0
  0
LTYPE
  2
VERDECKT
 70
     0
  3
_ _ _ _ _ _ _ _ _ _ _ _ _ _ _ _ _ _ _ _ _ _ _
 72
    65
 73
     2
 40
0.375
 49
0.25
 49
-0.125
  0
ENDTAB
  0
TABLE
  2
LAYER
 70
    10
  0
LAYER
  2
0
 70
     0
 62
     7
  6
CONTINUOUS
  0
LAYER
  2
VOLL
 70
     0
 62
     1
  6
CONTINUOUS
  0
LAYER
  2
DEFPOINTS
 70
     0
 62
     7
  6
CONTINUOUS
  0
LAYER
  2
STEMPEL
 70
     0
 62
     3
  6
CONTINUOUS
  0
LAYER
  2
TEXT
 70
     0
 62
     7
  6
CONTINUOUS
  0
ENDTAB
  0
TABLE
  2
STYLE
 70
     2
  0
STYLE
  2
STANDARD
 70
     0
 40
0.0
 41
0.8
 50
0.0
 71
     0
 42
3.5
  3
simplex.shx
  4

  0
STYLE
  2
GREEKS
 70
     0
 40
0.0
 41
0.8
 50
0.0
 71
     0
 42
3.5
  3
SIMPLEX.shx
  4

  0
ENDTAB
  0
TABLE
  2
VIEW
 70
     1
  0
ENDTAB
  0
TABLE
  2
UCS
 70
     0
  0
ENDTAB
  0
TABLE
  2
APPID
 70
    12
  0
APPID
  2
ACAD
 70
     0
  0
APPID
  2
ACAD_DSTYLE_DIMJAG
 70
     0
  0
APPID
  2
ACAD_DSTYLE_DIMTALN
 70
     0
  0
APPID
  2
ACAD_NAV_VCDISPLAY
 70
     0
  0
APPID
  2
ACAD_PSEXT
 70
     0
  0
APPID
  2
ACAD_EXEMPT_FROM_CAD_STANDARDS
 70
     0
  0
APPID
  2
ACAD_MLEADERVER
 70
     0
  0
APPID
  2
GRADIENTCOLOR1ACI
 70
     0
  0
APPID
  2
GRADIENTCOLOR2ACI
 70
     0
  0
APPID
  2
ACAECLAYERSTANDARD
 70
     0
  0
APPID
  2
ACCMTRANSPARENCY
 70
     0
  0
APPID
  2
ACAD_OBJECT_CHANGE_GUID
 70
     0
  0
ENDTAB
  0
TABLE
  2
DIMSTYLE
 70
     1
  0
DIMSTYLE
  2
STANDARD
 70
     0
  3

  4

  5

  6

  7

 40
1.0
 41
0.18
 42
0.0625
 43
0.38
 44
0.18
 45
0.0
 46
0.0
 47
0.0
 48
0.0
140
0.18
141
0.09
142
0.0
143
25.3999999999999986
144
1.0
145
0.0
146
1.0
147
0.09
 71
     0
 72
     0
 73
     1
 74
     1
 75
     0
 76
     0
 77
     0
 78
     0
170
     0
171
     2
172
     0
173
     0
174
     0
175
     0
176
     0
177
     0
178
     0
  0
ENDTAB
  0
ENDSEC
  0
SECTION
  2
BLOCKS
  0
BLOCK
  8
0
  2
$MODEL_SPACE
 70
     0
 10
0.0
 20
0.0
 30
0.0
  3
$MODEL_SPACE
  1

  0
ENDBLK
  5
47
  8
0
  0
BLOCK
 67
     1
  8
0
  2
$PAPER_SPACE
 70
     0
 10
0.0
 20
0.0
 30
0.0
  3
$PAPER_SPACE
  1

  0
ENDBLK
  5
45
 67
     1
  8
0
  0
BLOCK
  8
0
  2
A$C15013161
 70
     0
 10
0.0
 20
0.0
 30
0.0
  3
A$C15013161
  1

  0
LINE
  5
CAA
  8
0
  6
CONTINUOUS
 62
     3
 10
-47.7654046703400113
 20
160.0
 30
-0.0000000000000355
 11
47.7654046703400823
 21
160.0
 31
-0.0000000000000355
210
0.0000000000000002
220
1.0
230
-0.0000000000000002
  0
LINE
  5
CAB
  8
0
  6
CONTINUOUS
 62
     3
 10
-41.0625566823704204
 20
0.0000000000000091
 30
0.0
 11
41.0625566823704204
 21
-0.0000000000000091
 31
0.0
210
0.0000000000000002
220
1.0
230
-0.0000000000000002
  0
LINE
  5
CAC
  8
0
  6
CONTINUOUS
 62
     3
 10
47.7654046703400823
 20
160.0
 30
-0.0000000000000355
 11
48.7951715611016894
 21
157.7916577762501902
 31
-0.000000000000035
210
0.0000000000000002
220
1.0
230
-0.0000000000000002
  0
LINE
  5
CAD
  8
0
  6
CONTINUOUS
 62
     3
 10
-47.7654046703400113
 20
160.0
 30
-0.0000000000000355
 11
-48.7951715611016184
 21
157.7916577762501902
 31
-0.000000000000035
210
0.0000000000000002
220
1.0
230
-0.0000000000000002
  0
ARC
  5
CAE
  8
0
  6
CONTINUOUS
 62
     3
 10
26.5000000000036415
 20
147.3952485374294952
 30
0.0
 40
24.5999999999965304
210
0.0
220
-0.0000000000000002
230
-1.0
 50
359.9999999999988063
 51
25.0000000000025686
  0
ARC
  5
CAF
  8
0
  6
CONTINUOUS
 62
     3
 10
-26.5000000000036984
 20
147.3952485374294952
 30
0.0
 40
24.5999999999965304
210
0.0
220
-0.0000000000000002
230
-1.0
 50
154.9999999999974136
 51
180.0000000000011084
  0
LINE
  5
CB0
  8
0
  6
CONTINUOUS
 62
     3
 10
51.100000000000172
 20
147.395248537429012
 30
-0.0000000000000327
 11
51.100000000000172
 21
140.2998649610192103
 31
-0.0000000000000312
210
0.0000000000000002
220
1.0
230
-0.0000000000000002
  0
LINE
  5
CB1
  8
0
  6
CONTINUOUS
 62
     3
 10
-51.1000000000001009
 20
147.395248537429012
 30
-0.0000000000000327
 11
-51.1000000000001009
 21
140.2998649610192103
 31
-0.0000000000000312
210
0.0000000000000002
220
1.0
230
-0.0000000000000002
  0
ARC
  5
CB2
  8
0
  6
CONTINUOUS
 62
     3
 10
25.5488313439000301
 20
140.4921928097849104
 30
0.0
 40
25.5518924875219184
210
0.0
220
-0.0000000000000002
230
-1.0
 50
335.0636027247473976
 51
359.5687333892212791
  0
ARC
  5
CB3
  8
0
  6
CONTINUOUS
 62
     3
 10
-25.5488313439001011
 20
140.4921928097849104
 30
0.0
 40
25.5518924875219184
210
0.0
220
-0.0000000000000002
230
-1.0
 50
180.4312666107786924
 51
204.9363972752526024
  0
ARC
  5
CB4
  8
0
  6
CONTINUOUS
 62
     3
 10
59.599999999998758
 20
124.659866936805102
 30
0.0
 40
11.9999999999987104
210
0.0
220
-0.0000000000000002
230
-1.0
 50
155.0636027247466018
 51
180.0000000000009095
  0
ARC
  5
CB5
  8
0
  6
CONTINUOUS
 62
     3
 10
-59.5999999999988219
 20
124.659866936805102
 30
0.0
 40
11.9999999999987104
210
0.0
220
-0.0000000000000002
230
-1.0
 50
359.9999999999990905
 51
24.9363972752534409
  0
LINE
  5
CB6
  8
0
  6
CONTINUOUS
 62
     3
 10
47.600000000000108
 20
124.659866936804903
 30
-0.0000000000000277
 11
47.6000000000001009
 21
105.3887264174171037
 31
-0.0000000000000234
210
0.0000000000000002
220
1.0
230
-0.0000000000000002
  0
LINE
  5
CB7
  8
0
  6
CONTINUOUS
 62
     3
 10
-47.6000000000000512
 20
124.659866936804903
 30
-0.0000000000000277
 11
-47.6000000000000583
 21
105.3887264174171037
 31
-0.0000000000000234
210
0.0000000000000002
220
1.0
230
-0.0000000000000002
  0
ARC
  5
CB8
  8
0
  6
CONTINUOUS
 62
     3
 10
35.5999999999998593
 20
105.3887264174171037
 30
0.0
 40
12.0000000000001901
210
0.0
220
-0.0000000000000002
230
-1.0
 50
327.6719358778394735
 51
0.0000000000000127
  0
ARC
  5
CB9
  8
0
  6
CONTINUOUS
 62
     3
 10
-35.5999999999999019
 20
105.3887264174171037
 30
0.0
 40
12.0000000000001901
210
0.0
220
-0.0000000000000002
230
-1.0
 50
180.0
 51
212.3280641221604981
  0
ARC
  5
CBA
  8
0
  6
CONTINUOUS
 62
     3
 10
52.5000000000015632
 20
94.6934003354312779
 30
0.0
 40
8.0000000000014069
210
0.0
220
-0.0000000000000002
230
-1.0
 50
147.6719358778397861
 51
179.9999999999990905
  0
ARC
  5
CBB
  8
0
  6
CONTINUOUS
 62
     3
 10
-52.5000000000015916
 20
94.6934003354312352
 30
0.0
 40
8.0000000000014069
210
0.0
220
-0.0000000000000002
230
-1.0
 50
0.0000000000009287
 51
32.3280641221602423
  0
LINE
  5
CBC
  8
0
  6
CONTINUOUS
 62
     3
 10
44.5000000000001279
 20
94.6934003354313774
 30
-0.000000000000021
 11
44.5000000000001208
 21
60.2158717195874971
 31
-0.0000000000000134
210
0.0000000000000002
220
1.0
230
-0.0000000000000002
  0
LINE
  5
CBD
  8
0
  6
CONTINUOUS
 62
     3
 10
-44.5000000000000924
 20
94.6934003354314058
 30
-0.000000000000021
 11
-44.5000000000000924
 21
60.2158717195875184
 31
-0.0000000000000134
210
0.0000000000000002
220
1.0
230
-0.0000000000000002
  0
ARC
  5
CBE
  8
0
  6
CONTINUOUS
 62
     3
 10
36.50000036103296
 20
60.215871619587098
 30
0.0
 40
7.9999996389670267
210
0.0
220
-0.0000000000000002
230
-1.0
 50
329.0362434679249191
 51
0.0000007162002547
  0
ARC
  5
CBF
  8
0
  6
CONTINUOUS
 62
     3
 10
-36.5000003610330381
 20
60.2158716195870696
 30
0.0
 40
7.9999996389669761
210
0.0
220
-0.0000000000000002
230
-1.0
 50
179.9999992837996103
 51
210.9637565320751094
  0
LINE
  5
CC0
  8
0
  6
CONTINUOUS
 62
     3
 10
-42.6400565942996224
 20
54.9000943238327679
 30
-0.0000000000000122
 11
-43.3599434571500026
 21
56.0999057619166308
 31
-0.0000000000000125
210
0.0000000000000002
220
1.0
230
-0.0000000000000002
  0
LINE
  5
CC1
  8
0
  6
CONTINUOUS
 62
     3
 10
42.6400565942996366
 20
54.9000943238327466
 30
-0.0000000000000122
 11
43.3599434571500311
 21
56.0999057619166095
 31
-0.0000000000000125
210
0.0000000000000002
220
1.0
230
-0.0000000000000002
  0
ARC
  5
CC2
  8
0
  6
CONTINUOUS
 62
     3
 10
49.4999999999999218
 20
50.7841282804126593
 30
0.0
 40
7.9999999999999254
210
0.0
220
-0.0000000000000002
230
-1.0
 50
149.0362434679267949
 51
180.0000000000003126
  0
ARC
  5
CC3
  8
0
  6
CONTINUOUS
 62
     3
 10
-49.4999999999999432
 20
50.7841282804126379
 30
0.0
 40
7.9999999999999281
210
0.0
220
-0.0000000000000002
230
-1.0
 50
0.0000000000000127
 51
30.9637565320734716
  0
LINE
  5
CC4
  8
0
  6
CONTINUOUS
 62
     3
 10
41.5000000000000071
 20
50.7841282804125882
 30
-0.0000000000000113
 11
41.5
 21
5.0000000000000062
 31
-0.0000000000000011
210
0.0000000000000002
220
1.0
230
-0.0000000000000002
  0
LINE
  5
CC5
  8
0
  6
CONTINUOUS
 62
     3
 10
-41.4999999999999787
 20
50.7841282804126095
 30
-0.0000000000000113
 11
-41.5
 21
5.0000000000000231
 31
-0.0000000000000011
210
0.0000000000000002
220
1.0
230
-0.0000000000000002
  0
LINE
  5
CC6
  8
0
  6
CONTINUOUS
 62
     3
 10
-41.0625566823704631
 20
0.0000000000000069
 30
0.0
 11
-41.5000000000000782
 21
5.0000000000000222
 31
-0.0000000000000011
210
0.0000000000000002
220
1.0
230
-0.0000000000000002
  0
LINE
  5
CC7
  8
0
  6
CONTINUOUS
 62
     3
 10
41.0625566823704631
 20
-0.0000000000000113
 30
0.0
 11
41.5000000000000782
 21
5.0000000000000044
 31
-0.0000000000000011
210
0.0000000000000002
220
1.0
230
-0.0000000000000002
  0
LINE
  5
CC8
  8
0
  6
VERDECKT
 62
     1
 10
-39.4564449423010402
 20
0.0000000000000247
 30
0.0
 11
-39.9000000000000625
 21
5.069857508652162
 31
-0.0000000000000011
210
0.0000000000000002
220
1.0
230
-0.0000000000000002
  0
LINE
  5
CC9
  8
0
  6
VERDECKT
 62
     1
 10
39.4564449423010402
 20
0.0000000000000072
 30
0.0
 11
39.9000000000000625
 21
5.0698575086521442
 31
-0.0000000000000011
210
0.0000000000000002
220
1.0
230
-0.0000000000000002
  0
LINE
  5
CCA
  8
0
  6
VERDECKT
 62
     1
 10
39.9000000000000483
 20
50.7841282804125882
 30
-0.0000000000000113
 11
39.9000000000000412
 21
5.0698575086521398
 31
-0.0000000000000011
210
0.0000000000000002
220
1.0
230
-0.0000000000000002
  0
LINE
  5
CCB
  8
0
  6
VERDECKT
 62
     1
 10
-39.9000000000000199
 20
50.7841282804126095
 30
-0.0000000000000113
 11
-39.9000000000000412
 21
5.0698575086521576
 31
-0.0000000000000011
210
0.0000000000000002
220
1.0
230
-0.0000000000000002
  0
ARC
  5
CCC
  8
0
  6
VERDECKT
 62
     1
 10
49.5000000000005826
 20
50.7841282804124106
 30
0.0
 40
9.6000000000006214
210
0.0
220
-0.0000000000000002
230
-1.0
 50
149.0362434679269938
 51
179.9999999999988063
  0
ARC
  5
CCD
  8
0
  6
VERDECKT
 62
     1
 10
-49.5000000000006111
 20
50.7841282804123892
 30
0.0
 40
9.6000000000006196
210
0.0
220
-0.0000000000000002
230
-1.0
 50
0.0000000000000127
 51
30.9637565320718586
  0
LINE
  5
CCE
  8
0
  6
VERDECKT
 62
     1
 10
-41.2680679131595767
 20
55.7232875325169132
 30
-0.0000000000000124
 11
-41.9879547245602396
 21
56.9230988848513419
 31
-0.0000000000000126
210
0.0000000000000002
220
1.0
230
-0.0000000000000002
  0
LINE
  5
CCF
  8
0
  6
VERDECKT
 62
     1
 10
41.2680679131596122
 20
55.723287532516899
 30
-0.0000000000000124
 11
41.9879547245602609
 21
56.9230988848513277
 31
-0.0000000000000126
210
0.0000000000000002
220
1.0
230
-0.0000000000000002
  0
ARC
  5
CD0
  8
0
  6
VERDECKT
 62
     1
 10
36.5000000000004334
 20
60.2158717195873621
 30
0.0
 40
6.3999999999995296
210
0.0
220
-0.0000000000000002
230
-1.0
 50
329.0362434679254875
 51
0.0000000000011577
  0
ARC
  5
CD1
  8
0
  6
VERDECKT
 62
     1
 10
-36.5000000000004619
 20
60.2158717195873479
 30
0.0
 40
6.3999999999995287
210
0.0
220
-0.0000000000000002
230
-1.0
 50
179.9999999999988916
 51
210.9637565320745978
  0
LINE
  5
CD2
  8
0
  6
VERDECKT
 62
     1
 10
42.9000000000001123
 20
94.6934003354313774
 30
-0.000000000000021
 11
42.9000000000000981
 21
60.2158717195874686
 31
-0.0000000000000134
210
0.0000000000000002
220
1.0
230
-0.0000000000000002
  0
LINE
  5
CD3
  8
0
  6
VERDECKT
 62
     1
 10
-42.9000000000000696
 20
94.6934003354314058
 30
-0.000000000000021
 11
-42.9000000000000767
 21
60.21587171958749
 31
-0.0000000000000134
210
0.0000000000000002
220
1.0
230
-0.0000000000000002
  0
ARC
  5
CD4
  8
0
  6
VERDECKT
 62
     1
 10
52.5000000000003482
 20
94.6934003354316047
 30
0.0
 40
9.6000000000002235
210
0.0
220
-0.0000000000000002
230
-1.0
 50
147.6719358778373987
 51
180.0000000000011084
  0
ARC
  5
CD5
  8
0
  6
VERDECKT
 62
     1
 10
-52.5000000000003695
 20
94.6934003354316047
 30
0.0
 40
9.6000000000002004
210
0.0
220
-0.0000000000000002
230
-1.0
 50
359.9999999999986926
 51
32.3280641221625586
  0
ARC
  5
CD6
  8
0
  6
VERDECKT
 62
     1
 10
35.6000000000014367
 20
105.3887264174169047
 30
0.0
 40
10.3999999999987001
210
0.0
220
-0.0000000000000002
230
-1.0
 50
327.6719358778361197
 51
0.0000000000013486
  0
ARC
  5
CD7
  8
0
  6
VERDECKT
 62
     1
 10
-35.6000000000014865
 20
105.3887264174168052
 30
0.0
 40
10.3999999999987001
210
0.0
220
-0.0000000000000002
230
-1.0
 50
179.9999999999986073
 51
212.3280641221639939
  0
LINE
  5
CD8
  8
0
  6
VERDECKT
 62
     1
 10
46.000000000000199
 20
124.659866936804903
 30
-0.0000000000000277
 11
46.0000000000001918
 21
105.3887264174171037
 31
-0.0000000000000234
210
0.0000000000000002
220
1.0
230
-0.0000000000000002
  0
LINE
  5
CD9
  8
0
  6
VERDECKT
 62
     1
 10
-46.0000000000001421
 20
124.659866936804903
 30
-0.0000000000000277
 11
-46.0000000000001421
 21
105.3887264174171037
 31
-0.0000000000000234
210
0.0000000000000002
220
1.0
230
-0.0000000000000002
  0
ARC
  5
CDA
  8
0
  6
VERDECKT
 62
     1
 10
59.4287724483733868
 20
124.6980185679341986
 30
0.0
 40
13.4288266433499803
210
0.0
220
-0.0000000000000002
230
-1.0
 50
154.7151608570302983
 51
180.1627789563382862
  0
ARC
  5
CDB
  8
0
  6
VERDECKT
 62
     1
 10
-59.4287724483738629
 20
124.6980185679341986
 30
0.0
 40
13.4288266433503907
210
0.0
220
-0.0000000000000002
230
-1.0
 50
359.837221043661998
 51
25.2848391429692185
  0
ARC
  5
CDC
  8
0
  6
VERDECKT
 62
     1
 10
26.3954921721717888
 20
140.3020860433362884
 30
0.0
 40
23.1045078278283995
210
0.0
220
-0.0000000000000002
230
-1.0
 50
334.7151608570305825
 51
0.0000000000005089
  0
ARC
  5
CDD
  8
0
  6
VERDECKT
 62
     1
 10
-26.3954921721718598
 20
140.3020860433362884
 30
0.0
 40
23.1045078278283995
210
0.0
220
-0.0000000000000002
230
-1.0
 50
179.9999999999994884
 51
205.2848391429693891
  0
LINE
  5
CDE
  8
0
  6
VERDECKT
 62
     1
 10
49.5000000000002629
 20
147.395248537429012
 30
-0.0000000000000327
 11
49.5000000000002487
 21
140.3020860433364874
 31
-0.0000000000000312
210
0.0000000000000002
220
1.0
230
-0.0000000000000002
  0
LINE
  5
CDF
  8
0
  6
VERDECKT
 62
     1
 10
-49.5000000000001918
 20
147.395248537429012
 30
-0.0000000000000327
 11
-49.500000000000199
 21
140.3020860433364874
 31
-0.0000000000000312
210
0.0000000000000002
220
1.0
230
-0.0000000000000002
  0
ARC
  5
CE0
  8
0
  6
VERDECKT
 62
     1
 10
26.5000000000079012
 20
147.3952485374306889
 30
0.0
 40
22.9999999999922515
210
0.0
220
-0.0000000000000002
230
-1.0
 50
359.9999999999957936
 51
25.00000000000108
  0
ARC
  5
CE1
  8
0
  6
VERDECKT
 62
     1
 10
-26.5000000000079687
 20
147.3952485374306889
 30
0.0
 40
22.9999999999922515
210
0.0
220
-0.0000000000000002
230
-1.0
 50
154.9999999999988916
 51
180.0000000000042064
  0
LINE
  5
CE2
  8
0
  6
VERDECKT
 62
     1
 10
46.0000000000001705
 20
160.0
 30
-0.0000000000000355
 11
47.3450791018436803
 21
157.1154685574637995
 31
-0.0000000000000349
210
0.0000000000000002
220
1.0
230
-0.0000000000000002
  0
LINE
  5
CE3
  8
0
  6
VERDECKT
 62
     1
 10
-46.0000000000000995
 20
160.0
 30
-0.0000000000000355
 11
-47.3450791018436092
 21
157.1154685574637995
 31
-0.0000000000000349
210
0.0000000000000002
220
1.0
230
-0.0000000000000002
  0
ENDBLK
  5
CE5
  8
0
  0
BLOCK
  8
0
  2
A$C3065366D
 70
     0
 10
0.0
 20
0.0
 30
0.0
  3
A$C3065366D
  1

  0
CIRCLE
  5
CE9
  8
0
  6
CONTINUOUS
 62
     3
 10
0.0
 20
0.0000000000000071
 30
0.0
 40
39.4564449423010615
  0
CIRCLE
  5
CEA
  8
0
  6
CONTINUOUS
 62
     3
 10
0.0000000000000113
 20
0.0000000000000103
 30
0.0
 40
39.8999999999999773
  0
CIRCLE
  5
CEB
  8
0
  6
CONTINUOUS
 62
     3
 10
0.000000000000021
 20
0.0000000000000129
 30
0.0
 40
42.9000000000001478
  0
CIRCLE
  5
CEC
  8
0
  6
CONTINUOUS
 62
     3
 10
0.0000000000000355
 20
0.0000000000000169
 30
0.0
 40
46.0000000000001705
  0
CIRCLE
  5
CED
  8
0
  6
CONTINUOUS
 62
     3
 10
0.0000000000000355
 20
0.0000000000000169
 30
0.0
 40
47.7654046703400468
  0
CIRCLE
  5
CEE
  8
0
  6
CONTINUOUS
 62
     3
 10
0.0000000000000327
 20
0.0000000000000162
 30
0.0
 40
51.1000000000001933
  0
CIRCLE
  5
CEF
  8
0
  6
CONTINUOUS
 62
     3
 10
0.0000000000000277
 20
0.0000000000000148
 30
0.0
 40
45.9999458050234367
  0
CIRCLE
  5
CF0
  8
0
  6
VERDECKT
 62
     1
 10
0.0000000000000327
 20
0.0000000000000162
 30
0.0
 40
49.5000000000002274
  0
CIRCLE
  5
CF1
  8
0
  6
VERDECKT
 62
     1
 10
0.0000000000000277
 20
0.0000000000000148
 30
0.0
 40
47.6000000000000725
  0
CIRCLE
  5
CF2
  8
0
  6
VERDECKT
 62
     1
 10
0.000000000000021
 20
0.0000000000000129
 30
0.0
 40
44.5000000000001705
  0
CIRCLE
  5
CF3
  8
0
  6
VERDECKT
 62
     1
 10
0.0000000000000113
 20
0.0000000000000103
 30
0.0
 40
41.5
  0
CIRCLE
  5
CF4
  8
0
  6
VERDECKT
 62
     1
 10
0.0
 20
0.0000000000000071
 30
0.0
 40
41.0625566823704204
  0
ENDBLK
  5
CF6
  8
0
  0
ENDSEC
  0
SECTION
  2
ENTITIES
  0
TEXT
  5
187
  8
VOLL
 10
78.076754716981128
 20
31.025947764705851
 30
0.0
 40
1.8
  1

  7
GREEKS
  0
TEXT
  5
18E
  8
TEXT
 10
117.5648195562657037
 20
35.7516720879264369
 30
0.0
 40
2.5
  1

 41
0.8
  7
GREEKS
  0
TEXT
  5
239
  8
TEXT
 10
117.5648195562657037
 20
26.0579035338742813
 30
0.0
 40
2.5
  1

 41
0.8
  7
GREEKS
  0
TEXT
  5
376
  8
TEXT
 62
     1
 10
183.5447097865134083
 20
30.9883276780703909
 30
0.0
 40
3.5
  1

 41
0.8
  7
GREEKS
 72
     1
 11
183.5447097865134083
 21
30.9883276780703909
 31
0.0
  0
TEXT
  5
381
  8
TEXT
 62
     1
 10
140.1087716325239967
 20
59.1640571545241301
 30
0.0
 40
3.5
  1

 41
0.8
  7
GREEKS
  0
TEXT
  5
87E
  8
VOLL
 10
334.4861636401363967
 20
192.9102110671406933
 30
0.0
 40
1.8
  1

  7
GREEKS
  0
INSERT
  5
CE6
  8
STEMPEL
  2
A$C15013161
 10
0.0
 20
0.0
 30
0.0
  0
INSERT
  5
CF7
  8
STEMPEL
  2
A$C3065366D
 10
-0.0000000000000113
 20
-151.1000000000001933
 30
0.0
  0
VIEWPORT
  5
AA7
 67
     1
  8
0
 10
11.4454188139894395
 20
16.14318433701348
 30
0.0
 40
64.632575537274974
 41
32.9171218041765812
 68
     1
 69
     1
1001
ACAD
1000
MVIEW
1002
{
1070
    16
1010
0.0
1020
0.0
1030
0.0
1010
0.0
1020
0.0
1030
1.0
1040
0.0
1040
32.9171218041765812
1040
11.4454188139894395
1040
16.14318433701348
1040
50.0
1040
0.0
1040
0.0
1070
     0
1070
  1500
1070
     1
1070
     1
1070
     0
1070
     0
1070
     0
1070
     0
1040
0.0
1040
0.0
1040
0.0
1040
10.0
1040
10.0
1040
10.0
1040
10.0
1070
     0
1002
{
1002
}
1002
}
  0
VIEWPORT
  5
AAB
 67
     1
  8
DEFPOINTS
 10
11.4459276831814503
 20
16.1439257135284784
 30
0.0
 40
23.2758852379822407
 41
32.6550702427480033
 68
     2
 69
     2
1001
ACAD
1000
MVIEW
1002
{
1070
    16
1010
456.7118923159422934
1020
166.117114768966303
1030
-22.2420462107690291
1010
0.0
1020
0.0
1030
1.0
1040
0.0
1040
301.8501310935990887
1040
-351.4072404606890245
1040
-17.5356366746776899
1040
50.0
1040
0.0
1040
0.0
1070
     0
1070
  1500
1070
     1
1070
     0
1070
     0
1070
     0
1070
     0
1070
     0
1040
0.0
1040
0.0
1040
0.0
1040
1.0
1040
1.0
1040
10.0
1040
10.0
1070
     0
1002
{
1002
}
1002
}
  0
VIEWPORT
  5
AAF
 67
     1
  8
DEFPOINTS
 10
18.5496297715144003
 20
15.7344577144166795
 30
0.0
 40
6.3890014583793402
 41
9.2559903623945843
 68
     3
 69
     3
1001
ACAD
1000
MVIEW
1002
{
1070
    16
1010
445.3285076152654938
1020
190.0870917055943892
1030
-21.7857920036027899
1010
0.0
1020
65.783777340315396
1030
267.8235660759547159
1040
3.1415926535897931
1040
190.6509427265148986
1040
0.0
1040
0.0
1040
50.0
1040
0.0
1040
0.0
1070
     0
1070
  1500
1070
     1
1070
     0
1070
     0
1070
     0
1070
     0
1070
     0
1040
0.0
1040
0.0
1040
0.0
1040
1.0
1040
1.0
1040
10.0
1040
10.0
1070
     0
1002
{
1002
}
1002
}
  0
ENDSEC
  0
EOF
