  0
SECTION
  2
HEADER
  9
$ACADVER
  1
AC1009
  9
$INSBASE
 10
0.0
 20
0.0
 30
0.0
  9
$EXTMIN
 10
-43.7006753341666965
 20
-42.1183466579401511
 30
53.2245028978498667
  9
$EXTMAX
 10
44.2177046669951324
 20
200.1425149570688973
 30
53.2334291532559121
  9
$LIMMIN
 10
0.0
 20
0.0
  9
$LIMMAX
 10
210.0
 20
297.0
  9
$ORTHOMODE
 70
     1
  9
$REGENMODE
 70
     1
  9
$FILLMODE
 70
     1
  9
$QTEXTMODE
 70
     0
  9
$MIRRTEXT
 70
     1
  9
$DRAGMODE
 70
     2
  9
$LTSCALE
 40
10.0
  9
$OSMODE
 70
  1327
  9
$ATTMODE
 70
     1
  9
$TEXTSIZE
 40
3.5
  9
$TRACEWID
 40
0.5
  9
$TEXTSTYLE
  7
STANDARD
  9
$CLAYER
  8
0
  9
$CELTYPE
  6
BYLAYER
  9
$CECOLOR
 62
   256
  9
$DIMSCALE
 40
1.0
  9
$DIMASZ
 40
3.5
  9
$DIMEXO
 40
1.0
  9
$DIMDLI
 40
7.0
  9
$DIMRND
 40
0.0
  9
$DIMDLE
 40
0.0
  9
$DIMEXE
 40
1.0
  9
$DIMTP
 40
0.0
  9
$DIMTM
 40
0.0
  9
$DIMTXT
 40
3.5
  9
$DIMCEN
 40
1.5
  9
$DIMTSZ
 40
0.0
  9
$DIMTOL
 70
     0
  9
$DIMLIM
 70
     0
  9
$DIMTIH
 70
     0
  9
$DIMTOH
 70
     0
  9
$DIMSE1
 70
     0
  9
$DIMSE2
 70
     0
  9
$DIMTAD
 70
     1
  9
$DIMZIN
 70
     8
  9
$DIMBLK
  1

  9
$DIMASO
 70
     1
  9
$DIMSHO
 70
     0
  9
$DIMPOST
  1

  9
$DIMAPOST
  1

  9
$DIMALT
 70
     0
  9
$DIMALTD
 70
     2
  9
$DIMALTF
 40
25.3999999999999986
  9
$DIMLFAC
 40
1.0
  9
$DIMTOFL
 70
     1
  9
$DIMTVP
 40
0.0
  9
$DIMTIX
 70
     0
  9
$DIMSOXD
 70
     0
  9
$DIMSAH
 70
     0
  9
$DIMBLK1
  1

  9
$DIMBLK2
  1

  9
$DIMSTYLE
  2
STANDARD
  9
$DIMCLRD
 70
     0
  9
$DIMCLRE
 70
     0
  9
$DIMCLRT
 70
     1
  9
$DIMTFAC
 40
0.5142857142857143
  9
$DIMGAP
 40
1.5
  9
$LUNITS
 70
     2
  9
$LUPREC
 70
     2
  9
$SKETCHINC
 40
1.0
  9
$FILLETRAD
 40
8.0
  9
$AUNITS
 70
     0
  9
$AUPREC
 70
     0
  9
$MENU
  1
ACAD
  9
$ELEVATION
 40
0.0
  9
$PELEVATION
 40
0.0
  9
$THICKNESS
 40
0.0
  9
$LIMCHECK
 70
     0
  9
$BLIPMODE
 70
     0
  9
$CHAMFERA
 40
0.0
  9
$CHAMFERB
 40
0.0
  9
$SKPOLY
 70
     0
  9
$TDCREATE
 40
2455397.8646990740671754
  9
$TDUPDATE
 40
2458387.5339004630222917
  9
$TDINDWG
 40
0.0650283449
  9
$TDUSRTIMER
 40
0.0650283449
  9
$USRTIMER
 70
     1
  9
$ANGBASE
 50
0.0
  9
$ANGDIR
 70
     0
  9
$PDMODE
 70
     0
  9
$PDSIZE
 40
0.0
  9
$PLINEWID
 40
0.0
  9
$COORDS
 70
     1
  9
$SPLFRAME
 70
     0
  9
$SPLINETYPE
 70
     6
  9
$SPLINESEGS
 70
     8
  9
$ATTDIA
 70
     0
  9
$ATTREQ
 70
     0
  9
$HANDLING
 70
     1
  9
$HANDSEED
  5
953
  9
$SURFTAB1
 70
     6
  9
$SURFTAB2
 70
     6
  9
$SURFTYPE
 70
     6
  9
$SURFU
 70
     6
  9
$SURFV
 70
     6
  9
$UCSNAME
  2

  9
$UCSORG
 10
0.0
 20
0.0
 30
0.0
  9
$UCSXDIR
 10
1.0
 20
0.0
 30
0.0
  9
$UCSYDIR
 10
0.0
 20
1.0
 30
0.0
  9
$PUCSNAME
  2

  9
$PUCSORG
 10
0.0
 20
0.0
 30
0.0
  9
$PUCSXDIR
 10
1.0
 20
0.0
 30
0.0
  9
$PUCSYDIR
 10
0.0
 20
1.0
 30
0.0
  9
$USERI1
 70
     0
  9
$USERI2
 70
     0
  9
$USERI3
 70
     0
  9
$USERI4
 70
     0
  9
$USERI5
 70
     0
  9
$USERR1
 40
0.0
  9
$USERR2
 40
0.0
  9
$USERR3
 40
0.0
  9
$USERR4
 40
0.0
  9
$USERR5
 40
0.0
  9
$WORLDVIEW
 70
     1
  9
$SHADEDGE
 70
     3
  9
$SHADEDIF
 70
    70
  9
$TILEMODE
 70
     1
  9
$MAXACTVP
 70
    16
  9
$PLIMCHECK
 70
     0
  9
$PEXTMIN
 10
0.0509488757712582
 20
0.0435104526010655
 30
-0.0000000000000058
  9
$PEXTMAX
 10
4.4669949142157668
 20
6.0544432021369872
 30
0.0000000000000104
  9
$PLIMMIN
 10
-0.2500002402958907
 20
-0.2499999962453767
  9
$PLIMMAX
 10
10.7499995194082203
 20
8.2499997634587334
  9
$UNITMODE
 70
     0
  9
$VISRETAIN
 70
     0
  9
$PLINEGEN
 70
     0
  9
$PSLTSCALE
 70
     0
  0
ENDSEC
  0
SECTION
  2
TABLES
  0
TABLE
  2
VPORT
 70
     1
  0
VPORT
  2
*ACTIVE
 70
     0
 10
0.0
 20
0.0
 11
1.0
 21
1.0
 12
0.2585146664142144
 22
41.5621310703407403
 13
0.0
 23
0.0
 14
1.0
 24
1.0
 15
10.0
 25
10.0
 16
-0.0000000000001233
 26
0.0
 36
555.3120325071865864
 17
0.0
 27
37.4499530792236399
 37
58.5
 40
244.0732870136251051
 41
1.8826466916354549
 42
50.0
 43
0.0
 44
0.0
 50
0.0
 51
0.0
 71
     0
 72
  1500
 73
     1
 74
     0
 75
     0
 76
     0
 77
     0
 78
     0
  0
ENDTAB
  0
TABLE
  2
LTYPE
 70
     3
  0
LTYPE
  2
CONTINUOUS
 70
     0
  3
Solid line
 72
    65
 73
     0
 40
0.0
  0
LTYPE
  2
VERDECKT
 70
     0
  3
Verdeckt __ __ __ __ __ __ __ __ __ __ __ __ __
 72
    65
 73
     2
 40
0.375
 49
0.25
 49
-0.125
  0
ENDTAB
  0
TABLE
  2
LAYER
 70
    10
  0
LAYER
  2
0
 70
     0
 62
     7
  6
CONTINUOUS
  0
LAYER
  2
VOLL
 70
     0
 62
     1
  6
CONTINUOUS
  0
LAYER
  2
DEFPOINTS
 70
     0
 62
     7
  6
CONTINUOUS
  0
ENDTAB
  0
TABLE
  2
STYLE
 70
     4
  0
STYLE
  2
STANDARD
 70
     0
 40
0.0
 41
0.8
 50
0.0
 71
     0
 42
3.5
  3
simplex.shx
  4

  0
STYLE
  2
GREEKS
 70
     0
 40
0.0
 41
0.8
 50
0.0
 71
     0
 42
2.5
  3
SIMPLEX.shx
  4

  0
ENDTAB
  0
TABLE
  2
VIEW
 70
     2
  0
ENDTAB
  0
TABLE
  2
UCS
 70
     0
  0
ENDTAB
  0
TABLE
  2
APPID
 70
    17
  0
APPID
  2
ACAD
 70
     0
  0
APPID
  2
MCAD_NO_VIS
 70
     0
  0
APPID
  2
ACAD_TEMP_GRAPHIC
 70
     0
  0
APPID
  2
AD_DRAW
 70
     0
  0
APPID
  2
ACATTRIBSERVICES
 70
     0
  0
APPID
  2
DESIGNERASSEMBLIES
 70
     0
  0
APPID
  2
ACADM_DIM_EDIT
 70
     0
  0
APPID
  2
AMDT_DM_ADJ
 70
     0
  0
APPID
  2
ACAD_NAV_VCDISPLAY
 70
     0
  0
APPID
  2
GRADIENTCOLOR1ACI
 70
     0
  0
APPID
  2
GRADIENTCOLOR2ACI
 70
     0
  0
APPID
  2
ACAECLAYERSTANDARD
 70
     0
  0
APPID
  2
ACCMTRANSPARENCY
 70
     0
  0
APPID
  2
ACAD_EXEMPT_FROM_CAD_STANDARDS
 70
     0
  0
APPID
  2
ACAD_MLEADERVER
 70
     0
  0
APPID
  2
ACAD_PSEXT
 70
     0
  0
APPID
  2
ACAD_OBJECT_CHANGE_GUID
 70
     0
  0
ENDTAB
  0
TABLE
  2
DIMSTYLE
 70
     2
  0
DIMSTYLE
  2
STANDARD
 70
     0
  3

  4

  5

  6

  7

 40
1.0
 41
0.18
 42
0.0625
 43
0.38
 44
0.18
 45
0.0
 46
0.0
 47
0.0
 48
0.0
140
0.18
141
0.09
142
0.0
143
25.3999999999999986
144
1.0
145
0.0
146
1.0
147
0.09
 71
     0
 72
     0
 73
     1
 74
     1
 75
     0
 76
     0
 77
     0
 78
     0
170
     0
171
     2
172
     0
173
     0
174
     0
175
     0
176
     0
177
     0
178
     0
  0
ENDTAB
  0
ENDSEC
  0
SECTION
  2
BLOCKS
  0
BLOCK
  8
0
  2
$MODEL_SPACE
 70
     0
 10
0.0
 20
0.0
 30
0.0
  3
$MODEL_SPACE
  1

  0
ENDBLK
  5
36
  8
0
  0
BLOCK
 67
     1
  8
0
  2
$PAPER_SPACE
 70
     0
 10
0.0
 20
0.0
 30
0.0
  3
$PAPER_SPACE
  1

  0
ENDBLK
  5
34
 67
     1
  8
0
  0
BLOCK
  8
0
  2
A$C02957410
 70
     0
 10
0.0
 20
0.0
 30
0.0
  3
A$C02957410
  1

  0
CIRCLE
  5
8C4
  8
0
  6
CONTINUOUS
 62
     3
 10
-50.0189191954308114
 20
19.3640878687109108
 30
0.0
 40
38.0000000000017835
  0
CIRCLE
  5
8C5
  8
0
  6
CONTINUOUS
 62
     3
 10
-50.0189191954307617
 20
19.3640878687109108
 30
0.0
 40
34.9000000000000625
  0
CIRCLE
  5
8C6
  8
0
  6
CONTINUOUS
 62
     3
 10
-50.0189191954308114
 20
19.3640878687109108
 30
0.0
 40
39.7653973282770465
  0
CIRCLE
  5
8C7
  8
0
  6
CONTINUOUS
 62
     3
 10
-50.0189191954308185
 20
19.3640878687109108
 30
0.0
 40
42.1000000000001293
  0
CIRCLE
  5
8C8
  8
0
  6
CONTINUOUS
 62
     3
 10
-50.0189191954308185
 20
19.3640878687109108
 30
0.0
 40
42.1000932431258619
  0
CIRCLE
  5
8C9
  8
0
  6
VERDECKT
 62
     1
 10
-50.0189191954308185
 20
19.3640878687109108
 30
0.0
 40
40.5000000000000995
  0
CIRCLE
  5
8CA
  8
0
  6
VERDECKT
 62
     1
 10
-50.0189191954307688
 20
19.3640878687109108
 30
0.0
 40
39.9000000000000483
  0
CIRCLE
  5
8CB
  8
0
  6
VERDECKT
 62
     1
 10
-50.0189191954308185
 20
19.3640878687109108
 30
0.0
 40
39.6000000000000583
  0
CIRCLE
  5
8CC
  8
0
  6
VERDECKT
 62
     1
 10
-50.0189191954307617
 20
19.3640878687109108
 30
0.0
 40
36.5000000000000782
  0
CIRCLE
  5
8CD
  8
0
  6
VERDECKT
 62
     1
 10
-50.0189191954307688
 20
19.3640878687109108
 30
0.0
 40
41.5000000000000782
  0
CIRCLE
  5
8CE
  8
0
  6
VERDECKT
 62
     1
 10
-50.0189191954308185
 20
19.3640878687109108
 30
0.0
 40
40.5000932431258391
  0
ENDBLK
  5
8D0
  8
0
  0
BLOCK
  8
0
  2
A$C2BB01E28
 70
     0
 10
0.0
 20
0.0
 30
0.0
  3
A$C2BB01E28
  1

  0
LINE
  5
8D4
  8
0
  6
CONTINUOUS
 62
     3
 10
-39.7653973282771176
 20
116.9999999999965041
 30
-0.000000000000026
 11
39.765397328277011
 21
116.9999999999965041
 31
-0.000000000000026
210
0.0
220
1.0
230
-0.0000000000000002
  0
LINE
  5
8D5
  8
0
  6
CONTINUOUS
 62
     3
 10
-39.6000000000001435
 20
67.3887264174169474
 30
-0.000000000000015
 11
39.6000000000000227
 21
67.3887264174170042
 31
-0.000000000000015
210
0.0
220
1.0
230
-0.0000000000000002
  0
LINE
  5
8D6
  8
0
  6
CONTINUOUS
 62
     3
 10
-41.5000000000001066
 20
-0.0000000000000142
 30
0.0
 11
41.5000000000001066
 21
0.0000000000000142
 31
0.0
210
0.0
220
1.0
230
-0.0000000000000002
  0
ARC
  5
8D7
  8
0
  6
CONTINUOUS
 62
     3
 10
17.1000000000003816
 20
106.4510775928813047
 30
0.0
 40
24.9999999999997904
210
0.0
220
-0.0000000000000002
230
-1.0
 50
0.0000000000000382
 51
24.9581963123067005
  0
ARC
  5
8D8
  8
0
  6
CONTINUOUS
 62
     3
 10
-17.1000000000005095
 20
106.4510775928814041
 30
0.0
 40
24.9999999999995488
210
0.0
220
-0.0000000000000002
230
-1.0
 50
155.0418036876930046
 51
180.0
  0
LINE
  5
8D9
  8
0
  6
CONTINUOUS
 62
     3
 10
42.1000000000000725
 20
106.4510775928813047
 30
-0.0000000000000236
 11
42.1000000000000725
 21
97.4382800481911033
 31
-0.0000000000000216
210
0.0
220
1.0
230
-0.0000000000000002
  0
LINE
  5
8DA
  8
0
  6
CONTINUOUS
 62
     3
 10
-42.1000000000001933
 20
106.4510775928813047
 30
-0.0000000000000236
 11
-42.1000000000001933
 21
97.4382800481910749
 31
-0.0000000000000216
210
0.0
220
1.0
230
-0.0000000000000002
  0
ARC
  5
8DB
  8
0
  6
CONTINUOUS
 62
     3
 10
17.1000000000092989
 20
97.3699999999983845
 30
0.0
 40
25.0000932431166092
210
0.0
220
-0.0000000000000002
230
-1.0
 50
338.8168456069615786
 51
0.1564859543560389
  0
ARC
  5
8DC
  8
0
  6
CONTINUOUS
 62
     3
 10
-17.100000000009139
 20
97.3699999999984129
 30
0.0
 40
25.0000932431166589
210
0.0
220
-0.0000000000000002
230
-1.0
 50
179.8435140456439001
 51
201.183154393038393
  0
ARC
  5
8DD
  8
0
  6
CONTINUOUS
 62
     3
 10
51.5999999999994472
 20
84.0000000000000568
 30
0.0
 40
11.9999999999993197
210
0.0
220
-0.0000000000000002
230
-1.0
 50
158.8168456069610102
 51
180.0000000000003979
  0
ARC
  5
8DE
  8
0
  6
CONTINUOUS
 62
     3
 10
-51.5999999999991772
 20
84.0000000000001137
 30
0.0
 40
11.9999999999991793
210
0.0
220
-0.0000000000000002
230
-1.0
 50
359.9999999999993747
 51
21.1831543930390183
  0
LINE
  5
8DF
  8
0
  6
CONTINUOUS
 62
     3
 10
39.6000000000000227
 20
84.0000000000000142
 30
-0.0000000000000187
 11
39.6000000000000298
 21
67.3887264174170042
 31
-0.000000000000015
210
0.0
220
1.0
230
-0.0000000000000002
  0
LINE
  5
8E0
  8
0
  6
CONTINUOUS
 62
     3
 10
-39.6000000000001506
 20
83.9999999999999574
 30
-0.0000000000000187
 11
-39.6000000000001293
 21
67.3887264174169616
 31
-0.000000000000015
210
0.0
220
1.0
230
-0.0000000000000002
  0
ARC
  5
8E1
  8
0
  6
CONTINUOUS
 62
     3
 10
51.710440406289031
 20
90.3765589879096041
 30
0.0
 40
94.1596355848909354
210
0.0
220
-0.0000000000000002
230
-1.0
 50
194.130827322949898
 51
198.1972367992134991
  0
ARC
  5
8E2
  8
0
  6
CONTINUOUS
 62
     3
 10
-51.7104404062873613
 20
90.3765589879093056
 30
0.0
 40
94.1596355848893865
210
0.0
220
-0.0000000000000002
230
-1.0
 50
341.8027632007862735
 51
345.8691726770499031
  0
ARC
  5
8E3
  8
0
  6
CONTINUOUS
 62
     3
 10
61.2936098838685126
 20
53.2287565553230593
 30
0.0
 40
24.7936098838684416
210
0.0
220
-0.0000000000000002
230
-1.0
 50
161.8027632007866998
 51
180.0
  0
ARC
  5
8E4
  8
0
  6
CONTINUOUS
 62
     3
 10
-61.2936098838680579
 20
53.2287565553232014
 30
0.0
 40
24.7936098838679797
210
0.0
220
-0.0000000000000002
230
-1.0
 50
359.9999999999996021
 51
18.1972367992133393
  0
ARC
  5
8E5
  8
0
  6
CONTINUOUS
 62
     3
 10
44.5000000000002416
 20
53.2287565553230024
 30
0.0
 40
8.0000000000001563
210
0.0
220
-0.0000000000000002
230
-1.0
 50
179.999999999999801
 51
221.4096221092702876
  0
ARC
  5
8E6
  8
0
  6
CONTINUOUS
 62
     3
 10
-44.5000000000002984
 20
53.2287565553230735
 30
0.0
 40
8.0000000000002114
210
0.0
220
-0.0000000000000002
230
-1.0
 50
318.5903778907298829
 51
359.9999999999997726
  0
ARC
  5
8E7
  8
0
  6
CONTINUOUS
 62
     3
 10
29.5000000000003801
 20
40.0000000000000995
 30
0.0
 40
11.9999999999996891
210
0.0
220
-0.0000000000000002
230
-1.0
 50
359.9999999999996021
 51
41.4096221092714387
  0
ARC
  5
8E8
  8
0
  6
CONTINUOUS
 62
     3
 10
-29.5000000000003695
 20
40.0000000000001279
 30
0.0
 40
11.9999999999996998
210
0.0
220
-0.0000000000000002
230
-1.0
 50
138.5903778907284902
 51
180.0000000000003126
  0
LINE
  5
8E9
  8
0
  6
CONTINUOUS
 62
     3
 10
41.5000000000001066
 20
40.0000000000000568
 30
-0.0000000000000089
 11
41.5000000000001066
 21
0.0000000000000142
 31
0.0
210
0.0
220
1.0
230
-0.0000000000000002
  0
LINE
  5
8EA
  8
0
  6
CONTINUOUS
 62
     3
 10
-41.5000000000001066
 20
40.0000000000000071
 30
-0.0000000000000089
 11
-41.5000000000001066
 21
-0.0000000000000213
 31
0.0
210
0.0
220
1.0
230
-0.0000000000000002
  0
LINE
  5
8EB
  8
0
  6
VERDECKT
 62
     1
 10
38.0000000000000711
 20
117.0
 30
-0.000000000000026
 11
38.3076022166590633
 21
116.3403449176108069
 31
-0.0000000000000258
210
0.0
220
1.0
230
-0.0000000000000002
  0
LINE
  5
8EC
  8
0
  6
VERDECKT
 62
     1
 10
-38.0000000000018474
 20
116.9999999999964047
 30
-0.000000000000026
 11
-38.3076022166591912
 21
116.3403449176108069
 31
-0.0000000000000258
210
0.0
220
1.0
230
-0.0000000000000002
  0
ARC
  5
8ED
  8
0
  6
VERDECKT
 62
     1
 10
17.1000000000002501
 20
106.4510775928814041
 30
0.0
 40
23.3999999999998991
210
0.0
220
-0.0000000000000002
230
-1.0
 50
359.9999999999997726
 51
24.9999999999919709
  0
ARC
  5
8EE
  8
0
  6
VERDECKT
 62
     1
 10
-17.0999999999997101
 20
106.4510775928813047
 30
0.0
 40
23.400000000000329
210
0.0
220
-0.0000000000000002
230
-1.0
 50
155.0000000000081002
 51
180.0
  0
LINE
  5
8EF
  8
0
  6
VERDECKT
 62
     1
 10
40.5000000000000568
 20
106.4510775928813047
 30
-0.0000000000000236
 11
40.5000000000000568
 21
97.4360589659275433
 31
-0.0000000000000216
210
0.0
220
1.0
230
-0.0000000000000002
  0
LINE
  5
8F0
  8
0
  6
VERDECKT
 62
     1
 10
-40.5000000000001705
 20
106.4510775928813047
 30
-0.0000000000000236
 11
-40.5000000000001705
 21
97.4360589659275433
 31
-0.0000000000000216
210
0.0
220
1.0
230
-0.0000000000000002
  0
ARC
  5
8F1
  8
0
  6
VERDECKT
 62
     1
 10
17.1000000000101906
 20
97.3699999999980861
 30
0.0
 40
23.4000932431157196
210
0.0
220
-0.0000000000000002
230
-1.0
 50
338.8168456069612944
 51
0.161747431290685
  0
ARC
  5
8F2
  8
0
  6
VERDECKT
 62
     1
 10
-17.1000000000102297
 20
97.3699999999981003
 30
0.0
 40
23.4000932431155597
210
0.0
220
-0.0000000000000002
230
-1.0
 50
179.8382525687092937
 51
201.1831543930389046
  0
ARC
  5
8F3
  8
0
  6
VERDECKT
 62
     1
 10
51.5999999999986301
 20
84.0000000000001137
 30
0.0
 40
13.5999999999985306
210
0.0
220
-0.0000000000000002
230
-1.0
 50
158.8168456069604133
 51
180.000000000000199
  0
ARC
  5
8F4
  8
0
  6
VERDECKT
 62
     1
 10
-51.5999999999980972
 20
84.0000000000002274
 30
0.0
 40
13.5999999999981203
210
0.0
220
-0.0000000000000002
230
-1.0
 50
359.9999999999992042
 51
21.1831543930397785
  0
LINE
  5
8F5
  8
0
  6
VERDECKT
 62
     1
 10
37.9999999999999929
 20
84.0000000000000284
 30
-0.0000000000000187
 11
38.0000000000000071
 21
67.3887264174170326
 31
-0.000000000000015
210
0.0
220
1.0
230
-0.0000000000000002
  0
LINE
  5
8F6
  8
0
  6
VERDECKT
 62
     1
 10
-38.0000000000001208
 20
84.0000000000000284
 30
-0.0000000000000187
 11
-38.0000000000001066
 21
67.3887264174169616
 31
-0.000000000000015
210
0.0
220
1.0
230
-0.0000000000000002
  0
ARC
  5
8F7
  8
0
  6
VERDECKT
 62
     1
 10
27.5999999999986301
 20
67.3887264174173453
 30
0.0
 40
10.4000000000014499
210
0.0
220
-0.0000000000000002
230
-1.0
 50
327.6719358778390188
 51
359.9999999999977831
  0
ARC
  5
8F8
  8
0
  6
VERDECKT
 62
     1
 10
-27.5999999999983494
 20
67.3887264174174305
 30
0.0
 40
10.4000000000016097
210
0.0
220
-0.0000000000000002
230
-1.0
 50
180.0000000000021032
 51
212.3280641221602991
  0
ARC
  5
8F9
  8
0
  6
VERDECKT
 62
     1
 10
44.5000000000001421
 20
56.6934003354314271
 30
0.0
 40
9.6000000000000814
210
0.0
220
-0.0000000000000002
230
-1.0
 50
147.6719358778391893
 51
179.9999999999994884
  0
ARC
  5
8FA
  8
0
  6
VERDECKT
 62
     1
 10
-44.5000000000000995
 20
56.6934003354314981
 30
0.0
 40
9.6000000000000441
210
0.0
220
-0.0000000000000002
230
-1.0
 50
0.0000000000001272
 51
32.3280641221607681
  0
LINE
  5
8FB
  8
0
  6
VERDECKT
 62
     1
 10
34.9000000000000412
 20
56.6934003354315195
 30
-0.0000000000000126
 11
34.9000000000000412
 21
53.228756555323038
 31
-0.0000000000000118
210
0.0
220
1.0
230
-0.0000000000000002
  0
LINE
  5
8FC
  8
0
  6
VERDECKT
 62
     1
 10
-34.9000000000000412
 20
56.6934003354314981
 30
-0.0000000000000126
 11
-34.9000000000000412
 21
53.2287565553230309
 31
-0.0000000000000118
210
0.0
220
1.0
230
-0.0000000000000002
  0
ARC
  5
8FD
  8
0
  6
VERDECKT
 62
     1
 10
44.500000000000469
 20
53.2287565553231801
 30
0.0
 40
9.6000000000004135
210
0.0
220
-0.0000000000000002
230
-1.0
 50
180.0000000000007958
 51
221.4096221092702876
  0
ARC
  5
8FE
  8
0
  6
VERDECKT
 62
     1
 10
-44.5000000000005116
 20
53.2287565553232582
 30
0.0
 40
9.6000000000004651
210
0.0
220
-0.0000000000000002
230
-1.0
 50
318.5903778907298829
 51
359.9999999999986926
  0
ARC
  5
8FF
  8
0
  6
VERDECKT
 62
     1
 10
29.4999999999997407
 20
39.9999999999999787
 30
0.0
 40
10.4000000000003094
210
0.0
220
-0.0000000000000002
230
-1.0
 50
0.0000000000002036
 51
41.4096221092697405
  0
ARC
  5
900
  8
0
  6
VERDECKT
 62
     1
 10
-29.4999999999997584
 20
40.0
 30
0.0
 40
10.4000000000003006
210
0.0
220
-0.0000000000000002
230
-1.0
 50
138.5903778907299113
 51
179.9999999999994884
  0
LINE
  5
901
  8
0
  6
VERDECKT
 62
     1
 10
39.900000000000027
 20
40.0000000000000924
 30
-0.0000000000000089
 11
39.9000000000000412
 21
0.0000000000000142
 31
0.0
210
0.0
220
1.0
230
-0.0000000000000002
  0
LINE
  5
902
  8
0
  6
VERDECKT
 62
     1
 10
-39.9000000000000412
 20
40.0000000000000071
 30
-0.0000000000000089
 11
-39.900000000000027
 21
-0.0000000000000213
 31
0.0
210
0.0
220
1.0
230
-0.0000000000000002
  0
ENDBLK
  5
904
  8
0
  0
ENDSEC
  0
SECTION
  2
ENTITIES
  0
TEXT
  5
8F
  8
VOLL
 10
78.076754716981128
 20
31.025947764705851
 30
0.0
 40
1.8
  1

  7
GREEKS
  0
TEXT
  5
5EF
  8
VOLL
 10
131.9564300898290981
 20
1064.4306510390920266
 30
0.0
 40
1.8
  1

 50
90.0
  7
GREEKS
  0
TEXT
  5
5F0
  8
VOLL
 10
-75.3639779554334268
 20
1185.8334197082729133
 30
0.0
 40
1.8
  1

 50
90.0
  7
GREEKS
  0
TEXT
  5
5F1
  8
VOLL
 10
108.2254460786598003
 20
1515.6666306726929179
 30
0.0
 40
1.8
  1

 50
90.0
  7
GREEKS
  0
TEXT
  5
5F2
  8
VOLL
 10
119.4292698071206047
 20
1511.8343541583549268
 30
0.0
 40
1.8
  1

 50
90.0
  7
GREEKS
  0
INSERT
  5
8D1
  8
0
  2
A$C02957410
 10
50.0189191954307617
 20
-19.3640878687109002
 30
53.2287565553230309
  0
INSERT
  5
905
  8
0
  2
A$C2BB01E28
 10
0.0
 20
83.1344522002836612
 30
53.2287565553230309
  0
VIEWPORT
  5
664
 67
     1
  8
0
 10
2.580136912429289
 20
3.0487747385035902
 30
0.0
 40
11.3983779805202108
 41
6.0544434763903761
 68
     1
 69
     1
1001
ACAD
1000
MVIEW
1002
{
1070
    16
1010
0.0
1020
0.0
1030
0.0
1010
0.0
1020
0.0
1030
1.0
1040
0.0
1040
6.0544434763903761
1040
2.580136912429289
1040
3.0487747385035902
1040
50.0
1040
0.0
1040
0.0
1070
     0
1070
  1500
1070
     1
1070
     1
1070
     0
1070
     0
1070
     0
1070
     0
1040
0.0
1040
0.0
1040
0.0
1040
10.0
1040
10.0
1040
10.0
1040
10.0
1070
     0
1002
{
1002
}
1002
}
  0
ENDSEC
  0
EOF
