  0
SECTION
  2
HEADER
  9
$ACADVER
  1
AC1009
  9
$INSBASE
 10
0.0
 20
0.0
 30
0.0
  9
$EXTMIN
 10
170.4761807588585043
 20
44.1549720696749901
 30
-19.8028652492998987
  9
$EXTMAX
 10
255.2842634746577914
 20
238.1205080499742053
 30
-19.8028652492998809
  9
$LIMMIN
 10
0.0
 20
0.0
  9
$LIMMAX
 10
210.0
 20
297.0
  9
$ORTHOMODE
 70
     1
  9
$REGENMODE
 70
     1
  9
$FILLMODE
 70
     1
  9
$QTEXTMODE
 70
     0
  9
$MIRRTEXT
 70
     1
  9
$DRAGMODE
 70
     2
  9
$LTSCALE
 40
10.0
  9
$OSMODE
 70
  2495
  9
$ATTMODE
 70
     1
  9
$TEXTSIZE
 40
3.5
  9
$TRACEWID
 40
0.5
  9
$TEXTSTYLE
  7
STANDARD
  9
$CLAYER
  8
STEMPEL
  9
$CELTYPE
  6
BYLAYER
  9
$CECOLOR
 62
   256
  9
$DIMSCALE
 40
1.0
  9
$DIMASZ
 40
3.5
  9
$DIMEXO
 40
1.0
  9
$DIMDLI
 40
7.0
  9
$DIMRND
 40
0.0
  9
$DIMDLE
 40
0.0
  9
$DIMEXE
 40
1.0
  9
$DIMTP
 40
0.0
  9
$DIMTM
 40
0.0
  9
$DIMTXT
 40
3.5
  9
$DIMCEN
 40
1.5
  9
$DIMTSZ
 40
0.0
  9
$DIMTOL
 70
     0
  9
$DIMLIM
 70
     0
  9
$DIMTIH
 70
     0
  9
$DIMTOH
 70
     0
  9
$DIMSE1
 70
     0
  9
$DIMSE2
 70
     0
  9
$DIMTAD
 70
     1
  9
$DIMZIN
 70
     8
  9
$DIMBLK
  1

  9
$DIMASO
 70
     1
  9
$DIMSHO
 70
     0
  9
$DIMPOST
  1

  9
$DIMAPOST
  1

  9
$DIMALT
 70
     0
  9
$DIMALTD
 70
     2
  9
$DIMALTF
 40
25.3999999999999986
  9
$DIMLFAC
 40
1.0
  9
$DIMTOFL
 70
     1
  9
$DIMTVP
 40
0.0
  9
$DIMTIX
 70
     0
  9
$DIMSOXD
 70
     0
  9
$DIMSAH
 70
     0
  9
$DIMBLK1
  1

  9
$DIMBLK2
  1

  9
$DIMSTYLE
  2
STANDARD
  9
$DIMCLRD
 70
     0
  9
$DIMCLRE
 70
     0
  9
$DIMCLRT
 70
     1
  9
$DIMTFAC
 40
0.5
  9
$DIMGAP
 40
1.5
  9
$LUNITS
 70
     2
  9
$LUPREC
 70
     2
  9
$SKETCHINC
 40
1.0
  9
$FILLETRAD
 40
0.0
  9
$AUNITS
 70
     0
  9
$AUPREC
 70
     0
  9
$MENU
  1
ACAD
  9
$ELEVATION
 40
0.0
  9
$PELEVATION
 40
0.0
  9
$THICKNESS
 40
0.0
  9
$LIMCHECK
 70
     0
  9
$BLIPMODE
 70
     0
  9
$CHAMFERA
 40
0.0
  9
$CHAMFERB
 40
0.0
  9
$SKPOLY
 70
     0
  9
$TDCREATE
 40
2455397.8646990740671754
  9
$TDUPDATE
 40
2459228.618159722071141
  9
$TDINDWG
 40
0.1118790741
  9
$TDUSRTIMER
 40
0.1118790741
  9
$USRTIMER
 70
     1
  9
$ANGBASE
 50
0.0
  9
$ANGDIR
 70
     0
  9
$PDMODE
 70
     0
  9
$PDSIZE
 40
0.0
  9
$PLINEWID
 40
0.0
  9
$COORDS
 70
     1
  9
$SPLFRAME
 70
     0
  9
$SPLINETYPE
 70
     6
  9
$SPLINESEGS
 70
     8
  9
$ATTDIA
 70
     1
  9
$ATTREQ
 70
     1
  9
$HANDLING
 70
     1
  9
$HANDSEED
  5
10AD
  9
$SURFTAB1
 70
     6
  9
$SURFTAB2
 70
     6
  9
$SURFTYPE
 70
     6
  9
$SURFU
 70
     6
  9
$SURFV
 70
     6
  9
$UCSNAME
  2

  9
$UCSORG
 10
0.0
 20
0.0
 30
0.0
  9
$UCSXDIR
 10
1.0
 20
0.0
 30
0.0
  9
$UCSYDIR
 10
0.0
 20
1.0
 30
0.0
  9
$PUCSNAME
  2

  9
$PUCSORG
 10
0.0
 20
0.0
 30
0.0
  9
$PUCSXDIR
 10
1.0
 20
0.0
 30
0.0
  9
$PUCSYDIR
 10
0.0
 20
1.0
 30
0.0
  9
$USERI1
 70
     0
  9
$USERI2
 70
     0
  9
$USERI3
 70
     0
  9
$USERI4
 70
     0
  9
$USERI5
 70
     0
  9
$USERR1
 40
0.0
  9
$USERR2
 40
0.0
  9
$USERR3
 40
0.0
  9
$USERR4
 40
0.0
  9
$USERR5
 40
0.0
  9
$WORLDVIEW
 70
     1
  9
$SHADEDGE
 70
     3
  9
$SHADEDIF
 70
    70
  9
$TILEMODE
 70
     1
  9
$MAXACTVP
 70
    16
  9
$PLIMCHECK
 70
     0
  9
$PEXTMIN
 10
1.0000000000000000E+20
 20
1.0000000000000000E+20
 30
1.0000000000000000E+20
  9
$PEXTMAX
 10
-1.0000000000000000E+20
 20
-1.0000000000000000E+20
 30
-1.0000000000000000E+20
  9
$PLIMMIN
 10
0.1666646776424017
 20
-0.0087988034865951
  9
$PLIMMAX
 10
210.1666646776423875
 20
296.9912011965134866
  9
$UNITMODE
 70
     0
  9
$VISRETAIN
 70
     0
  9
$PLINEGEN
 70
     0
  9
$PSLTSCALE
 70
     0
  0
ENDSEC
  0
SECTION
  2
TABLES
  0
TABLE
  2
VPORT
 70
     1
  0
VPORT
  2
*ACTIVE
 70
     0
 10
0.0
 20
0.0
 11
1.0
 21
1.0
 12
-0.0000245571233393
 22
-68.2552068904426363
 13
0.0
 23
0.0
 14
1.0
 24
1.0
 15
10.0
 25
10.0
 16
-0.0000000000000853
 26
0.0
 36
361.7905288573440998
 17
212.8802466738814871
 27
209.3929469502672021
 37
-9.9014326246499405
 40
195.3526554271190037
 41
1.7852028639618129
 42
50.0
 43
0.0
 44
0.0
 50
0.0
 51
0.0
 71
     0
 72
  1500
 73
     1
 74
     0
 75
     0
 76
     0
 77
     0
 78
     0
  0
ENDTAB
  0
TABLE
  2
LTYPE
 70
     5
  0
LTYPE
  2
CONTINUOUS
 70
     0
  3
Solid line
 72
    65
 73
     0
 40
0.0
  0
LTYPE
  2
PHANTOM2
 70
     0
  3
Phantom (.5x) ___ _ _ ___ _ _ ___ _ _ ___ _ _
 72
    65
 73
     6
 40
1.25
 49
0.625
 49
-0.125
 49
0.125
 49
-0.125
 49
0.125
 49
-0.125
  0
LTYPE
  2
VERDECKT
 70
     0
  3
Verdeckt __ __ __ __ __ __ __ __ __ __ __ __ __
 72
    65
 73
     2
 40
0.375
 49
0.25
 49
-0.125
  0
ENDTAB
  0
TABLE
  2
LAYER
 70
    11
  0
LAYER
  2
0
 70
     0
 62
     7
  6
CONTINUOUS
  0
LAYER
  2
VOLL
 70
     0
 62
     1
  6
CONTINUOUS
  0
LAYER
  2
STEMPEL
 70
     0
 62
     3
  6
CONTINUOUS
  0
LAYER
  2
DEFPOINTS
 70
     0
 62
     7
  6
CONTINUOUS
  0
LAYER
  2
ADSK_ASSOC_ENTITY_BACKUPS
 70
     1
 62
    -7
  6
CONTINUOUS
  0
ENDTAB
  0
TABLE
  2
STYLE
 70
     4
  0
STYLE
  2
STANDARD
 70
     0
 40
0.0
 41
0.8
 50
0.0
 71
     0
 42
3.5
  3
simplex.shx
  4

  0
STYLE
  2
GREEKS
 70
     0
 40
0.0
 41
0.8
 50
0.0
 71
     0
 42
2.5
  3
SIMPLEX.shx
  4

  0
ENDTAB
  0
TABLE
  2
VIEW
 70
     1
  0
ENDTAB
  0
TABLE
  2
UCS
 70
     0
  0
ENDTAB
  0
TABLE
  2
APPID
 70
    15
  0
APPID
  2
ACAD
 70
     0
  0
APPID
  2
ACAD_NAV_VCDISPLAY
 70
     0
  0
APPID
  2
ACAD_MLEADERVER
 70
     0
  0
APPID
  2
ACAD_EXEMPT_FROM_CAD_STANDARDS
 70
     0
  0
APPID
  2
ACAD_PSEXT
 70
     0
  0
APPID
  2
ACAECLAYERSTANDARD
 70
     0
  0
APPID
  2
ACAUTHENVIRON
 70
     0
  0
APPID
  2
ACAD_DSTYLE_DIMRADIAL_EXTENSION
 70
     0
  0
APPID
  2
ACCMTRANSPARENCY
 70
     0
  0
APPID
  2
ACSYNERGY
 70
     0
  0
APPID
  2
SYNERGY_BODY_TBR_ID
 70
     0
  0
APPID
  2
ACAD_VIEW_EDGE_ID
 70
     0
  0
APPID
  2
ACADANNOMONITORALERTICONDI
 70
     0
  0
APPID
  2
ACAD_STEPID
 70
     0
  0
APPID
  2
AcDbAttr
 70
     0
  0
ENDTAB
  0
TABLE
  2
DIMSTYLE
 70
     2
  0
DIMSTYLE
  2
STANDARD
 70
     0
  3

  4

  5

  6

  7

 40
1.0
 41
0.18
 42
0.0625
 43
0.38
 44
0.18
 45
0.0
 46
0.0
 47
0.0
 48
0.0
140
0.18
141
0.09
142
0.0
143
25.3999999999999986
144
1.0
145
0.0
146
1.0
147
0.09
 71
     0
 72
     0
 73
     1
 74
     1
 75
     0
 76
     0
 77
     0
 78
     0
170
     0
171
     2
172
     0
173
     0
174
     0
175
     0
176
     0
177
     0
178
     0
  0
ENDTAB
  0
ENDSEC
  0
SECTION
  2
BLOCKS
  0
BLOCK
  8
0
  2
$MODEL_SPACE
 70
     0
 10
0.0
 20
0.0
 30
0.0
  3
$MODEL_SPACE
  1

  0
ENDBLK
  5
36
  8
0
  0
BLOCK
 67
     1
  8
0
  2
$PAPER_SPACE
 70
     0
 10
0.0
 20
0.0
 30
0.0
  3
$PAPER_SPACE
  1

  0
ENDBLK
  5
34
 67
     1
  8
0
  0
BLOCK
  8
0
  2
*S4
 70
     1
 10
0.0
 20
0.0
 30
0.0
  3
*S4
  1

  0
ENDBLK
  5
B38
  8
0
  0
BLOCK
  8
0
  2
A$CD9A8CD4B
 70
     0
 10
0.0
 20
0.0
 30
0.0
  3
A$CD9A8CD4B
  1

  0
CIRCLE
  5
1024
  8
0
 10
90.2962667941950485
 20
163.7180775734829012
 30
0.0000000000000213
 40
39.824540206369818
  0
CIRCLE
  5
1025
  8
0
 10
90.2962667941950343
 20
163.7180775734829012
 30
0.0000000000000213
 40
35.3336678383717029
  0
CIRCLE
  5
1026
  8
0
 10
90.2962667941950485
 20
163.7180775734829012
 30
0.0000000000000213
 40
35.9400000000000333
  0
CIRCLE
  5
1027
  8
0
 10
90.2962667941950485
 20
163.7180775734829012
 30
0.0000000000000213
 40
38.3727296331621517
  0
CIRCLE
  5
1028
  8
0
 10
90.2962667941950485
 20
163.7180775734829012
 30
0.0000000000000213
 40
42.1400442031756413
  0
CIRCLE
  5
1029
  8
0
  6
VERDECKT
 62
     1
 10
90.2962667941950343
 20
163.7180775734829012
 30
0.0000000000000213
 40
36.9275793553185565
  0
CIRCLE
  5
102A
  8
0
  6
VERDECKT
 62
     1
 10
90.2962667941950485
 20
163.7180775734829012
 30
0.0000000000000213
 40
40.539999999999992
  0
ENDBLK
  5
102C
  8
0
  0
BLOCK
  8
0
  2
A$CB6C4C3A1
 70
     0
 10
0.0
 20
0.0
 30
0.0
  3
A$CB6C4C3A1
  1

  0
LINE
  5
1030
  8
0
 10
53.3686874388764707
 20
-43.4993858542068423
 30
0.0000000000000097
 11
127.223846149513605
 21
-43.4993858542068423
 31
0.0000000000000097
210
0.0
220
1.0
230
-0.0000000000000002
  0
LINE
  5
1031
  8
0
 10
50.4717265878252306
 20
43.4993858542068281
 30
-0.0000000000000097
 11
130.1208070005648096
 21
43.4993858542068281
 31
-0.0000000000000097
210
0.0
220
1.0
230
-0.0000000000000002
  0
ARC
  5
1032
  8
0
 10
-61.3965065719592289
 20
-36.5838445097066511
 30
0.0
 40
8.5999999999986052
210
0.0
220
-0.0000000000000002
230
-1.0
 50
354.9999999999994884
 51
359.9533345485863265
  0
ARC
  5
1033
  8
0
 10
-119.1960270164232014
 20
-36.5838445097063172
 30
0.0
 40
8.6000000000061956
210
0.0
220
-0.0000000000000002
230
-1.0
 50
180.0466654514158904
 51
184.9999999999982094
  0
LINE
  5
1034
  8
0
 10
52.7965094243848085
 20
-36.5908489145895075
 30
0.0000000000000081
 11
52.756266794195021
 21
12.8189882704647307
 31
-0.0000000000000028
210
0.0
220
1.0
230
-0.0000000000000002
  0
LINE
  5
1035
  8
0
 10
127.7960241640053027
 20
-36.5908489145895075
 30
0.0000000000000081
 11
127.8362667941949979
 21
12.8189882704647307
 31
-0.0000000000000028
210
0.0
220
1.0
230
-0.0000000000000002
  0
LINE
  5
1036
  8
0
 10
53.3686874388764778
 20
-43.4993858542068423
 30
0.0000000000000097
 11
52.8292321683716466
 21
-37.3333838973364678
 31
0.0000000000000083
210
0.0
220
1.0
230
-0.0000000000000002
  0
LINE
  5
1037
  8
0
 10
127.223846149513605
 20
-43.4993858542068423
 30
0.0000000000000097
 11
127.7633014200183936
 21
-37.3333838973364678
 31
0.0000000000000083
210
0.0
220
1.0
230
-0.0000000000000002
  0
ARC
  5
1038
  8
0
 10
-72.1331889405472708
 20
33.2995928143167035
 30
0.0
 40
23.9427385508630799
210
0.0
220
-0.0000000000000002
230
-1.0
 50
8.2844612825918418
 51
25.2144696630837295
  0
ARC
  5
1039
  8
0
 10
-108.4593446478426984
 20
33.2995928143166822
 30
0.0
 40
23.9427385508632007
210
0.0
220
-0.0000000000000002
230
-1.0
 50
154.7855303369163096
 51
171.7155387174080943
  0
ARC
  5
103A
  8
0
 10
-74.7554246068055903
 20
32.9177762625049581
 30
0.0
 40
26.5926260519911217
210
0.0
220
-0.0000000000000002
230
-1.0
 50
0.1150819798802554
 51
8.2844612825916357
  0
ARC
  5
103B
  8
0
 10
-105.8371089815843931
 20
32.9177762625049581
 30
0.0
 40
26.5926260519912105
210
0.0
220
-0.0000000000000002
230
-1.0
 50
171.7155387174084069
 51
179.8849180201196987
  0
LINE
  5
103C
  8
0
 10
132.4296813921303908
 20
32.9711890971773371
 30
-0.0000000000000073
 11
132.436260418622112
 21
29.6956984881470412
 31
-0.0000000000000066
210
0.0
220
1.0
230
-0.0000000000000002
  0
LINE
  5
103D
  8
0
 10
48.1628521962596423
 20
32.9711890971773371
 30
-0.0000000000000073
 11
48.1562731697679709
 21
29.6956984881470412
 31
-0.0000000000000066
210
0.0
220
1.0
230
-0.0000000000000002
  0
ARC
  5
103E
  8
0
 10
-73.230523681077571
 20
29.6453352973879802
 30
0.0
 40
25.0743010900581709
210
0.0
220
-0.0000000000000002
230
-1.0
 50
329.4310914654685121
 51
0.1150819798795684
  0
ARC
  5
103F
  8
0
 10
-107.362009907312796
 20
29.6453352973879305
 30
0.0
 40
25.0743010900578511
210
0.0
220
-0.0000000000000002
230
-1.0
 50
179.8849180201202955
 51
210.5689085345318006
  0
ARC
  5
1040
  8
0
 10
-44.7323909722357769
 20
12.8124530967869994
 30
0.0
 40
8.0238784832970271
210
0.0
220
-0.0000000000000002
230
-1.0
 50
149.4310914654680005
 51
179.9533345485857012
  0
ARC
  5
1041
  8
0
 10
-135.8601426161544055
 20
12.8124530967869799
 30
0.0
 40
8.0238784832970982
210
0.0
220
-0.0000000000000002
230
-1.0
 50
0.0466654514143989
 51
30.5689085345317189
  0
LINE
  5
1042
  8
0
  6
VERDECKT
 62
     1
 10
54.9625989558233528
 20
-43.3599366658105723
 30
0.0000000000000096
 11
125.6299346325667017
 21
-43.3599366658105723
 31
0.0000000000000096
210
0.0
220
1.0
230
-0.0000000000000002
  0
LINE
  5
1043
  8
0
  6
VERDECKT
 62
     1
 10
51.9235371610328684
 20
42.8268934308127882
 30
-0.0000000000000095
 11
128.6689964273572002
 21
42.8268934308127882
 31
-0.0000000000000095
210
0.0
220
1.0
230
-0.0000000000000002
  0
LINE
  5
1044
  8
0
  6
VERDECKT
 62
     1
 10
125.6299346325667017
 20
-43.3599366658105723
 30
0.0000000000000096
 11
127.223846149513605
 21
-43.4993858542068423
 31
0.0000000000000097
210
0.0
220
1.0
230
-0.0000000000000002
  0
LINE
  5
1045
  8
0
  6
VERDECKT
 62
     1
 10
54.9625989558233528
 20
-43.3599366658105723
 30
0.0000000000000096
 11
53.368687438876492
 21
-43.4993858542068423
 31
0.0000000000000097
210
0.0
220
1.0
230
-0.0000000000000002
  0
LINE
  5
1046
  8
0
  6
VERDECKT
 62
     1
 10
54.962598955823367
 20
-43.3599366658105723
 30
0.0000000000000096
 11
54.3825233773620127
 21
-36.7296424644433515
 31
0.0000000000000082
210
0.0
220
1.0
230
-0.0000000000000002
  0
LINE
  5
1047
  8
0
  6
VERDECKT
 62
     1
 10
125.6299346325667017
 20
-43.3599366658105723
 30
0.0000000000000096
 11
126.2100102110281057
 21
-36.7296424644433515
 31
0.0000000000000082
210
0.0
220
1.0
230
-0.0000000000000002
  0
ARC
  5
1048
  8
0
  6
VERDECKT
 62
     1
 10
-61.2562667942112213
 20
-36.1282678394836623
 30
0.0
 40
6.9000000000161981
210
0.0
220
-0.0000000000000002
230
-1.0
 50
355.000000000004718
 51
359.9999999999932925
  0
ARC
  5
1049
  8
0
  6
VERDECKT
 62
     1
 10
-119.336266794178897
 20
-36.1282678394836623
 30
0.0
 40
6.900000000016191
210
0.0
220
-0.0000000000000002
230
-1.0
 50
180.0000000000067075
 51
184.9999999999953104
  0
LINE
  5
104A
  8
0
  6
VERDECKT
 62
     1
 10
126.2362667941951031
 20
12.7219918546959505
 30
-0.0000000000000028
 11
126.2362667941951031
 21
-36.1282678394844794
 31
0.000000000000008
210
0.0
220
1.0
230
-0.0000000000000002
  0
LINE
  5
104B
  8
0
  6
VERDECKT
 62
     1
 10
54.3562667941950224
 20
12.7219918546959505
 30
-0.0000000000000028
 11
54.3562667941950224
 21
-36.1282678394844794
 31
0.000000000000008
210
0.0
220
1.0
230
-0.0000000000000002
  0
ARC
  5
104C
  8
0
  6
VERDECKT
 62
     1
 10
-44.3983815767114933
 20
12.7219918546959008
 30
0.0
 40
9.9578852174835237
210
0.0
220
-0.0000000000000002
230
-1.0
 50
149.9528349872240085
 51
179.9999999999996874
  0
ARC
  5
104D
  8
0
  6
VERDECKT
 62
     1
 10
-136.1941520116787103
 20
12.7219918546958493
 30
0.0
 40
9.9578852174836356
210
0.0
220
-0.0000000000000002
230
-1.0
 50
0.0000000000005598
 51
30.04716501277586
  0
ARC
  5
104E
  8
0
  6
VERDECKT
 62
     1
 10
-74.031953471221783
 20
29.8634832444110891
 30
0.0
 40
24.2762981420007513
210
0.0
220
-0.0000000000000002
230
-1.0
 50
329.9528349872235822
 51
359.5933384581243786
  0
ARC
  5
104F
  8
0
  6
VERDECKT
 62
     1
 10
-106.5605801171683993
 20
29.8634832444110501
 30
0.0
 40
24.2762981420006305
210
0.0
220
-0.0000000000000002
230
-1.0
 50
180.4066615418753941
 51
210.0471650127763894
  0
LINE
  5
1050
  8
0
  6
VERDECKT
 62
     1
 10
130.8362667941950122
 20
31.3414366962244983
 30
-0.000000000000007
 11
130.8362667941950122
 21
29.6911816537741302
 31
-0.0000000000000066
210
0.0
220
1.0
230
-0.0000000000000002
  0
LINE
  5
1051
  8
0
  6
VERDECKT
 62
     1
 10
49.7562667941950494
 20
31.3414366962244983
 30
-0.000000000000007
 11
49.7562667941950494
 21
29.6911816537741302
 31
-0.0000000000000066
210
0.0
220
1.0
230
-0.0000000000000002
  0
ARC
  5
1052
  8
0
  6
VERDECKT
 62
     1
 10
-79.4851514821025944
 20
31.3414366962233899
 30
0.0
 40
51.3511153120924675
210
0.0
220
-0.0000000000000002
230
-1.0
 50
174.3416159645746859
 51
179.9999999999986926
  0
ARC
  5
1053
  8
0
  6
VERDECKT
 62
     1
 10
-101.1073821062788056
 20
31.3414366962240187
 30
0.0
 40
51.3511153120837704
210
0.0
220
-0.0000000000000002
230
-1.0
 50
0.0000000000005343
 51
5.6583840354254793
  0
ARC
  5
1054
  8
0
  6
VERDECKT
 62
     1
 10
-67.5442187158050018
 20
34.6668665563904383
 30
0.0
 40
17.6236128766746383
210
0.0
220
-0.0000000000000002
230
-1.0
 50
5.6583840354263177
 51
27.5819408749524904
  0
ARC
  5
1055
  8
0
  6
VERDECKT
 62
     1
 10
-113.0483148725850953
 20
34.6668665563904383
 30
0.0
 40
17.6236128766746596
210
0.0
220
-0.0000000000000002
230
-1.0
 50
152.4180591250475061
 51
174.3416159645736911
  0
LINE
  5
1056
  8
0
  6
VERDECKT
 62
     1
 10
51.9235371610328968
 20
42.8268934308128024
 30
-0.0000000000000095
 11
50.4717265878252306
 21
43.4993858542068281
 31
-0.0000000000000097
210
0.0
220
1.0
230
-0.0000000000000002
  0
LINE
  5
1057
  8
0
  6
VERDECKT
 62
     1
 10
128.6689964273572002
 20
42.8268934308128024
 30
-0.0000000000000095
 11
130.1208070005648096
 21
43.4993858542068281
 31
-0.0000000000000097
210
0.0
220
1.0
230
-0.0000000000000002
  0
ENDBLK
  5
1059
  8
0
  0
ENDSEC
  0
SECTION
  2
ENTITIES
  0
TEXT
  5
8F
  8
VOLL
 10
78.076754716981128
 20
31.025947764705851
 30
0.0
 40
1.8
  1

  7
GREEKS
  0
INSERT
  5
B3A
  8
ADSK_ASSOC_ENTITY_BACKUPS
  2
*S4
 10
0.0
 20
0.0
 30
0.0
  0
INSERT
  5
102D
  8
STEMPEL
  2
A$CD9A8CD4B
 10
122.8479524772869951
 20
-77.4230613006322557
 30
-19.8028652492998987
  0
INSERT
  5
105A
  8
STEMPEL
  2
A$CB6C4C3A1
 10
122.3199581678391041
 20
194.621122195767299
 30
-19.8028652492998916
  0
VIEWPORT
  5
928
 67
     1
  8
0
 10
105.1666646776424017
 20
148.4912011965134013
 30
0.0
 40
533.9969448798291296
 41
299.1239570917758783
 68
     1
 69
     1
1001
ACAD
1000
MVIEW
1002
{
1070
    16
1010
0.0
1020
0.0
1030
0.0
1010
0.0
1020
0.0
1030
1.0
1040
0.0
1040
299.1239570917758783
1040
105.1666646776424017
1040
148.4912011965134013
1040
50.0
1040
0.0
1040
0.0
1070
     0
1070
  1500
1070
     1
1070
     1
1070
     0
1070
     0
1070
     0
1070
     0
1040
0.0
1040
0.0
1040
0.0
1040
10.0
1040
10.0
1040
10.0
1040
10.0
1070
     0
1002
{
1002
}
1002
}
  0
ENDSEC
  0
EOF
