  0
SECTION
  2
HEADER
  9
$ACADVER
  1
AC1009
  9
$INSBASE
 10
0.0
 20
0.0
 30
0.0
  9
$EXTMIN
 10
-43.7006753341678404
 20
-184.2051492436706894
 30
-0.0048824399767682
  9
$EXTMAX
 10
44.2177046669943365
 20
160.0260322189579085
 30
0.0073244050229278
  9
$LIMMIN
 10
0.0
 20
0.0
  9
$LIMMAX
 10
210.0
 20
297.0
  9
$ORTHOMODE
 70
     1
  9
$REGENMODE
 70
     1
  9
$FILLMODE
 70
     1
  9
$QTEXTMODE
 70
     0
  9
$MIRRTEXT
 70
     1
  9
$DRAGMODE
 70
     2
  9
$LTSCALE
 40
10.0
  9
$OSMODE
 70
  2559
  9
$ATTMODE
 70
     1
  9
$TEXTSIZE
 40
3.5
  9
$TRACEWID
 40
0.5
  9
$TEXTSTYLE
  7
STANDARD
  9
$CLAYER
  8
STEMPEL
  9
$CELTYPE
  6
BYLAYER
  9
$CECOLOR
 62
   256
  9
$DIMSCALE
 40
1.0
  9
$DIMASZ
 40
3.5
  9
$DIMEXO
 40
1.0
  9
$DIMDLI
 40
7.0
  9
$DIMRND
 40
0.0
  9
$DIMDLE
 40
0.0
  9
$DIMEXE
 40
1.0
  9
$DIMTP
 40
2.0
  9
$DIMTM
 40
1.0
  9
$DIMTXT
 40
3.5
  9
$DIMCEN
 40
1.5
  9
$DIMTSZ
 40
0.0
  9
$DIMTOL
 70
     1
  9
$DIMLIM
 70
     0
  9
$DIMTIH
 70
     0
  9
$DIMTOH
 70
     0
  9
$DIMSE1
 70
     0
  9
$DIMSE2
 70
     0
  9
$DIMTAD
 70
     1
  9
$DIMZIN
 70
     8
  9
$DIMBLK
  1

  9
$DIMASO
 70
     1
  9
$DIMSHO
 70
     0
  9
$DIMPOST
  1

  9
$DIMAPOST
  1

  9
$DIMALT
 70
     0
  9
$DIMALTD
 70
     2
  9
$DIMALTF
 40
25.3999999999999986
  9
$DIMLFAC
 40
1.0
  9
$DIMTOFL
 70
     1
  9
$DIMTVP
 40
0.0
  9
$DIMTIX
 70
     0
  9
$DIMSOXD
 70
     0
  9
$DIMSAH
 70
     0
  9
$DIMBLK1
  1

  9
$DIMBLK2
  1

  9
$DIMSTYLE
  2
STANDARD
  9
$DIMCLRD
 70
     0
  9
$DIMCLRE
 70
     0
  9
$DIMCLRT
 70
     1
  9
$DIMTFAC
 40
0.5
  9
$DIMGAP
 40
1.5
  9
$LUNITS
 70
     2
  9
$LUPREC
 70
     2
  9
$SKETCHINC
 40
1.0
  9
$FILLETRAD
 40
0.0
  9
$AUNITS
 70
     0
  9
$AUPREC
 70
     0
  9
$MENU
  1
ACAD
  9
$ELEVATION
 40
0.0
  9
$PELEVATION
 40
0.0
  9
$THICKNESS
 40
0.0
  9
$LIMCHECK
 70
     0
  9
$BLIPMODE
 70
     0
  9
$CHAMFERA
 40
0.0
  9
$CHAMFERB
 40
0.0
  9
$SKPOLY
 70
     0
  9
$TDCREATE
 40
2455397.8646990740671754
  9
$TDUPDATE
 40
2458376.3314467598684132
  9
$TDINDWG
 40
0.0961399537
  9
$TDUSRTIMER
 40
0.0961399537
  9
$USRTIMER
 70
     1
  9
$ANGBASE
 50
0.0
  9
$ANGDIR
 70
     0
  9
$PDMODE
 70
     0
  9
$PDSIZE
 40
0.0
  9
$PLINEWID
 40
0.0
  9
$COORDS
 70
     1
  9
$SPLFRAME
 70
     0
  9
$SPLINETYPE
 70
     6
  9
$SPLINESEGS
 70
     8
  9
$ATTDIA
 70
     1
  9
$ATTREQ
 70
     1
  9
$HANDLING
 70
     1
  9
$HANDSEED
  5
D8C
  9
$SURFTAB1
 70
     6
  9
$SURFTAB2
 70
     6
  9
$SURFTYPE
 70
     6
  9
$SURFU
 70
     6
  9
$SURFV
 70
     6
  9
$UCSNAME
  2

  9
$UCSORG
 10
0.0
 20
0.0
 30
0.0
  9
$UCSXDIR
 10
1.0
 20
0.0
 30
0.0
  9
$UCSYDIR
 10
0.0
 20
1.0
 30
0.0
  9
$PUCSNAME
  2

  9
$PUCSORG
 10
0.0
 20
0.0
 30
0.0
  9
$PUCSXDIR
 10
1.0
 20
0.0
 30
0.0
  9
$PUCSYDIR
 10
0.0
 20
1.0
 30
0.0
  9
$USERI1
 70
     0
  9
$USERI2
 70
     0
  9
$USERI3
 70
     0
  9
$USERI4
 70
     0
  9
$USERI5
 70
     0
  9
$USERR1
 40
0.0
  9
$USERR2
 40
0.0
  9
$USERR3
 40
0.0
  9
$USERR4
 40
0.0
  9
$USERR5
 40
0.0
  9
$WORLDVIEW
 70
     1
  9
$SHADEDGE
 70
     3
  9
$SHADEDIF
 70
    70
  9
$TILEMODE
 70
     1
  9
$MAXACTVP
 70
    16
  9
$PLIMCHECK
 70
     0
  9
$PEXTMIN
 10
-0.1808335732785657
 20
-0.1963974661444396
 30
-0.0000000000000058
  9
$PEXTMAX
 10
14.4676711315227102
 20
20.659115591351199
 30
0.0000000000000104
  9
$PLIMMIN
 10
-0.2500002402958907
 20
-0.2499999962453767
  9
$PLIMMAX
 10
10.7499995194082203
 20
8.2499997634587334
  9
$UNITMODE
 70
     0
  9
$VISRETAIN
 70
     0
  9
$PLINEGEN
 70
     0
  9
$PSLTSCALE
 70
     0
  0
ENDSEC
  0
SECTION
  2
TABLES
  0
TABLE
  2
VPORT
 70
     1
  0
VPORT
  2
*ACTIVE
 70
     0
 10
0.0
 20
0.0
 11
1.0
 21
1.0
 12
0.2584669826974277
 22
-71.0414094034696859
 13
0.0
 23
0.0
 14
1.0
 24
1.0
 15
10.0
 25
10.0
 16
-0.000000000000125
 26
0.0
 36
563.0339013429071429
 17
0.0000476837158203
 27
58.9518508911132813
 37
-0.0000000000000178
 40
345.9859708328713737
 41
1.868197278911564
 42
50.0
 43
0.0
 44
0.0
 50
0.0
 51
0.0
 71
     0
 72
  1500
 73
     1
 74
     0
 75
     0
 76
     0
 77
     0
 78
     0
  0
ENDTAB
  0
TABLE
  2
LTYPE
 70
     4
  0
LTYPE
  2
CONTINUOUS
 70
     0
  3
Solid line
 72
    65
 73
     0
 40
0.0
  0
LTYPE
  2
AUSGEZOGEN
 70
     0
  3
Ausgezogene Linie
 72
    65
 73
     0
 40
0.0
  0
LTYPE
  2
VERDECKT
 70
     0
  3
_ _ _ _ _ _ _ _ _ _ _ _ _ _ _ _ _ _ _ _ _ _ _
 72
    65
 73
     2
 40
0.375
 49
0.25
 49
-0.125
  0
ENDTAB
  0
TABLE
  2
LAYER
 70
    10
  0
LAYER
  2
0
 70
     0
 62
     7
  6
CONTINUOUS
  0
LAYER
  2
VOLL
 70
     0
 62
     1
  6
CONTINUOUS
  0
LAYER
  2
STEMPEL
 70
     0
 62
     3
  6
CONTINUOUS
  0
LAYER
  2
DEFPOINTS
 70
     0
 62
     7
  6
AUSGEZOGEN
  0
ENDTAB
  0
TABLE
  2
STYLE
 70
     2
  0
STYLE
  2
STANDARD
 70
     0
 40
0.0
 41
0.8
 50
0.0
 71
     0
 42
3.5
  3
simplex.shx
  4

  0
STYLE
  2
GREEKS
 70
     0
 40
0.0
 41
0.8
 50
0.0
 71
     0
 42
2.5
  3
SIMPLEX.shx
  4

  0
ENDTAB
  0
TABLE
  2
VIEW
 70
     1
  0
ENDTAB
  0
TABLE
  2
UCS
 70
     0
  0
ENDTAB
  0
TABLE
  2
APPID
 70
     9
  0
APPID
  2
ACAD
 70
     0
  0
APPID
  2
ACAD_NAV_VCDISPLAY
 70
     0
  0
APPID
  2
ACAD_PSEXT
 70
     0
  0
APPID
  2
ACAD_EXEMPT_FROM_CAD_STANDARDS
 70
     0
  0
APPID
  2
ACAD_MLEADERVER
 70
     0
  0
APPID
  2
ACAD_DSTYLE_DIMRADIAL_EXTENSION
 70
     0
  0
APPID
  2
ACAECLAYERSTANDARD
 70
     0
  0
APPID
  2
ACCMTRANSPARENCY
 70
     0
  0
APPID
  2
ACAD_OBJECT_CHANGE_GUID
 70
     0
  0
ENDTAB
  0
TABLE
  2
DIMSTYLE
 70
     1
  0
DIMSTYLE
  2
STANDARD
 70
     0
  3

  4

  5

  6

  7

 40
1.0
 41
0.18
 42
0.0625
 43
0.38
 44
0.18
 45
0.0
 46
0.0
 47
0.0
 48
0.0
140
0.18
141
0.09
142
0.0
143
25.3999999999999986
144
1.0
145
0.0
146
1.0
147
0.09
 71
     0
 72
     0
 73
     1
 74
     1
 75
     0
 76
     0
 77
     0
 78
     0
170
     0
171
     2
172
     0
173
     0
174
     0
175
     0
176
     0
177
     0
178
     0
  0
ENDTAB
  0
ENDSEC
  0
SECTION
  2
BLOCKS
  0
BLOCK
  8
0
  2
$MODEL_SPACE
 70
     0
 10
0.0
 20
0.0
 30
0.0
  3
$MODEL_SPACE
  1

  0
ENDBLK
  5
36
  8
0
  0
BLOCK
 67
     1
  8
0
  2
$PAPER_SPACE
 70
     0
 10
0.0
 20
0.0
 30
0.0
  3
$PAPER_SPACE
  1

  0
ENDBLK
  5
34
 67
     1
  8
0
  0
BLOCK
  8
0
  2
A$C1A81211C
 70
     0
 10
0.0
 20
0.0
 30
0.0
  3
A$C1A81211C
  1

  0
LINE
  5
CF4
  8
0
  6
CONTINUOUS
 62
     3
 10
-39.7653973282751778
 20
160.0
 30
-0.0000000000000355
 11
39.7653973282754123
 21
160.0
 31
-0.0000000000000355
210
0.0
220
1.0
230
-0.0000000000000002
  0
LINE
  5
CF5
  8
0
  6
CONTINUOUS
 62
     3
 10
-38.4896941780044202
 20
0.0000000000000284
 30
0.0
 11
38.4896941780044202
 21
-0.0000000000000284
 31
0.0
210
0.0
220
1.0
230
-0.0000000000000002
  0
ARC
  5
CF6
  8
0
  6
CONTINUOUS
 62
     3
 10
17.1000000000009784
 20
149.4510775928814894
 30
0.0
 40
24.99999999999892
210
0.0
220
-0.0000000000000002
230
-1.0
 50
359.9999999999993179
 51
24.9581963123161295
  0
ARC
  5
CF7
  8
0
  6
CONTINUOUS
 62
     3
 10
-17.1000000000010601
 20
149.4510775928814041
 30
0.0
 40
24.9999999999990692
210
0.0
220
-0.0000000000000002
230
-1.0
 50
155.0418036876839096
 51
180.0000000000005116
  0
LINE
  5
CF8
  8
0
  6
CONTINUOUS
 62
     3
 10
42.1000000000001435
 20
149.4510775928812052
 30
-0.0000000000000332
 11
42.1000000000001435
 21
144.768280048188501
 31
-0.0000000000000321
210
0.0
220
1.0
230
-0.0000000000000002
  0
LINE
  5
CF9
  8
0
  6
CONTINUOUS
 62
     3
 10
-42.0999999999999091
 20
149.4510775928812052
 30
-0.0000000000000332
 11
-42.0999999999999091
 21
144.7682800481885863
 31
-0.0000000000000321
210
0.0
220
1.0
230
-0.0000000000000002
  0
ARC
  5
CFA
  8
0
  6
CONTINUOUS
 62
     3
 10
17.10000000001153
 20
144.6999999999976865
 30
0.0
 40
25.000093243114101
210
0.0
220
-0.0000000000000002
230
-1.0
 50
338.8168456069604986
 51
0.1564859543518788
  0
ARC
  5
CFB
  8
0
  6
CONTINUOUS
 62
     3
 10
-17.1000000000117289
 20
144.6999999999976865
 30
0.0
 40
25.0000932431141294
210
0.0
220
-0.0000000000000002
230
-1.0
 50
179.8435140456483055
 51
201.1831543930397004
  0
ARC
  5
CFC
  8
0
  6
CONTINUOUS
 62
     3
 10
51.5999999999986088
 20
131.3300000000000978
 30
0.0
 40
11.9999999999987708
210
0.0
220
-0.0000000000000002
230
-1.0
 50
158.8168456069608112
 51
180.0000000000005969
  0
ARC
  5
CFD
  8
0
  6
CONTINUOUS
 62
     3
 10
-51.5999999999986514
 20
131.3300000000000978
 30
0.0
 40
11.99999999999857
210
0.0
220
-0.0000000000000002
230
-1.0
 50
0.0
 51
21.1831543930402191
  0
LINE
  5
CFE
  8
0
  6
CONTINUOUS
 62
     3
 10
39.6000000000001506
 20
131.3299999999998988
 30
-0.0000000000000292
 11
39.6000000000001293
 21
110.3887264174168052
 31
-0.0000000000000245
210
0.0
220
1.0
230
-0.0000000000000002
  0
LINE
  5
CFF
  8
0
  6
CONTINUOUS
 62
     3
 10
-39.5999999999999019
 20
131.3299999999998988
 30
-0.0000000000000292
 11
-39.5999999999999233
 21
110.3887264174169047
 31
-0.0000000000000245
210
0.0
220
1.0
230
-0.0000000000000002
  0
ARC
  5
D00
  8
0
  6
CONTINUOUS
 62
     3
 10
27.5999999999973511
 20
110.3887264174176011
 30
0.0
 40
12.0000000000026006
210
0.0
220
-0.0000000000000002
230
-1.0
 50
327.6719358778402125
 51
359.9999999999963052
  0
ARC
  5
D01
  8
0
  6
CONTINUOUS
 62
     3
 10
-27.5999999999974399
 20
110.3887264174176011
 30
0.0
 40
12.0000000000026095
210
0.0
220
-0.0000000000000002
230
-1.0
 50
180.0000000000038085
 51
212.3280641221597875
  0
ARC
  5
D02
  8
0
  6
CONTINUOUS
 62
     3
 10
44.5000000000000568
 20
99.6934003354313063
 30
0.0
 40
8.0000000000001492
210
0.0
220
-0.0000000000000002
230
-1.0
 50
147.6719358778395872
 51
180.0
  0
ARC
  5
D03
  8
0
  6
CONTINUOUS
 62
     3
 10
-44.5000000000000213
 20
99.6934003354312921
 30
0.0
 40
8.0000000000000071
210
0.0
220
-0.0000000000000002
230
-1.0
 50
359.9999999999997158
 51
32.3280641221607965
  0
LINE
  5
D04
  8
0
  6
CONTINUOUS
 62
     3
 10
36.5000000000000071
 20
99.6934003354312637
 30
-0.0000000000000221
 11
36.4999999999999929
 21
86.8885438199982332
 31
-0.0000000000000193
210
0.0
220
1.0
230
-0.0000000000000002
  0
LINE
  5
D05
  8
0
  6
CONTINUOUS
 62
     3
 10
-36.4999999999998792
 20
99.6934003354313063
 30
-0.0000000000000221
 11
-36.4999999999999005
 21
86.8885438199983042
 31
-0.0000000000000193
210
0.0
220
1.0
230
-0.0000000000000002
  0
ARC
  5
D06
  8
0
  6
CONTINUOUS
 62
     3
 10
48.5800295808460305
 20
87.9571990604262766
 30
0.0
 40
12.1272065496144599
210
0.0
220
-0.0000000000000002
230
-1.0
 50
185.055488771973188
 51
206.5650511770797095
  0
ARC
  5
D07
  8
0
  6
CONTINUOUS
 62
     3
 10
-48.5800295808461513
 20
87.9571990604262197
 30
0.0
 40
12.1272065496144599
210
0.0
220
-0.0000000000000002
230
-1.0
 50
333.4349488229203757
 51
354.9445112280267267
  0
ARC
  5
D08
  8
0
  6
CONTINUOUS
 62
     3
 10
26.9999999999994493
 20
77.1671842700022665
 30
0.0
 40
12.0000000000004992
210
0.0
220
-0.0000000000000002
230
-1.0
 50
0.0
 51
26.5650511770786792
  0
ARC
  5
D09
  8
0
  6
CONTINUOUS
 62
     3
 10
-26.9999999999997016
 20
77.1671842700022523
 30
0.0
 40
12.0000000000003606
210
0.0
220
-0.0000000000000002
230
-1.0
 50
153.4349488229204894
 51
179.9999999999994884
  0
LINE
  5
D0A
  8
0
  6
CONTINUOUS
 62
     3
 10
39.0000000000000782
 20
77.1671842700023518
 30
-0.0000000000000171
 11
39.0000000000000426
 21
5.8328222358124719
 31
-0.0000000000000013
210
0.0
220
1.0
230
-0.0000000000000002
  0
LINE
  5
D0B
  8
0
  6
CONTINUOUS
 62
     3
 10
-38.9999999999999218
 20
77.1671842700024087
 30
-0.0000000000000171
 11
-38.9999999999999716
 21
5.8328222358125288
 31
-0.0000000000000013
210
0.0
220
1.0
230
-0.0000000000000002
  0
LINE
  5
D0C
  8
0
  6
CONTINUOUS
 62
     3
 10
-38.4896941780044202
 20
0.0000000000000142
 30
0.0
 11
-38.9999999999999503
 21
5.8328222358125288
 31
-0.0000000000000013
210
0.0
220
1.0
230
-0.0000000000000002
  0
LINE
  5
D0D
  8
0
  6
CONTINUOUS
 62
     3
 10
38.4896941780044202
 20
-0.0000000000000235
 30
0.0
 11
38.9999999999999503
 21
5.8328222358124764
 31
-0.0000000000000013
210
0.0
220
1.0
230
-0.0000000000000002
  0
LINE
  5
D0E
  8
0
  6
VERDECKT
 62
     1
 10
-36.8835824379351891
 20
-0.0000000000000164
 30
0.0
 11
-37.3999999999999488
 21
5.9026797444662957
 31
-0.0000000000000013
210
0.0
220
1.0
230
-0.0000000000000002
  0
LINE
  5
D0F
  8
0
  6
VERDECKT
 62
     1
 10
36.883582437935182
 20
-0.0000000000000808
 30
0.0
 11
37.3999999999999488
 21
5.9026797444662433
 31
-0.0000000000000013
210
0.0
220
1.0
230
-0.0000000000000002
  0
LINE
  5
D10
  8
0
  6
VERDECKT
 62
     1
 10
37.4000000000000483
 20
77.1671842700023518
 30
-0.0000000000000171
 11
37.4000000000000128
 21
5.9026797444662407
 31
-0.0000000000000013
210
0.0
220
1.0
230
-0.0000000000000002
  0
LINE
  5
D11
  8
0
  6
VERDECKT
 62
     1
 10
-37.3999999999998991
 20
77.1671842700024087
 30
-0.0000000000000171
 11
-37.3999999999999417
 21
5.9026797444662984
 31
-0.0000000000000013
210
0.0
220
1.0
230
-0.0000000000000002
  0
ARC
  5
D12
  8
0
  6
VERDECKT
 62
     1
 10
26.9999999999991402
 20
77.1671842700023802
 30
0.0
 40
10.4000000000007802
210
0.0
220
-0.0000000000000002
230
-1.0
 50
0.0000000000001654
 51
26.5650511770760787
  0
ARC
  5
D13
  8
0
  6
VERDECKT
 62
     1
 10
-26.999999999999261
 20
77.1671842700023518
 30
0.0
 40
10.4000000000007802
210
0.0
220
-0.0000000000000002
230
-1.0
 50
153.434948822924099
 51
180.0
  0
ARC
  5
D14
  8
0
  6
VERDECKT
 62
     1
 10
48.5134146319619504
 20
87.9238915859828154
 30
0.0
 40
13.6527287726025008
210
0.0
220
-0.0000000000000002
230
-1.0
 50
184.3491717961767051
 51
206.5650511770757021
  0
ARC
  5
D15
  8
0
  6
VERDECKT
 62
     1
 10
-48.5134146319618509
 20
87.9238915859826591
 30
0.0
 40
13.6527287726022806
210
0.0
220
-0.0000000000000002
230
-1.0
 50
333.4349488229240137
 51
355.6508282038233801
  0
LINE
  5
D16
  8
0
  6
VERDECKT
 62
     1
 10
34.8999999999999773
 20
99.6934003354313347
 30
-0.0000000000000221
 11
34.8999999999999702
 21
86.8885438199982332
 31
-0.0000000000000193
210
0.0
220
1.0
230
-0.0000000000000002
  0
LINE
  5
D17
  8
0
  6
VERDECKT
 62
     1
 10
-34.8999999999998565
 20
99.6934003354314058
 30
-0.0000000000000221
 11
-34.8999999999998707
 21
86.8885438199983042
 31
-0.0000000000000193
210
0.0
220
1.0
230
-0.0000000000000002
  0
ARC
  5
D18
  8
0
  6
VERDECKT
 62
     1
 10
44.4999999999989981
 20
99.6934003354315337
 30
0.0
 40
9.5999999999990635
210
0.0
220
-0.0000000000000002
230
-1.0
 50
146.442690238076807
 51
180.0000000000009095
  0
ARC
  5
D19
  8
0
  6
VERDECKT
 62
     1
 10
-44.4999999999991687
 20
99.6934003354314768
 30
0.0
 40
9.5999999999991186
210
0.0
220
-0.0000000000000002
230
-1.0
 50
359.9999999999992042
 51
33.5573097619231717
  0
ARC
  5
D1A
  8
0
  6
VERDECKT
 62
     1
 10
28.9587313932315986
 20
110.0023116823875
 30
0.0
 40
9.049522328122185
210
0.0
220
-0.0000000000000002
230
-1.0
 50
326.4426902380785123
 51
2.4472746854957941
  0
ARC
  5
D1B
  8
0
  6
VERDECKT
 62
     1
 10
-28.9587313932317691
 20
110.0023116823875
 30
0.0
 40
9.0495223281221442
210
0.0
220
-0.0000000000000002
230
-1.0
 50
177.5527253145043005
 51
213.5573097619216867
  0
LINE
  5
D1C
  8
0
  6
VERDECKT
 62
     1
 10
38.0000000000001208
 20
131.3299999999998988
 30
-0.0000000000000292
 11
38.0000000000001066
 21
110.3887264174168052
 31
-0.0000000000000245
210
0.0
220
1.0
230
-0.0000000000000002
  0
LINE
  5
D1D
  8
0
  6
VERDECKT
 62
     1
 10
-37.9999999999998792
 20
131.3299999999998988
 30
-0.0000000000000292
 11
-37.9999999999999005
 21
110.3887264174169047
 31
-0.0000000000000245
210
0.0
220
1.0
230
-0.0000000000000002
  0
ARC
  5
D1E
  8
0
  6
VERDECKT
 62
     1
 10
51.6000000000010388
 20
131.3299999999996999
 30
0.0
 40
13.6000000000011791
210
0.0
220
-0.0000000000000002
230
-1.0
 50
158.8168456069637102
 51
179.9999999999992895
  0
ARC
  5
D1F
  8
0
  6
VERDECKT
 62
     1
 10
-51.6000000000012378
 20
131.3299999999996999
 30
0.0
 40
13.6000000000011401
210
0.0
220
-0.0000000000000002
230
-1.0
 50
0.0000000000007252
 51
21.183154393036201
  0
ARC
  5
D20
  8
0
  6
VERDECKT
 62
     1
 10
17.1000000000052914
 20
144.6999999999989086
 30
0.0
 40
23.4000932431203097
210
0.0
220
-0.0000000000000002
230
-1.0
 50
338.816845606962886
 51
0.1617474312760786
  0
ARC
  5
D21
  8
0
  6
VERDECKT
 62
     1
 10
-17.100000000005501
 20
144.6999999999989086
 30
0.0
 40
23.4000932431203417
210
0.0
220
-0.0000000000000002
230
-1.0
 50
179.8382525687239877
 51
201.183154393037114
  0
LINE
  5
D22
  8
0
  6
VERDECKT
 62
     1
 10
40.5000000000001066
 20
149.4510775928812052
 30
-0.0000000000000332
 11
40.5000000000001066
 21
144.7660589659222978
 31
-0.0000000000000321
210
0.0
220
1.0
230
-0.0000000000000002
  0
LINE
  5
D23
  8
0
  6
VERDECKT
 62
     1
 10
-40.4999999999998934
 20
149.4510775928812052
 30
-0.0000000000000332
 11
-40.4999999999998934
 21
144.7660589659224115
 31
-0.0000000000000321
210
0.0
220
1.0
230
-0.0000000000000002
  0
ARC
  5
D24
  8
0
  6
VERDECKT
 62
     1
 10
16.9940472097184596
 20
149.4510775928814894
 30
0.0
 40
23.50595279028148
210
0.0
220
-0.0000000000000002
230
-1.0
 50
359.9999999999992042
 51
26.6652212082752307
  0
ARC
  5
D25
  8
0
  6
VERDECKT
 62
     1
 10
-16.9940472097188788
 20
149.4510775928816031
 30
0.0
 40
23.5059527902812704
210
0.0
220
-0.0000000000000002
230
-1.0
 50
153.3347787917246876
 51
180.0000000000007958
  0
ENDBLK
  5
D27
  8
0
  0
BLOCK
  8
0
  2
A$C25034383
 70
     0
 10
0.0
 20
0.0
 30
0.0
  3
A$C25034383
  1

  0
CIRCLE
  5
D2B
  8
0
  6
CONTINUOUS
 62
     3
 10
0.0000000000001469
 20
-0.0000000000000125
 30
0.0
 40
42.1000000000000085
  0
CIRCLE
  5
D2C
  8
0
  6
CONTINUOUS
 62
     3
 10
0.0000000000001492
 20
-0.0000000000000119
 30
0.0
 40
39.7653973282752986
  0
CIRCLE
  5
D2D
  8
0
  6
CONTINUOUS
 62
     3
 10
0.000000000000079
 20
-0.0000000000000156
 30
0.0
 40
34.8999999999999986
  0
CIRCLE
  5
D2E
  8
0
  6
CONTINUOUS
 62
     3
 10
0.0000000000001492
 20
-0.0000000000000119
 30
0.0
 40
38.0000000000001705
  0
CIRCLE
  5
D2F
  8
0
  6
CONTINUOUS
 62
     3
 10
0.0000000000001458
 20
-0.0000000000000128
 30
0.0
 40
42.1000932431257411
  0
CIRCLE
  5
D30
  8
0
  6
VERDECKT
 62
     1
 10
0.0000000000001428
 20
-0.0000000000000136
 30
0.0
 40
39.5999999999999517
  0
CIRCLE
  5
D31
  8
0
  6
VERDECKT
 62
     1
 10
0.000000000000079
 20
-0.0000000000000156
 30
0.0
 40
36.4999999999999716
  0
CIRCLE
  5
D32
  8
0
  6
VERDECKT
 62
     1
 10
0.000000000000074
 20
-0.000000000000017
 30
0.0
 40
39.0
  0
CIRCLE
  5
D33
  8
0
  6
VERDECKT
 62
     1
 10
0.0
 20
-0.0000000000000217
 30
0.0
 40
38.4896941780044202
  0
CIRCLE
  5
D34
  8
0
  6
VERDECKT
 62
     1
 10
0.0
 20
-0.0000000000000217
 30
0.0
 40
36.8835824379351678
  0
CIRCLE
  5
D35
  8
0
  6
VERDECKT
 62
     1
 10
0.000000000000074
 20
-0.000000000000017
 30
0.0
 40
37.3999999999999773
  0
CIRCLE
  5
D36
  8
0
  6
VERDECKT
 62
     1
 10
0.0000000000001469
 20
-0.0000000000000125
 30
0.0
 40
40.5000000000000497
  0
CIRCLE
  5
D37
  8
0
  6
VERDECKT
 62
     1
 10
0.0000000000000813
 20
-0.0000000000000149
 30
0.0
 40
38.0082537213538529
  0
CIRCLE
  5
D38
  8
0
  6
VERDECKT
 62
     1
 10
0.0000000000001458
 20
-0.0000000000000128
 30
0.0
 40
40.5000932431257183
  0
ENDBLK
  5
D3A
  8
0
  0
ENDSEC
  0
SECTION
  2
ENTITIES
  0
TEXT
  5
8F
  8
VOLL
 10
78.076754716981128
 20
31.025947764705851
 30
0.0
 40
1.8
  1

  7
GREEKS
  0
TEXT
  5
815
  8
VOLL
 10
316.075239653649021
 20
210.9028949899660859
 30
0.0
 40
1.8
  1

  7
GREEKS
  0
INSERT
  5
D28
  8
STEMPEL
  2
A$C1A81211C
 10
0.0
 20
0.0
 30
0.0
  0
INSERT
  5
D3B
  8
STEMPEL
  2
A$C25034383
 10
-0.0000000000000311
 20
-142.1000932431257127
 30
0.0
  0
VIEWPORT
  5
A1F
 67
     1
  8
0
 10
7.1435315713646421
 20
10.2315169189818906
 30
0.0
 40
41.2730988951424322
 41
21.0202303137943183
 68
     1
 69
     1
1001
ACAD
1000
MVIEW
1002
{
1070
    16
1010
0.0
1020
0.0
1030
0.0
1010
0.0
1020
0.0
1030
1.0
1040
0.0
1040
21.0202303137943183
1040
7.1435315713646421
1040
10.2315169189818906
1040
50.0
1040
0.0
1040
0.0
1070
     0
1070
  1500
1070
     1
1070
     1
1070
     0
1070
     0
1070
     0
1070
     0
1040
0.0
1040
0.0
1040
0.0
1040
10.0
1040
10.0
1040
10.0
1040
10.0
1070
     0
1002
{
1002
}
1002
}
  0
VIEWPORT
  5
A23
 67
     1
  8
DEFPOINTS
 10
7.1434459891220072
 20
10.2316713672960002
 30
0.0
 40
14.6474876455067609
 41
20.8539807973137314
 68
     2
 69
     2
1001
ACAD
1000
MVIEW
1002
{
1070
    16
1010
0.0
1020
0.0
1030
0.0
1010
0.0
1020
0.0
1030
1.0
1040
0.0
1040
311.3384882862699783
1040
104.9483070572603935
1040
151.058554484313504
1040
50.0
1040
0.0
1040
0.0
1070
     0
1070
  1500
1070
     1
1070
     0
1070
     0
1070
     0
1070
     0
1070
     0
1040
0.0
1040
0.0
1040
0.0
1040
1.0
1040
1.0
1040
10.0
1040
10.0
1070
     0
1002
{
1002
}
1002
}
  0
VIEWPORT
  5
A95
 67
     1
  8
DEFPOINTS
 10
11.3184896100052104
 20
9.8031606204833999
 30
0.0
 40
3.9708382695444442
 41
5.8292974930314818
 68
     3
 69
     3
1001
ACAD
1000
MVIEW
1002
{
1070
    16
1010
457.6800054313354735
1020
192.3462701257898004
1030
-0.5647708888515443
1010
0.0
1020
65.2585308176108754
1030
268.6144245161867161
1040
3.1415926535897931
1040
191.9059366625778864
1040
0.0
1040
0.0
1040
50.0
1040
0.0
1040
0.0
1070
     0
1070
  1500
1070
     1
1070
     0
1070
     0
1070
     0
1070
     0
1070
     0
1040
0.0
1040
0.0
1040
0.0
1040
1.0
1040
1.0
1040
10.0
1040
10.0
1070
     0
1002
{
1002
}
1002
}
  0
ENDSEC
  0
EOF
