  0
SECTION
  2
HEADER
  9
$ACADVER
  1
AC1009
  9
$INSBASE
 10
0.0
 20
0.0
 30
0.0
  9
$EXTMIN
 10
-32.8673224964558699
 20
-163.0138113639092126
 30
-0.00000000000003
  9
$EXTMAX
 10
33.2246957726741812
 20
133.000437519222686
 30
0.0000000000000005
  9
$LIMMIN
 10
0.0
 20
0.0
  9
$LIMMAX
 10
210.0
 20
297.0
  9
$ORTHOMODE
 70
     1
  9
$REGENMODE
 70
     1
  9
$FILLMODE
 70
     1
  9
$QTEXTMODE
 70
     0
  9
$MIRRTEXT
 70
     1
  9
$DRAGMODE
 70
     2
  9
$LTSCALE
 40
10.0
  9
$OSMODE
 70
  2559
  9
$ATTMODE
 70
     1
  9
$TEXTSIZE
 40
2.5
  9
$TRACEWID
 40
0.5
  9
$TEXTSTYLE
  7
GREEKS
  9
$CLAYER
  8
STEMPEL
  9
$CELTYPE
  6
BYLAYER
  9
$CECOLOR
 62
   256
  9
$DIMSCALE
 40
1.0
  9
$DIMASZ
 40
3.5
  9
$DIMEXO
 40
1.0
  9
$DIMDLI
 40
7.0
  9
$DIMRND
 40
0.0
  9
$DIMDLE
 40
0.0
  9
$DIMEXE
 40
1.0
  9
$DIMTP
 40
2.0
  9
$DIMTM
 40
1.0
  9
$DIMTXT
 40
3.5
  9
$DIMCEN
 40
1.5
  9
$DIMTSZ
 40
0.0
  9
$DIMTOL
 70
     0
  9
$DIMLIM
 70
     0
  9
$DIMTIH
 70
     0
  9
$DIMTOH
 70
     0
  9
$DIMSE1
 70
     0
  9
$DIMSE2
 70
     0
  9
$DIMTAD
 70
     1
  9
$DIMZIN
 70
     8
  9
$DIMBLK
  1

  9
$DIMASO
 70
     1
  9
$DIMSHO
 70
     0
  9
$DIMPOST
  1

  9
$DIMAPOST
  1

  9
$DIMALT
 70
     0
  9
$DIMALTD
 70
     2
  9
$DIMALTF
 40
25.3999999999999986
  9
$DIMLFAC
 40
1.0
  9
$DIMTOFL
 70
     1
  9
$DIMTVP
 40
0.0
  9
$DIMTIX
 70
     0
  9
$DIMSOXD
 70
     0
  9
$DIMSAH
 70
     0
  9
$DIMBLK1
  1

  9
$DIMBLK2
  1

  9
$DIMSTYLE
  2
STANDARD
  9
$DIMCLRD
 70
     0
  9
$DIMCLRE
 70
     0
  9
$DIMCLRT
 70
     1
  9
$DIMTFAC
 40
0.5
  9
$DIMGAP
 40
1.5
  9
$LUNITS
 70
     2
  9
$LUPREC
 70
     2
  9
$SKETCHINC
 40
1.0
  9
$FILLETRAD
 40
9.5
  9
$AUNITS
 70
     0
  9
$AUPREC
 70
     0
  9
$MENU
  1
ACAD
  9
$ELEVATION
 40
0.0
  9
$PELEVATION
 40
0.0
  9
$THICKNESS
 40
0.0
  9
$LIMCHECK
 70
     0
  9
$BLIPMODE
 70
     0
  9
$CHAMFERA
 40
0.0
  9
$CHAMFERB
 40
0.0
  9
$SKPOLY
 70
     0
  9
$TDCREATE
 40
2451645.5436574080958962
  9
$TDUPDATE
 40
2458376.3294907407835126
  9
$TDINDWG
 40
0.0316689699
  9
$TDUSRTIMER
 40
0.0316689699
  9
$USRTIMER
 70
     1
  9
$ANGBASE
 50
0.0
  9
$ANGDIR
 70
     0
  9
$PDMODE
 70
     0
  9
$PDSIZE
 40
0.0
  9
$PLINEWID
 40
0.0
  9
$COORDS
 70
     1
  9
$SPLFRAME
 70
     0
  9
$SPLINETYPE
 70
     6
  9
$SPLINESEGS
 70
     8
  9
$ATTDIA
 70
     1
  9
$ATTREQ
 70
     1
  9
$HANDLING
 70
     1
  9
$HANDSEED
  5
833
  9
$SURFTAB1
 70
     6
  9
$SURFTAB2
 70
     6
  9
$SURFTYPE
 70
     6
  9
$SURFU
 70
     6
  9
$SURFV
 70
     6
  9
$UCSNAME
  2

  9
$UCSORG
 10
0.0
 20
0.0
 30
0.0
  9
$UCSXDIR
 10
1.0
 20
0.0
 30
0.0
  9
$UCSYDIR
 10
0.0
 20
1.0
 30
0.0
  9
$PUCSNAME
  2

  9
$PUCSORG
 10
0.0
 20
0.0
 30
0.0
  9
$PUCSXDIR
 10
1.0
 20
0.0
 30
0.0
  9
$PUCSYDIR
 10
0.0
 20
1.0
 30
0.0
  9
$USERI1
 70
     0
  9
$USERI2
 70
     0
  9
$USERI3
 70
     0
  9
$USERI4
 70
     0
  9
$USERI5
 70
     0
  9
$USERR1
 40
0.0
  9
$USERR2
 40
0.0
  9
$USERR3
 40
0.0
  9
$USERR4
 40
0.0
  9
$USERR5
 40
0.0
  9
$WORLDVIEW
 70
     1
  9
$SHADEDGE
 70
     3
  9
$SHADEDIF
 70
    70
  9
$TILEMODE
 70
     1
  9
$MAXACTVP
 70
    16
  9
$PLIMCHECK
 70
     0
  9
$PEXTMIN
 10
-0.2272655372972636
 20
-0.207539932817177
 30
-0.0000000349181948
  9
$PEXTMAX
 10
15.7713387080496794
 20
22.3739364920294612
 30
0.0000000814935746
  9
$PLIMMIN
 10
-0.2500002402958907
 20
-0.2499999962453767
  9
$PLIMMAX
 10
10.7499995194082203
 20
8.2499997634587334
  9
$UNITMODE
 70
     0
  9
$VISRETAIN
 70
     0
  9
$PLINEGEN
 70
     0
  9
$PSLTSCALE
 70
     0
  0
ENDSEC
  0
SECTION
  2
TABLES
  0
TABLE
  2
VPORT
 70
     1
  0
VPORT
  2
*ACTIVE
 70
     0
 10
0.0
 20
0.0
 11
1.0
 21
1.0
 12
0.1786866381091841
 22
-65.7564980948286006
 13
0.0
 23
0.0
 14
1.0
 24
1.0
 15
10.0
 25
10.0
 16
0.0000000000001006
 26
0.0
 36
453.0085153680007011
 17
0.0
 27
50.7498111724853516
 37
-0.0000000000000148
 40
297.523242505305916
 41
1.868197278911564
 42
50.0
 43
0.0
 44
0.0
 50
0.0
 51
0.0
 71
     0
 72
  1500
 73
     1
 74
     0
 75
     0
 76
     0
 77
     0
 78
     0
  0
ENDTAB
  0
TABLE
  2
LTYPE
 70
     4
  0
LTYPE
  2
AUSGEZOGEN
 70
     0
  3
Ausgezogene Linie
 72
    65
 73
     0
 40
0.0
  0
LTYPE
  2
CONTINUOUS
 70
     0
  3
Solid Line
 72
    65
 73
     0
 40
0.0
  0
LTYPE
  2
VERDECKT
 70
     0
  3
_ _ _ _ _ _ _ _ _ _ _ _ _ _ _ _ _ _ _ _ _ _ _
 72
    65
 73
     2
 40
0.375
 49
0.25
 49
-0.125
  0
ENDTAB
  0
TABLE
  2
LAYER
 70
    10
  0
LAYER
  2
0
 70
     0
 62
     7
  6
AUSGEZOGEN
  0
LAYER
  2
VOLL
 70
     0
 62
     1
  6
AUSGEZOGEN
  0
LAYER
  2
BEM
 70
     0
 62
     7
  6
AUSGEZOGEN
  0
LAYER
  2
DEFPOINTS
 70
     0
 62
     7
  6
AUSGEZOGEN
  0
LAYER
  2
STEMPEL
 70
     0
 62
     3
  6
AUSGEZOGEN
  0
LAYER
  2
TEXT
 70
     0
 62
     7
  6
AUSGEZOGEN
  0
ENDTAB
  0
TABLE
  2
STYLE
 70
     2
  0
STYLE
  2
STANDARD
 70
     0
 40
0.0
 41
1.0
 50
0.0
 71
     0
 42
3.5
  3
txt
  4

  0
STYLE
  2
GREEKS
 70
     0
 40
0.0
 41
0.8
 50
0.0
 71
     0
 42
2.5
  3
SIMPLEX.shx
  4

  0
ENDTAB
  0
TABLE
  2
VIEW
 70
     1
  0
ENDTAB
  0
TABLE
  2
UCS
 70
     0
  0
ENDTAB
  0
TABLE
  2
APPID
 70
    11
  0
APPID
  2
ACAD
 70
     0
  0
APPID
  2
ACAD_NAV_VCDISPLAY
 70
     0
  0
APPID
  2
ACAD_PSEXT
 70
     0
  0
APPID
  2
ACAD_EXEMPT_FROM_CAD_STANDARDS
 70
     0
  0
APPID
  2
ACAD_MLEADERVER
 70
     0
  0
APPID
  2
ACAD_DSTYLE_DIMRADIAL_EXTENSION
 70
     0
  0
APPID
  2
GRADIENTCOLOR1ACI
 70
     0
  0
APPID
  2
GRADIENTCOLOR2ACI
 70
     0
  0
APPID
  2
ACAECLAYERSTANDARD
 70
     0
  0
APPID
  2
ACCMTRANSPARENCY
 70
     0
  0
APPID
  2
ACAD_OBJECT_CHANGE_GUID
 70
     0
  0
ENDTAB
  0
TABLE
  2
DIMSTYLE
 70
     1
  0
DIMSTYLE
  2
STANDARD
 70
     0
  3

  4

  5

  6

  7

 40
1.0
 41
0.18
 42
0.0625
 43
0.38
 44
0.18
 45
0.0
 46
0.0
 47
0.0
 48
0.0
140
0.18
141
0.09
142
0.0
143
25.3999999999999986
144
1.0
145
0.0
146
1.0
147
0.09
 71
     0
 72
     0
 73
     1
 74
     1
 75
     0
 76
     0
 77
     0
 78
     0
170
     0
171
     2
172
     0
173
     0
174
     0
175
     0
176
     0
177
     0
178
     0
  0
ENDTAB
  0
ENDSEC
  0
SECTION
  2
BLOCKS
  0
BLOCK
  8
0
  2
$MODEL_SPACE
 70
     0
 10
0.0
 20
0.0
 30
0.0
  3
$MODEL_SPACE
  1

  0
ENDBLK
  5
45
  8
0
  0
BLOCK
 67
     1
  8
0
  2
$PAPER_SPACE
 70
     0
 10
0.0
 20
0.0
 30
0.0
  3
$PAPER_SPACE
  1

  0
ENDBLK
  5
43
 67
     1
  8
0
  0
BLOCK
  8
0
  2
A$C61D94810
 70
     0
 10
0.0
 20
0.0
 30
0.0
  3
A$C61D94810
  1

  0
LINE
  5
755
  8
0
  6
AUSGEZOGEN
 62
     3
 10
-29.6066989995659107
 20
132.9999999999955946
 30
-0.0000000000000295
 11
29.6066989995659711
 21
132.9999999999955946
 31
-0.0000000000000295
210
0.0000000000000002
220
1.0
230
-0.0000000000000002
  0
LINE
  5
756
  8
0
  6
AUSGEZOGEN
 62
     3
 10
-26.5602853961638417
 20
80.0087622938841463
 30
-0.0000000000000178
 11
26.5602853961638807
 21
80.0087622938841463
 31
-0.0000000000000178
210
0.0000000000000002
220
1.0
230
-0.0000000000000002
  0
LINE
  5
757
  8
0
  6
AUSGEZOGEN
 62
     3
 10
-28.9107823794491203
 20
69.9889316569362023
 30
-0.0000000000000155
 11
28.9107823794491487
 21
69.9889316569362023
 31
-0.0000000000000155
210
0.0000000000000002
220
1.0
230
-0.0000000000000002
  0
LINE
  5
758
  8
0
  6
AUSGEZOGEN
 62
     3
 10
-28.3875793553185112
 20
0.0000000000000063
 30
0.0
 11
28.3875793553185112
 21
-0.0000000000000063
 31
0.0
210
0.0000000000000002
220
1.0
230
-0.0000000000000002
  0
ARC
  5
759
  8
0
  6
AUSGEZOGEN
 62
     3
 10
12.0003458496262905
 20
124.6174986573389987
 30
0.0
 40
19.5000000000007105
210
0.0
220
-0.0000000000000002
230
-1.0
 50
0.0000000000072771
 51
25.4594285688045083
  0
ARC
  5
75A
  8
0
  6
AUSGEZOGEN
 62
     3
 10
-12.0003458496262105
 20
124.6174986573389987
 30
0.0
 40
19.5000000000008384
210
0.0
220
-0.0000000000000002
230
-1.0
 50
154.5405714311955876
 51
179.9999999999926104
  0
LINE
  5
75B
  8
0
  6
AUSGEZOGEN
 62
     3
 10
31.5003458496271698
 20
124.6174986573414998
 30
-0.0000000000000277
 11
31.5003458496271698
 21
123.2020357019524965
 31
-0.0000000000000274
210
0.0000000000000002
220
1.0
230
-0.0000000000000002
  0
LINE
  5
75C
  8
0
  6
AUSGEZOGEN
 62
     3
 10
-31.5003458496271094
 20
124.6174986573414998
 30
-0.0000000000000277
 11
-31.5003458496271094
 21
123.2020357019524965
 31
-0.0000000000000274
210
0.0000000000000002
220
1.0
230
-0.0000000000000002
  0
ARC
  5
75D
  8
0
  6
AUSGEZOGEN
 62
     3
 10
6.500345849629749
 20
123.1619999999991961
 30
0.0
 40
25.0000320571254804
210
0.0
220
-0.0000000000000002
230
-1.0
 50
340.5369005553106945
 51
0.0917549916333602
  0
ARC
  5
75E
  8
0
  6
AUSGEZOGEN
 62
     3
 10
-6.5003458496295838
 20
123.1619999999992956
 30
0.0
 40
25.0000320571257006
210
0.0
220
-0.0000000000000002
230
-1.0
 50
179.9082450083666913
 51
199.4630994446891066
  0
ARC
  5
75F
  8
0
  6
AUSGEZOGEN
 62
     3
 10
39.500345849625532
 20
111.5000000000000995
 30
0.0
 40
9.9999999999984137
210
0.0
220
-0.0000000000000002
230
-1.0
 50
160.5369005553091029
 51
180.0000000000007958
  0
ARC
  5
760
  8
0
  6
AUSGEZOGEN
 62
     3
 10
-39.5003458496254467
 20
111.5000000000000995
 30
0.0
 40
9.9999999999982876
210
0.0
220
-0.0000000000000002
230
-1.0
 50
359.9999999999989768
 51
19.4630994446909895
  0
LINE
  5
761
  8
0
  6
AUSGEZOGEN
 62
     3
 10
29.5003458496271591
 20
111.5
 30
-0.0000000000000248
 11
29.5003458496271591
 21
100.4083269131959071
 31
-0.0000000000000223
210
0.0000000000000002
220
1.0
230
-0.0000000000000002
  0
LINE
  5
762
  8
0
  6
AUSGEZOGEN
 62
     3
 10
-29.50034584962712
 20
111.5
 30
-0.0000000000000248
 11
-29.50034584962712
 21
100.4083269131959071
 31
-0.0000000000000223
210
0.0000000000000002
220
1.0
230
-0.0000000000000002
  0
ARC
  5
763
  8
0
  6
AUSGEZOGEN
 62
     3
 10
17.7510810116299993
 20
100.3369307280464966
 30
0.0
 40
11.7494817608543105
210
0.0
220
-0.0000000000000002
230
-1.0
 50
327.8635071966929218
 51
0.3481621862533847
  0
ARC
  5
764
  8
0
  6
AUSGEZOGEN
 62
     3
 10
-17.7510810116300384
 20
100.3369307280464966
 30
0.0
 40
11.7494817608543105
210
0.0
220
-0.0000000000000002
230
-1.0
 50
179.6518378137465959
 51
212.1364928033071067
  0
ARC
  5
765
  8
0
  6
AUSGEZOGEN
 62
     3
 10
34.3331890749567776
 20
89.9202706171100772
 30
0.0
 40
7.8329878405678341
210
0.0
220
-0.0000000000000002
230
-1.0
 50
147.8635071966943997
 51
180.3481621862578095
  0
ARC
  5
766
  8
0
  6
AUSGEZOGEN
 62
     3
 10
-34.33318907495687
 20
89.9202706171100346
 30
0.0
 40
7.8329878405678812
210
0.0
220
-0.0000000000000002
230
-1.0
 50
359.6518378137421905
 51
32.1364928033053232
  0
LINE
  5
767
  8
0
  6
AUSGEZOGEN
 62
     3
 10
26.5003458496271591
 20
89.8726731603432114
 30
-0.00000000000002
 11
26.5602853961638807
 21
80.0087622938841463
 31
-0.0000000000000178
210
0.0000000000000002
220
1.0
230
-0.0000000000000002
  0
LINE
  5
768
  8
0
  6
AUSGEZOGEN
 62
     3
 10
-26.50034584962712
 20
89.8726731603432114
 30
-0.00000000000002
 11
-26.5602853961638417
 21
80.0087622938841463
 31
-0.0000000000000178
210
0.0000000000000002
220
1.0
230
-0.0000000000000002
  0
ARC
  5
769
  8
0
  6
AUSGEZOGEN
 62
     3
 10
35.9727190547956468
 20
81.2598392375966654
 30
0.0
 40
9.4952146314464088
210
0.0
220
-0.0000000000000002
230
-1.0
 50
187.5712315266144117
 51
193.4831336752708921
  0
ARC
  5
76A
  8
0
  6
AUSGEZOGEN
 62
     3
 10
-35.9727190547956894
 20
81.2598392375966512
 30
0.0
 40
9.4952146314464123
210
0.0
220
-0.0000000000000002
230
-1.0
 50
346.5168663247291079
 51
352.4287684733856167
  0
LINE
  5
76B
  8
0
  6
AUSGEZOGEN
 62
     3
 10
26.7392058484644402
 20
79.0459434031591144
 30
-0.0000000000000176
 11
28.9107823794491701
 21
69.9889316569362023
 31
-0.0000000000000155
210
0.0000000000000002
220
1.0
230
-0.0000000000000002
  0
LINE
  5
76C
  8
0
  6
AUSGEZOGEN
 62
     3
 10
-26.7392058484644011
 20
79.0459434031591144
 30
-0.0000000000000176
 11
-28.9107823794491416
 21
69.9889316569362023
 31
-0.0000000000000155
210
0.0000000000000002
220
1.0
230
-0.0000000000000002
  0
ARC
  5
76D
  8
0
  6
AUSGEZOGEN
 62
     3
 10
16.9076590474519293
 20
68.5227324925879628
 30
0.0
 40
12.0923409525480494
210
0.0
220
-0.0000000000000002
230
-1.0
 50
0.000000000000687
 51
6.9642625915073424
  0
ARC
  5
76E
  8
0
  6
AUSGEZOGEN
 62
     3
 10
-16.9076590474519612
 20
68.5227324925879628
 30
0.0
 40
12.0923409525480494
210
0.0
220
-0.0000000000000002
230
-1.0
 50
173.0357374084927073
 51
179.9999999999992895
  0
LINE
  5
76F
  8
0
  6
AUSGEZOGEN
 62
     3
 10
29.0000000000000213
 20
68.5227324925881049
 30
-0.0000000000000152
 11
29.0
 21
7.0000000000000231
 31
-0.0000000000000016
210
0.0000000000000002
220
1.0
230
-0.0000000000000002
  0
LINE
  5
770
  8
0
  6
AUSGEZOGEN
 62
     3
 10
-28.9999999999999787
 20
68.5227324925881049
 30
-0.0000000000000152
 11
-29.0
 21
7.0000000000000364
 31
-0.0000000000000016
210
0.0000000000000002
220
1.0
230
-0.0000000000000002
  0
LINE
  5
771
  8
0
  6
AUSGEZOGEN
 62
     3
 10
-28.3875793553185112
 20
0.000000000000021
 30
0.0
 11
-29.0
 21
7.0000000000000364
 31
-0.0000000000000016
210
0.0000000000000002
220
1.0
230
-0.0000000000000002
  0
LINE
  5
772
  8
0
  6
AUSGEZOGEN
 62
     3
 10
28.3875793553185005
 20
-0.0000000000000059
 30
0.0
 11
29.0
 21
7.0000000000000231
 31
-0.0000000000000016
210
0.0000000000000002
220
1.0
230
-0.0000000000000002
  0
LINE
  5
773
  8
0
  6
VERDECKT
 62
     1
 10
-26.8818495990035409
 20
0.0000000000000202
 30
0.0
 11
-27.5
 21
7.0654914143629597
 31
-0.0000000000000016
210
0.0000000000000002
220
1.0
230
-0.0000000000000002
  0
LINE
  5
774
  8
0
  6
VERDECKT
 62
     1
 10
26.8818495990035409
 20
-0.000000000000006
 30
0.0
 11
27.5
 21
7.0654914143629481
 31
-0.0000000000000016
210
0.0000000000000002
220
1.0
230
-0.0000000000000002
  0
LINE
  5
775
  8
0
  6
VERDECKT
 62
     1
 10
27.5000000000000213
 20
68.5227324925881049
 30
-0.0000000000000152
 11
27.5
 21
7.0654914143629481
 31
-0.0000000000000016
210
0.0000000000000002
220
1.0
230
-0.0000000000000002
  0
LINE
  5
776
  8
0
  6
VERDECKT
 62
     1
 10
-27.4999999999999893
 20
68.5227324925881049
 30
-0.0000000000000152
 11
-27.5
 21
7.0654914143629597
 31
-0.0000000000000016
210
0.0000000000000002
220
1.0
230
-0.0000000000000002
  0
ARC
  5
777
  8
0
  6
VERDECKT
 62
     1
 10
16.9774745534851803
 20
68.5227324925880765
 30
0.0
 40
10.5225254465148002
210
0.0
220
-0.0000000000000002
230
-1.0
 50
0.0000000000001654
 51
14.0055824170408094
  0
ARC
  5
778
  8
0
  6
VERDECKT
 62
     1
 10
-16.9774745534847398
 20
68.5227324925880197
 30
0.0
 40
10.5225254465152709
210
0.0
220
-0.0000000000000002
230
-1.0
 50
165.994417582959386
 51
179.9999999999994884
  0
LINE
  5
779
  8
0
  6
VERDECKT
 62
     1
 10
25.2839920982464292
 20
78.682139965604577
 30
-0.0000000000000175
 11
27.1871879507802596
 21
71.0693565554692981
 31
-0.0000000000000158
210
0.0000000000000002
220
1.0
230
-0.0000000000000002
  0
LINE
  5
77A
  8
0
  6
VERDECKT
 62
     1
 10
-25.2839920982464008
 20
78.682139965604577
 30
-0.0000000000000175
 11
-27.1871879507802205
 21
71.0693565554692981
 31
-0.0000000000000158
210
0.0000000000000002
220
1.0
230
-0.0000000000000002
  0
ARC
  5
77B
  8
0
  6
VERDECKT
 62
     1
 10
34.5003458496257167
 20
80.9862284034495303
 30
0.0
 40
9.4999999999986517
210
0.0
220
-0.0000000000000002
230
-1.0
 50
179.9999999999984084
 51
194.0362434679271075
  0
ARC
  5
77C
  8
0
  6
VERDECKT
 62
     1
 10
-34.5003458496264628
 20
80.9862284034496014
 30
0.0
 40
9.4999999999993552
210
0.0
220
-0.0000000000000002
230
-1.0
 50
345.9637565320733188
 51
0.0000000000009542
  0
LINE
  5
77D
  8
0
  6
VERDECKT
 62
     1
 10
25.0003458496271591
 20
89.8726731603432114
 30
-0.00000000000002
 11
25.0003458496271591
 21
80.9862284034497861
 31
-0.000000000000018
210
0.0000000000000002
220
1.0
230
-0.0000000000000002
  0
LINE
  5
77E
  8
0
  6
VERDECKT
 62
     1
 10
-25.00034584962712
 20
89.8726731603432114
 30
-0.00000000000002
 11
-25.00034584962712
 21
80.9862284034497861
 31
-0.000000000000018
210
0.0000000000000002
220
1.0
230
-0.0000000000000002
  0
ARC
  5
77F
  8
0
  6
VERDECKT
 62
     1
 10
34.5003458496278128
 20
89.8726731603431261
 30
0.0
 40
9.5000000000006963
210
0.0
220
-0.0000000000000002
230
-1.0
 50
148.2116693829522092
 51
179.9999999999994031
  0
ARC
  5
780
  8
0
  6
VERDECKT
 62
     1
 10
-34.5003458496278625
 20
89.8726731603430977
 30
0.0
 40
9.5000000000006946
210
0.0
220
-0.0000000000000002
230
-1.0
 50
0.0000000000006107
 51
31.7883306170478903
  0
ARC
  5
781
  8
0
  6
VERDECKT
 62
     1
 10
17.5003458496234892
 20
100.4083269131969018
 30
0.0
 40
10.5000000000035598
210
0.0
220
-0.0000000000000002
230
-1.0
 50
328.2116693829522092
 51
359.9999999999944862
  0
ARC
  5
782
  8
0
  6
VERDECKT
 62
     1
 10
-17.5003458496235389
 20
100.4083269131969018
 30
0.0
 40
10.5000000000035598
210
0.0
220
-0.0000000000000002
230
-1.0
 50
180.0000000000054001
 51
211.7883306170477056
  0
LINE
  5
783
  8
0
  6
VERDECKT
 62
     1
 10
28.0003458496271094
 20
111.4999999999999005
 30
-0.0000000000000248
 11
28.0003458496270987
 21
100.4083269131959071
 31
-0.0000000000000223
210
0.0000000000000002
220
1.0
230
-0.0000000000000002
  0
LINE
  5
784
  8
0
  6
VERDECKT
 62
     1
 10
-28.0003458496270596
 20
111.4999999999999005
 30
-0.0000000000000248
 11
-28.0003458496270596
 21
100.4083269131959071
 31
-0.0000000000000223
210
0.0000000000000002
220
1.0
230
-0.0000000000000002
  0
ARC
  5
785
  8
0
  6
VERDECKT
 62
     1
 10
39.5003458496280828
 20
111.499999999999801
 30
0.0
 40
11.5000000000010196
210
0.0
220
-0.0000000000000002
230
-1.0
 50
160.5369005553127124
 51
179.9999999999994884
  0
ARC
  5
786
  8
0
  6
VERDECKT
 62
     1
 10
-39.500345849628367
 20
111.4999999999997016
 30
0.0
 40
11.5000000000012594
210
0.0
220
-0.0000000000000002
230
-1.0
 50
0.0000000000007888
 51
19.4630994446870886
  0
ARC
  5
787
  8
0
  6
VERDECKT
 62
     1
 10
6.5003117499446788
 20
123.1620120506206035
 30
0.0
 40
23.50006822349091
210
0.0
220
-0.0000000000000002
230
-1.0
 50
340.5369005553120019
 51
359.9023590785743067
  0
ARC
  5
788
  8
0
  6
VERDECKT
 62
     1
 10
-6.5003117499444709
 20
123.1620120506206035
 30
0.0
 40
23.50006822349118
210
0.0
220
-0.0000000000000002
230
-1.0
 50
180.0976409214256933
 51
199.4630994446877992
  0
LINE
  5
789
  8
0
  6
VERDECKT
 62
     1
 10
30.0003458496271094
 20
124.6174986573390981
 30
-0.0000000000000277
 11
30.0003458496271094
 21
123.1219642979974935
 31
-0.0000000000000273
210
0.0000000000000002
220
1.0
230
-0.0000000000000002
  0
LINE
  5
78A
  8
0
  6
VERDECKT
 62
     1
 10
-30.000345849627049
 20
124.6174986573390981
 30
-0.0000000000000277
 11
-30.000345849627049
 21
123.1219642979974935
 31
-0.0000000000000273
210
0.0000000000000002
220
1.0
230
-0.0000000000000002
  0
ARC
  5
78B
  8
0
  6
VERDECKT
 62
     1
 10
12.0003458496217892
 20
124.617498657337805
 30
0.0
 40
18.0000000000052012
210
0.0
220
-0.0000000000000002
230
-1.0
 50
0.0000000000041729
 51
27.7551793916111116
  0
ARC
  5
78C
  8
0
  6
VERDECKT
 62
     1
 10
-12.0003458496217803
 20
124.617498657337805
 30
0.0
 40
18.0000000000052687
210
0.0
220
-0.0000000000000002
230
-1.0
 50
152.244820608388892
 51
179.9999999999957083
  0
ENDBLK
  5
78E
  8
0
  0
BLOCK
  8
0
  2
A$C22C973D7
 70
     0
 10
0.0
 20
0.0
 30
0.0
  3
A$C22C973D7
  1

  0
CIRCLE
  5
792
  8
0
  6
AUSGEZOGEN
 62
     3
 10
0.0000000000000277
 20
0.0000000000000149
 30
0.0
 40
31.5003458496270206
  0
CIRCLE
  5
793
  8
0
  6
AUSGEZOGEN
 62
     3
 10
0.0000000000000295
 20
0.0000000000000155
 30
0.0
 40
29.6066989995659391
  0
CIRCLE
  5
794
  8
0
  6
AUSGEZOGEN
 62
     3
 10
0.00000000000002
 20
0.0000000000000128
 30
0.0
 40
25.0003458496271413
  0
CIRCLE
  5
795
  8
0
  6
AUSGEZOGEN
 62
     3
 10
0.0000000000000295
 20
0.0000000000000155
 30
0.0
 40
27.9293656324098905
  0
CIRCLE
  5
796
  8
0
  6
AUSGEZOGEN
 62
     3
 10
0.0000000000000273
 20
0.0000000000000149
 30
0.0
 40
31.5003779067552614
  0
CIRCLE
  5
797
  8
0
  6
VERDECKT
 62
     1
 10
0.0000000000000248
 20
0.0000000000000141
 30
0.0
 40
29.5003458496271413
  0
CIRCLE
  5
798
  8
0
  6
VERDECKT
 62
     1
 10
0.0000000000000178
 20
0.0000000000000122
 30
0.0
 40
26.5602853961638594
  0
CIRCLE
  5
799
  8
0
  6
VERDECKT
 62
     1
 10
0.0000000000000155
 20
0.0000000000000116
 30
0.0
 40
28.910782379449131
  0
CIRCLE
  5
79A
  8
0
  6
VERDECKT
 62
     1
 10
0.0000000000000152
 20
0.0000000000000115
 30
0.0
 40
29.0
  0
CIRCLE
  5
79B
  8
0
  6
VERDECKT
 62
     1
 10
0.0
 20
0.0000000000000073
 30
0.0
 40
28.3875793553185112
  0
CIRCLE
  5
79C
  8
0
  6
VERDECKT
 62
     1
 10
0.0
 20
0.0000000000000073
 30
0.0
 40
26.8818495990035409
  0
CIRCLE
  5
79D
  8
0
  6
VERDECKT
 62
     1
 10
0.0000000000000152
 20
0.0000000000000115
 30
0.0
 40
27.5
  0
CIRCLE
  5
79E
  8
0
  6
VERDECKT
 62
     1
 10
0.0000000000000248
 20
0.0000000000000141
 30
0.0
 40
28.000345849627081
  0
CIRCLE
  5
79F
  8
0
  6
VERDECKT
 62
     1
 10
0.0000000000000277
 20
0.0000000000000149
 30
0.0
 40
30.0003458496270312
  0
CIRCLE
  5
7A0
  8
0
  6
VERDECKT
 62
     1
 10
0.0000000000000223
 20
0.0000000000000135
 30
0.0
 40
29.5005627724843293
  0
CIRCLE
  5
7A1
  8
0
  6
VERDECKT
 62
     1
 10
0.00000000000002
 20
0.0000000000000128
 30
0.0
 40
26.500201234388971
  0
ENDBLK
  5
7A3
  8
0
  0
BLOCK
  8
0
  2
A$C3A97402F
 70
     0
 10
0.0
 20
0.0
 30
0.0
  3
A$C3A97402F
  1

  0
LINE
  5
7A7
  8
0
  6
AUSGEZOGEN
 62
     3
 10
-29.6066989995659
 20
132.9999999999955946
 30
-0.0000000000000295
 11
29.6066989995659817
 21
132.9999999999955946
 31
-0.0000000000000295
210
0.0000000000000002
220
1.0
230
-0.0000000000000002
  0
LINE
  5
7A8
  8
0
  6
AUSGEZOGEN
 62
     3
 10
-26.5602853961638417
 20
80.0087622938841463
 30
-0.0000000000000178
 11
26.5602853961638914
 21
80.0087622938841463
 31
-0.0000000000000178
210
0.0000000000000002
220
1.0
230
-0.0000000000000002
  0
LINE
  5
7A9
  8
0
  6
AUSGEZOGEN
 62
     3
 10
-28.9107823794491097
 20
69.9889316569362023
 30
-0.0000000000000155
 11
28.9107823794491487
 21
69.9889316569362023
 31
-0.0000000000000155
210
0.0000000000000002
220
1.0
230
-0.0000000000000002
  0
LINE
  5
7AA
  8
0
  6
AUSGEZOGEN
 62
     3
 10
-28.3875793553185005
 20
0.000000000000008
 30
0.0
 11
28.3875793553185183
 21
-0.000000000000008
 31
0.0
210
0.0000000000000002
220
1.0
230
-0.0000000000000002
  0
ARC
  5
7AB
  8
0
  6
AUSGEZOGEN
 62
     3
 10
12.0003458496262692
 20
124.6174986573389987
 30
0.0
 40
19.5000000000007105
210
0.0
220
-0.0000000000000002
230
-1.0
 50
0.0000000000072771
 51
25.4594285688045083
  0
ARC
  5
7AC
  8
0
  6
AUSGEZOGEN
 62
     3
 10
-12.0003458496262194
 20
124.6174986573389987
 30
0.0
 40
19.5000000000008491
210
0.0
220
-0.0000000000000002
230
-1.0
 50
154.5405714311955876
 51
179.9999999999926104
  0
LINE
  5
7AD
  8
0
  6
AUSGEZOGEN
 62
     3
 10
31.5003458496271804
 20
124.6174986573414998
 30
-0.0000000000000277
 11
31.5003458496271804
 21
123.2020357019524965
 31
-0.0000000000000274
210
0.0000000000000002
220
1.0
230
-0.0000000000000002
  0
LINE
  5
7AE
  8
0
  6
AUSGEZOGEN
 62
     3
 10
-31.5003458496270987
 20
124.6174986573414998
 30
-0.0000000000000277
 11
-31.5003458496270987
 21
123.2020357019524965
 31
-0.0000000000000274
210
0.0000000000000002
220
1.0
230
-0.0000000000000002
  0
ARC
  5
7AF
  8
0
  6
AUSGEZOGEN
 62
     3
 10
6.5003458496297348
 20
123.1619999999991961
 30
0.0
 40
25.000032057125491
210
0.0
220
-0.0000000000000002
230
-1.0
 50
340.5369005553106945
 51
0.0917549916333602
  0
ARC
  5
7B0
  8
0
  6
AUSGEZOGEN
 62
     3
 10
-6.500345849629598
 20
123.1619999999992956
 30
0.0
 40
25.0000320571257113
210
0.0
220
-0.0000000000000002
230
-1.0
 50
179.9082450083666913
 51
199.4630994446891066
  0
ARC
  5
7B1
  8
0
  6
AUSGEZOGEN
 62
     3
 10
39.5003458496255107
 20
111.5000000000000995
 30
0.0
 40
9.9999999999984155
210
0.0
220
-0.0000000000000002
230
-1.0
 50
160.5369005553091029
 51
180.0000000000007958
  0
ARC
  5
7B2
  8
0
  6
AUSGEZOGEN
 62
     3
 10
-39.5003458496254609
 20
111.5000000000000995
 30
0.0
 40
9.9999999999982894
210
0.0
220
-0.0000000000000002
230
-1.0
 50
359.9999999999989768
 51
19.4630994446909895
  0
LINE
  5
7B3
  8
0
  6
AUSGEZOGEN
 62
     3
 10
29.5003458496271804
 20
111.5
 30
-0.0000000000000248
 11
29.5003458496271698
 21
100.4083269131959071
 31
-0.0000000000000223
210
0.0000000000000002
220
1.0
230
-0.0000000000000002
  0
LINE
  5
7B4
  8
0
  6
AUSGEZOGEN
 62
     3
 10
-29.5003458496270987
 20
111.5
 30
-0.0000000000000248
 11
-29.5003458496270987
 21
100.4083269131959071
 31
-0.0000000000000223
210
0.0000000000000002
220
1.0
230
-0.0000000000000002
  0
ARC
  5
7B5
  8
0
  6
AUSGEZOGEN
 62
     3
 10
17.7510810116299815
 20
100.3369307280464966
 30
0.0
 40
11.7494817608543105
210
0.0
220
-0.0000000000000002
230
-1.0
 50
327.8635071966929218
 51
0.3481621862533847
  0
ARC
  5
7B6
  8
0
  6
AUSGEZOGEN
 62
     3
 10
-17.751081011630049
 20
100.3369307280464966
 30
0.0
 40
11.7494817608543105
210
0.0
220
-0.0000000000000002
230
-1.0
 50
179.6518378137465959
 51
212.1364928033071067
  0
ARC
  5
7B7
  8
0
  6
AUSGEZOGEN
 62
     3
 10
34.3331890749567705
 20
89.9202706171100772
 30
0.0
 40
7.832987840567835
210
0.0
220
-0.0000000000000002
230
-1.0
 50
147.8635071966943997
 51
180.3481621862578095
  0
ARC
  5
7B8
  8
0
  6
AUSGEZOGEN
 62
     3
 10
-34.3331890749568913
 20
89.9202706171100346
 30
0.0
 40
7.8329878405678821
210
0.0
220
-0.0000000000000002
230
-1.0
 50
359.6518378137421905
 51
32.1364928033053232
  0
LINE
  5
7B9
  8
0
  6
AUSGEZOGEN
 62
     3
 10
26.5003458496271804
 20
89.8726731603432114
 30
-0.00000000000002
 11
26.5602853961638985
 21
80.0087622938841463
 31
-0.0000000000000178
210
0.0000000000000002
220
1.0
230
-0.0000000000000002
  0
LINE
  5
7BA
  8
0
  6
AUSGEZOGEN
 62
     3
 10
-26.5003458496270987
 20
89.8726731603432114
 30
-0.00000000000002
 11
-26.560285396163831
 21
80.0087622938841463
 31
-0.0000000000000178
210
0.0000000000000002
220
1.0
230
-0.0000000000000002
  0
ARC
  5
7BB
  8
0
  6
AUSGEZOGEN
 62
     3
 10
35.9727190547956326
 20
81.2598392375966654
 30
0.0
 40
9.4952146314464105
210
0.0
220
-0.0000000000000002
230
-1.0
 50
187.5712315266144117
 51
193.4831336752708921
  0
ARC
  5
7BC
  8
0
  6
AUSGEZOGEN
 62
     3
 10
-35.9727190547956965
 20
81.2598392375966512
 30
0.0
 40
9.4952146314464141
210
0.0
220
-0.0000000000000002
230
-1.0
 50
346.5168663247291079
 51
352.4287684733856167
  0
LINE
  5
7BD
  8
0
  6
AUSGEZOGEN
 62
     3
 10
26.7392058484644508
 20
79.0459434031591144
 30
-0.0000000000000176
 11
28.9107823794491807
 21
69.9889316569362023
 31
-0.0000000000000155
210
0.0000000000000002
220
1.0
230
-0.0000000000000002
  0
LINE
  5
7BE
  8
0
  6
AUSGEZOGEN
 62
     3
 10
-26.7392058484643904
 20
79.0459434031591144
 30
-0.0000000000000176
 11
-28.910782379449131
 21
69.9889316569362023
 31
-0.0000000000000155
210
0.0000000000000002
220
1.0
230
-0.0000000000000002
  0
ARC
  5
7BF
  8
0
  6
AUSGEZOGEN
 62
     3
 10
16.9076590474499895
 20
68.5227324925878492
 30
0.0
 40
12.0923409525499803
210
0.0
220
-0.0000000000000002
230
-1.0
 50
0.0000000000000127
 51
6.9642625915055651
  0
ARC
  5
7C0
  8
0
  6
AUSGEZOGEN
 62
     3
 10
-16.9076590474500392
 20
68.5227324925878492
 30
0.0
 40
12.0923409525499803
210
0.0
220
-0.0000000000000002
230
-1.0
 50
173.0357374084931905
 51
179.9999999999988063
  0
LINE
  5
7C1
  8
0
  6
AUSGEZOGEN
 62
     3
 10
29.0000000000000284
 20
68.5227324925881049
 30
-0.0000000000000152
 11
29.0000000000000107
 21
7.0000000000000231
 31
-0.0000000000000016
210
0.0000000000000002
220
1.0
230
-0.0000000000000002
  0
LINE
  5
7C2
  8
0
  6
AUSGEZOGEN
 62
     3
 10
-28.9999999999999716
 20
68.5227324925881049
 30
-0.0000000000000152
 11
-29.0
 21
7.0000000000000364
 31
-0.0000000000000016
210
0.0000000000000002
220
1.0
230
-0.0000000000000002
  0
LINE
  5
7C3
  8
0
  6
AUSGEZOGEN
 62
     3
 10
-28.3875793553185005
 20
0.0000000000000085
 30
0.0
 11
-29.0
 21
7.0000000000000382
 31
-0.0000000000000016
210
0.0000000000000002
220
1.0
230
-0.0000000000000002
  0
LINE
  5
7C4
  8
0
  6
AUSGEZOGEN
 62
     3
 10
28.3875793553185112
 20
-0.0000000000000081
 30
0.0
 11
29.0000000000000107
 21
7.0000000000000222
 31
-0.0000000000000016
210
0.0000000000000002
220
1.0
230
-0.0000000000000002
  0
LINE
  5
7C5
  8
0
  6
VERDECKT
 62
     1
 10
-26.8818495990035409
 20
0.0000000000000077
 30
0.0
 11
-27.5
 21
7.0654914143629624
 31
-0.0000000000000016
210
0.0000000000000002
220
1.0
230
-0.0000000000000002
  0
LINE
  5
7C6
  8
0
  6
VERDECKT
 62
     1
 10
26.8818495990035515
 20
-0.0000000000000077
 30
0.0
 11
27.5000000000000107
 21
7.0654914143629464
 31
-0.0000000000000016
210
0.0000000000000002
220
1.0
230
-0.0000000000000002
  0
LINE
  5
7C7
  8
0
  6
VERDECKT
 62
     1
 10
27.5000000000000284
 20
68.5227324925881049
 30
-0.0000000000000152
 11
27.5000000000000107
 21
7.0654914143629481
 31
-0.0000000000000016
210
0.0000000000000002
220
1.0
230
-0.0000000000000002
  0
LINE
  5
7C8
  8
0
  6
VERDECKT
 62
     1
 10
-27.4999999999999716
 20
68.5227324925881049
 30
-0.0000000000000152
 11
-27.5
 21
7.0654914143629597
 31
-0.0000000000000016
210
0.0000000000000002
220
1.0
230
-0.0000000000000002
  0
ARC
  5
7C9
  8
0
  6
VERDECKT
 62
     1
 10
16.9774745534849387
 20
68.5227324925880623
 30
0.0
 40
10.5225254465150293
210
0.0
220
-0.0000000000000002
230
-1.0
 50
0.0000000000002544
 51
14.0055824170405891
  0
ARC
  5
7CA
  8
0
  6
VERDECKT
 62
     1
 10
-16.9774745534849885
 20
68.5227324925880623
 30
0.0
 40
10.5225254465150293
210
0.0
220
-0.0000000000000002
230
-1.0
 50
165.994417582959386
 51
179.999999999999801
  0
LINE
  5
7CB
  8
0
  6
VERDECKT
 62
     1
 10
25.2839920982464399
 20
78.682139965604577
 30
-0.0000000000000175
 11
27.1871879507802596
 21
71.0693565554692981
 31
-0.0000000000000158
210
0.0000000000000002
220
1.0
230
-0.0000000000000002
  0
LINE
  5
7CC
  8
0
  6
VERDECKT
 62
     1
 10
-25.2839920982463795
 20
78.682139965604577
 30
-0.0000000000000175
 11
-27.1871879507802205
 21
71.0693565554692981
 31
-0.0000000000000158
210
0.0000000000000002
220
1.0
230
-0.0000000000000002
  0
ARC
  5
7CD
  8
0
  6
VERDECKT
 62
     1
 10
34.5003458496257025
 20
80.9862284034495303
 30
0.0
 40
9.4999999999986535
210
0.0
220
-0.0000000000000002
230
-1.0
 50
179.9999999999984084
 51
194.0362434679271075
  0
ARC
  5
7CE
  8
0
  6
VERDECKT
 62
     1
 10
-34.5003458496264699
 20
80.9862284034496014
 30
0.0
 40
9.4999999999993552
210
0.0
220
-0.0000000000000002
230
-1.0
 50
345.9637565320733188
 51
0.0000000000009542
  0
LINE
  5
7CF
  8
0
  6
VERDECKT
 62
     1
 10
25.0003458496271804
 20
89.8726731603432114
 30
-0.00000000000002
 11
25.0003458496271698
 21
80.9862284034497861
 31
-0.000000000000018
210
0.0000000000000002
220
1.0
230
-0.0000000000000002
  0
LINE
  5
7D0
  8
0
  6
VERDECKT
 62
     1
 10
-25.0003458496271094
 20
89.8726731603432114
 30
-0.00000000000002
 11
-25.0003458496271094
 21
80.9862284034497861
 31
-0.000000000000018
210
0.0000000000000002
220
1.0
230
-0.0000000000000002
  0
ARC
  5
7D1
  8
0
  6
VERDECKT
 62
     1
 10
34.5003458496277986
 20
89.8726731603431261
 30
0.0
 40
9.5000000000006981
210
0.0
220
-0.0000000000000002
230
-1.0
 50
148.2116693829522092
 51
179.9999999999994031
  0
ARC
  5
7D2
  8
0
  6
VERDECKT
 62
     1
 10
-34.5003458496278697
 20
89.8726731603430977
 30
0.0
 40
9.5000000000006963
210
0.0
220
-0.0000000000000002
230
-1.0
 50
0.0000000000006107
 51
31.7883306170478903
  0
ARC
  5
7D3
  8
0
  6
VERDECKT
 62
     1
 10
17.5003458496234785
 20
100.4083269131969018
 30
0.0
 40
10.5000000000035598
210
0.0
220
-0.0000000000000002
230
-1.0
 50
328.2116693829522092
 51
359.9999999999944862
  0
ARC
  5
7D4
  8
0
  6
VERDECKT
 62
     1
 10
-17.5003458496235496
 20
100.4083269131969018
 30
0.0
 40
10.5000000000035598
210
0.0
220
-0.0000000000000002
230
-1.0
 50
180.0000000000054001
 51
211.7883306170477056
  0
LINE
  5
7D5
  8
0
  6
VERDECKT
 62
     1
 10
28.00034584962712
 20
111.4999999999999005
 30
-0.0000000000000248
 11
28.00034584962712
 21
100.4083269131959071
 31
-0.0000000000000223
210
0.0000000000000002
220
1.0
230
-0.0000000000000002
  0
LINE
  5
7D6
  8
0
  6
VERDECKT
 62
     1
 10
-28.0003458496270383
 20
111.4999999999999005
 30
-0.0000000000000248
 11
-28.000345849627049
 21
100.4083269131959071
 31
-0.0000000000000223
210
0.0000000000000002
220
1.0
230
-0.0000000000000002
  0
ARC
  5
7D7
  8
0
  6
VERDECKT
 62
     1
 10
39.5003458496280686
 20
111.499999999999801
 30
0.0
 40
11.5000000000010196
210
0.0
220
-0.0000000000000002
230
-1.0
 50
160.5369005553127124
 51
179.9999999999994884
  0
ARC
  5
7D8
  8
0
  6
VERDECKT
 62
     1
 10
-39.5003458496283812
 20
111.4999999999997016
 30
0.0
 40
11.5000000000012594
210
0.0
220
-0.0000000000000002
230
-1.0
 50
0.0000000000007888
 51
19.4630994446870886
  0
ARC
  5
7D9
  8
0
  6
VERDECKT
 62
     1
 10
6.5003117499446654
 20
123.1620120506206035
 30
0.0
 40
23.5000682234909206
210
0.0
220
-0.0000000000000002
230
-1.0
 50
340.5369005553120019
 51
359.9023590785743067
  0
ARC
  5
7DA
  8
0
  6
VERDECKT
 62
     1
 10
-6.500311749944486
 20
123.1620120506206035
 30
0.0
 40
23.5000682234911906
210
0.0
220
-0.0000000000000002
230
-1.0
 50
180.0976409214256933
 51
199.4630994446877992
  0
LINE
  5
7DB
  8
0
  6
VERDECKT
 62
     1
 10
30.00034584962712
 20
124.6174986573390981
 30
-0.0000000000000277
 11
30.00034584962712
 21
123.1219642979974935
 31
-0.0000000000000273
210
0.0000000000000002
220
1.0
230
-0.0000000000000002
  0
LINE
  5
7DC
  8
0
  6
VERDECKT
 62
     1
 10
-30.0003458496270383
 20
124.6174986573390981
 30
-0.0000000000000277
 11
-30.0003458496270383
 21
123.1219642979974935
 31
-0.0000000000000273
210
0.0000000000000002
220
1.0
230
-0.0000000000000002
  0
ARC
  5
7DD
  8
0
  6
VERDECKT
 62
     1
 10
12.0003458496217803
 20
124.617498657337805
 30
0.0
 40
18.0000000000052012
210
0.0
220
-0.0000000000000002
230
-1.0
 50
0.0000000000041729
 51
27.7551793916111116
  0
ARC
  5
7DE
  8
0
  6
VERDECKT
 62
     1
 10
-12.0003458496217998
 20
124.617498657337805
 30
0.0
 40
18.0000000000052687
210
0.0
220
-0.0000000000000002
230
-1.0
 50
152.244820608388892
 51
179.9999999999957083
  0
ENDBLK
  5
7E0
  8
0
  0
ENDSEC
  0
SECTION
  2
ENTITIES
  0
TEXT
  5
111
  8
VOLL
 10
78.076754716981128
 20
31.025947764705851
 30
0.0
 40
1.8
  1

  7
GREEKS
  0
TEXT
  5
11F
  8
VOLL
 10
99.7576245210598955
 20
198.1285396345072911
 30
0.0
 40
1.8
  1

  7
GREEKS
  0
TEXT
  5
120
  8
TEXT
 10
431.5898927246528842
 20
203.6867751677328044
 30
0.0
 40
2.5
  1
  
  7
GREEKS
 72
     1
 11
433.8517974865575866
 21
203.6867751677328044
 31
0.0
  0
TEXT
  5
121
  8
BEM
 10
675.5905624180870745
 20
339.2456571981351203
 30
0.0
 40
2.5
  1
 
 72
     4
 11
676.8405624180870745
 21
339.2456571981351203
 31
0.0
  0
TEXT
  5
123
  8
BEM
 10
265.1032376007099174
 20
238.2817703330929078
 30
0.0
 40
2.5
  1

  7
GREEKS
  0
TEXT
  5
124
  8
VOLL
 10
251.0370445809884075
 20
218.098509676057887
 30
0.0
 40
1.8
  1

  7
GREEKS
  0
TEXT
  5
125
  8
BEM
 10
285.5251094202729973
 20
222.8242339992783911
 30
0.0
 40
2.5
  1

 41
0.8
  7
GREEKS
  0
TEXT
  5
126
  8
BEM
 10
285.5251094202729973
 20
218.1304654452262071
 30
0.0
 40
2.5
  1

 41
0.8
  7
GREEKS
  0
TEXT
  5
127
  8
BEM
 10
285.5251094202729973
 20
212.8926216265628
 30
0.0
 40
2.5
  1

 41
0.8
  7
GREEKS
  0
TEXT
  5
128
  8
BEM
 10
285.4521649428986052
 20
208.3874326764652096
 30
0.0
 40
1.8
  1

 41
0.8
  7
GREEKS
  0
TEXT
  5
129
  8
BEM
 10
272.7685940632873098
 20
233.9790217726904018
 30
0.0
 40
2.0
  1

 41
0.8
  7
GREEKS
 72
     1
 11
272.7685940632873098
 21
233.9790217726904018
 31
0.0
  0
TEXT
  5
12A
  8
TEXT
 10
582.8693127845812114
 20
223.6567452092834003
 30
0.0
 40
2.5
  1
  
  7
GREEKS
 72
     1
 11
585.1312175464860275
 21
223.6567452092834003
 31
0.0
  0
TEXT
  5
12B
  8
BEM
 10
826.8699824780155723
 20
359.2156272396857162
 30
0.0
 40
2.5
  1
 
 72
     4
 11
828.1199824780155723
 21
359.2156272396857162
 31
0.0
  0
TEXT
  5
299
  8
VOLL
 10
152.8234008376080055
 20
212.6432453191193019
 30
0.0
 40
1.8
  1

  7
GREEKS
  0
INSERT
  5
78F
  8
STEMPEL
  2
A$C61D94810
 10
0.0
 20
0.0
 30
0.0
  0
INSERT
  5
7A4
  8
STEMPEL
  2
A$C22C973D7
 10
-0.000000000000007
 20
-131.5003779067552045
 30
0.0
  0
INSERT
  5
7E1
  8
STEMPEL
  2
A$C3A97402F
 10
0.0
 20
0.0
 30
0.0
  0
VIEWPORT
  5
43B
 67
     1
  8
0
 10
7.7714519498490846
 20
11.0829537220429106
 30
0.0
 40
44.6851282804378727
 41
22.7579637391074705
 68
     1
 69
     1
1001
ACAD
1000
MVIEW
1002
{
1070
    16
1010
0.0
1020
0.0
1030
0.0
1010
0.0
1020
0.0
1030
1.0
1040
0.0
1040
22.7579637391074705
1040
7.7714519498490846
1040
11.0829537220429106
1040
50.0
1040
0.0
1040
0.0
1070
     0
1070
  1500
1070
     1
1070
     1
1070
     0
1070
     0
1070
     0
1070
     0
1040
0.0
1040
0.0
1040
0.0
1040
10.0
1040
10.0
1040
10.0
1040
10.0
1070
     0
1002
{
1002
}
1002
}
  0
VIEWPORT
  5
43F
 67
     1
  8
DEFPOINTS
 10
7.771597244325906
 20
11.0827634592825195
 30
0.0
 40
15.9975271379190591
 41
22.5795842702269596
 68
     2
 69
     2
1001
ACAD
1000
MVIEW
1002
{
1070
    16
1010
0.0
1020
0.0
1030
0.0
1010
0.0
1020
0.0
1030
1.0
1040
0.0
1040
308.427501121419823
1040
104.2650175551366942
1040
150.169422541469288
1040
50.0
1040
0.0
1040
0.0
1070
     0
1070
  1500
1070
     1
1070
     0
1070
     0
1070
     0
1070
     0
1070
     0
1040
0.0
1040
0.0
1040
0.0
1040
1.0
1040
1.0
1040
10.0
1040
10.0
1070
     0
1002
{
1002
}
1002
}
  0
VIEWPORT
  5
443
 67
     1
  8
DEFPOINTS
 10
12.6699525719501001
 20
10.3280897991809795
 30
0.0
 40
2.996761429148747
 41
5.9299211698877548
 68
     3
 69
     3
1001
ACAD
1000
MVIEW
1002
{
1070
    16
1010
423.9970998236167929
1020
185.2070216727881018
1030
0.2631978416269562
1010
2.52002405526548
1020
64.6282932218558699
1030
210.9204528311840079
1040
3.095773576144313
1040
149.6917385681730934
1040
3.595035463802057
1040
2.2916477227899512
1040
50.0
1040
0.0
1040
0.0
1070
     0
1070
  1500
1070
     1
1070
     0
1070
     0
1070
     0
1070
     0
1070
     0
1040
0.0
1040
0.0
1040
0.0
1040
1.0
1040
1.0
1040
10.0
1040
10.0
1070
     0
1002
{
1002
}
1002
}
  0
ENDSEC
  0
EOF
