  0
SECTION
  2
HEADER
  9
$ACADVER
  1
AC1009
  9
$INSBASE
 10
509.9391017861535147
 20
-118.0350180316795985
 30
403.1361558984037856
  9
$EXTMIN
 10
-156.9943389892578125
 20
44.4964866638183523
 30
-61.1078605651855469
  9
$EXTMAX
 10
-14.9943332672119105
 20
44.4964866638183523
 30
219.8921356201171875
  9
$LIMMIN
 10
0.0
 20
0.000000000000008
  9
$LIMMAX
 10
594.0
 20
840.0
  9
$ORTHOMODE
 70
     1
  9
$REGENMODE
 70
     1
  9
$FILLMODE
 70
     1
  9
$QTEXTMODE
 70
     0
  9
$MIRRTEXT
 70
     1
  9
$DRAGMODE
 70
     2
  9
$LTSCALE
 40
20.0
  9
$OSMODE
 70
  1535
  9
$ATTMODE
 70
     1
  9
$TEXTSIZE
 40
2.0
  9
$TRACEWID
 40
1.0
  9
$TEXTSTYLE
  7
STANDARD
  9
$CLAYER
  8
STEMPEL
  9
$CELTYPE
  6
BYLAYER
  9
$CECOLOR
 62
   256
  9
$DIMSCALE
 40
1.0
  9
$DIMASZ
 40
3.5
  9
$DIMEXO
 40
1.0
  9
$DIMDLI
 40
0.38
  9
$DIMRND
 40
0.0
  9
$DIMDLE
 40
0.0
  9
$DIMEXE
 40
1.0
  9
$DIMTP
 40
0.0
  9
$DIMTM
 40
0.000000001
  9
$DIMTXT
 40
3.5
  9
$DIMCEN
 40
0.09
  9
$DIMTSZ
 40
0.0
  9
$DIMTOL
 70
     0
  9
$DIMLIM
 70
     0
  9
$DIMTIH
 70
     0
  9
$DIMTOH
 70
     0
  9
$DIMSE1
 70
     0
  9
$DIMSE2
 70
     0
  9
$DIMTAD
 70
     1
  9
$DIMZIN
 70
     8
  9
$DIMBLK
  1

  9
$DIMASO
 70
     1
  9
$DIMSHO
 70
     0
  9
$DIMPOST
  1

  9
$DIMAPOST
  1

  9
$DIMALT
 70
     0
  9
$DIMALTD
 70
     2
  9
$DIMALTF
 40
25.3999999999999986
  9
$DIMLFAC
 40
2.0
  9
$DIMTOFL
 70
     1
  9
$DIMTVP
 40
0.0
  9
$DIMTIX
 70
     0
  9
$DIMSOXD
 70
     0
  9
$DIMSAH
 70
     0
  9
$DIMBLK1
  1

  9
$DIMBLK2
  1

  9
$DIMSTYLE
  2
LORO
  9
$DIMCLRD
 70
     0
  9
$DIMCLRE
 70
     0
  9
$DIMCLRT
 70
     1
  9
$DIMTFAC
 40
0.5
  9
$DIMGAP
 40
1.5
  9
$LUNITS
 70
     2
  9
$LUPREC
 70
     2
  9
$SKETCHINC
 40
1.0
  9
$FILLETRAD
 40
11.0
  9
$AUNITS
 70
     0
  9
$AUPREC
 70
     0
  9
$MENU
  1
ACAD
  9
$ELEVATION
 40
0.0
  9
$PELEVATION
 40
0.0
  9
$THICKNESS
 40
0.0
  9
$LIMCHECK
 70
     0
  9
$BLIPMODE
 70
     0
  9
$CHAMFERA
 40
0.0
  9
$CHAMFERB
 40
0.0
  9
$SKPOLY
 70
     0
  9
$TDCREATE
 40
2455397.867048610933125
  9
$TDUPDATE
 40
2460690.4761921297758818
  9
$TDINDWG
 40
1.6112684838
  9
$TDUSRTIMER
 40
1.6112684838
  9
$USRTIMER
 70
     1
  9
$ANGBASE
 50
0.0
  9
$ANGDIR
 70
     0
  9
$PDMODE
 70
     0
  9
$PDSIZE
 40
0.0
  9
$PLINEWID
 40
0.0
  9
$COORDS
 70
     1
  9
$SPLFRAME
 70
     0
  9
$SPLINETYPE
 70
     6
  9
$SPLINESEGS
 70
     8
  9
$ATTDIA
 70
     1
  9
$ATTREQ
 70
     1
  9
$HANDLING
 70
     1
  9
$HANDSEED
  5
22C1A
  9
$SURFTAB1
 70
     6
  9
$SURFTAB2
 70
     6
  9
$SURFTYPE
 70
     6
  9
$SURFU
 70
     6
  9
$SURFV
 70
     6
  9
$UCSNAME
  2

  9
$UCSORG
 10
0.0
 20
0.0
 30
0.0
  9
$UCSXDIR
 10
1.0
 20
0.0
 30
0.0
  9
$UCSYDIR
 10
0.0
 20
1.0
 30
0.0
  9
$PUCSNAME
  2

  9
$PUCSORG
 10
0.0
 20
0.0
 30
0.0
  9
$PUCSXDIR
 10
1.0
 20
0.0
 30
0.0
  9
$PUCSYDIR
 10
0.0
 20
1.0
 30
0.0
  9
$USERI1
 70
     0
  9
$USERI2
 70
     0
  9
$USERI3
 70
     0
  9
$USERI4
 70
     0
  9
$USERI5
 70
     0
  9
$USERR1
 40
0.0
  9
$USERR2
 40
0.0
  9
$USERR3
 40
0.0
  9
$USERR4
 40
0.0
  9
$USERR5
 40
0.0
  9
$WORLDVIEW
 70
     1
  9
$SHADEDGE
 70
     3
  9
$SHADEDIF
 70
    70
  9
$TILEMODE
 70
     1
  9
$MAXACTVP
 70
    16
  9
$PLIMCHECK
 70
     0
  9
$PEXTMIN
 10
1.0000000000000000E+20
 20
1.0000000000000000E+20
 30
1.0000000000000000E+20
  9
$PEXTMAX
 10
-1.0000000000000000E+20
 20
-1.0000000000000000E+20
 30
-1.0000000000000000E+20
  9
$PLIMMIN
 10
-0.2049179077148722
 20
-0.2552490234375285
  9
$PLIMMAX
 10
209.7950820922852131
 20
296.7447509765625
  9
$UNITMODE
 70
     0
  9
$VISRETAIN
 70
     0
  9
$PLINEGEN
 70
     0
  9
$PSLTSCALE
 70
     0
  0
ENDSEC
  0
SECTION
  2
TABLES
  0
TABLE
  2
VPORT
 70
     1
  0
VPORT
  2
*ACTIVE
 70
     0
 10
0.0
 20
0.0
 11
1.0
 21
1.0
 12
-88.8312479150390146
 22
17.2482861851227192
 13
0.0
 23
0.0
 14
1.0
 24
1.0
 15
10.0
 25
10.0
 16
0.0
 26
-6742.5370459062569353
 36
0.0
 17
2.83691178680415
 27
-70.7747745513916016
 37
62.1438513423430905
 40
282.4584736741538222
 41
1.9004329004328999
 42
207.9750642040671949
 43
0.0
 44
0.0
 50
0.0
 51
0.0
 71
     0
 72
  1500
 73
     1
 74
     0
 75
     0
 76
     0
 77
     0
 78
     0
  0
ENDTAB
  0
TABLE
  2
LTYPE
 70
    13
  0
LTYPE
  2
CONTINUOUS
 70
     0
  3
Solid line
 72
    65
 73
     0
 40
0.0
  0
LTYPE
  2
STRICHPUNKT
 70
     0
  3
__ . __ . __ . __ . __ . __ . __ . __ . __ . __
 72
    65
 73
     4
 40
1.0
 49
0.5
 49
-0.25
 49
0.0
 49
-0.25
  0
LTYPE
  2
HIDDEN
 70
     0
  3
Hidden __ __ __ __ __ __ __ __ __ __ __ __ __ __
 72
    65
 73
     2
 40
0.375
 49
0.25
 49
-0.125
  0
LTYPE
  2
PHANTOM2
 70
     0
  3
Phantom (.5x) ___ _ _ ___ _ _ ___ _ _ ___ _ _
 72
    65
 73
     6
 40
1.25
 49
0.625
 49
-0.125
 49
0.125
 49
-0.125
 49
0.125
 49
-0.125
  0
LTYPE
  2
CENTER
 70
     0
  3
Center ____ _ ____ _ ____ _ ____ _ ____ _ ____
 72
    65
 73
     4
 40
2.0
 49
1.25
 49
-0.25
 49
0.25
 49
-0.25
  0
LTYPE
  2
AMCONSTR
 70
     0
  3
_______________________
 72
    65
 73
     2
 40
9999.0
 49
9999.0
 49
0.0
  0
LTYPE
  2
CENTER2
 70
     0
  3
Center (.5x) ___ _ ___ _ ___ _ ___ _ ___ _ ___
 72
    65
 73
     4
 40
1.125
 49
0.75
 49
-0.125
 49
0.125
 49
-0.125
  0
LTYPE
  2
HIDDEN2
 70
     0
  3
Hidden (.5x) _ _ _ _ _ _ _ _ _ _ _ _ _ _ _ _ _
 72
    65
 73
     2
 40
0.1875
 49
0.125
 49
-0.0625
  0
LTYPE
  2
AMZIGZAG2
 70
     0
  3
/\/-/\/-/\/-/\/-/\/-/\/
 72
    65
 73
     2
 40
0.4401
 49
0.0001
 49
-0.4400000000000001
  0
LTYPE
  2
ACANSTGB
 70
     0
  3
__ . . __ . .
 72
    65
 73
     6
 40
0.35433070866
 49
0.15748031496
 49
-0.03937007874
 49
0.03937007874
 49
-0.03937007874
 49
0.03937007874
 49
-0.03937007874
  0
LTYPE
  2
ACANSTGL
 70
     0
  3
_ _ _ _ _
 72
    65
 73
     2
 40
0.11811023622
 49
0.07874015748
 49
-0.03937007874
  0
LTYPE
  2
AUSGEZOGEN
 70
     0
  3
Ausgezogene Linie
 72
    65
 73
     0
 40
0.0
  0
LTYPE
  2
VERDECKT
 70
     0
  3
Verdeckt __ __ __ __ __ __ __ __ __ __ __ __ __
 72
    65
 73
     2
 40
0.375
 49
0.25
 49
-0.125
  0
ENDTAB
  0
TABLE
  2
LAYER
 70
     6
  0
LAYER
  2
0
 70
     0
 62
     7
  6
CONTINUOUS
  0
LAYER
  2
VOLL
 70
     0
 62
     1
  6
CONTINUOUS
  0
LAYER
  2
STEMPEL
 70
     0
 62
     3
  6
CONTINUOUS
  0
LAYER
  2
DEFPOINTS
 70
     0
 62
     7
  6
CONTINUOUS
  0
LAYER
  2
ADSK_ASSOC_ENTITY_BACKUPS
 70
     1
 62
    -7
  6
CONTINUOUS
  0
LAYER
  2
ROHR
 70
     0
 62
     9
  6
CONTINUOUS
  0
ENDTAB
  0
TABLE
  2
STYLE
 70
     5
  0
STYLE
  2
STANDARD
 70
     0
 40
0.0
 41
0.8
 50
0.0
 71
     0
 42
2.0
  3
simplex.shx
  4

  0
STYLE
  2
GREEKS
 70
     0
 40
0.0
 41
0.8
 50
0.0
 71
     0
 42
2.5
  3
SIMPLEX.shx
  4

  0
STYLE
  2

 70
     1
 40
0.0
 41
1.0
 50
0.0
 71
     0
 42
2.5
  3
genltshp.shx
  4

  0
STYLE
  2
ACANSGDT
 70
     0
 40
0.0
 41
1.0
 50
0.0
 71
     0
 42
2.5
  3
amgdt.shx
  4

  0
STYLE
  2

 70
     1
 40
0.0
 41
1.0
 50
0.0
 71
     0
 42
2.0
  3
ltypeshp.shx
  4

  0
ENDTAB
  0
TABLE
  2
VIEW
 70
     0
  0
ENDTAB
  0
TABLE
  2
UCS
 70
     0
  0
ENDTAB
  0
TABLE
  2
APPID
 70
    49
  0
APPID
  2
ACAD
 70
     0
  0
APPID
  2
ACAD_NAV_VCDISPLAY
 70
     0
  0
APPID
  2
GRADIENTCOLOR1ACI
 70
     0
  0
APPID
  2
GRADIENTCOLOR2ACI
 70
     0
  0
APPID
  2
ACAD_DSTYLE_DIMRADIAL_EXTENSION
 70
     0
  0
APPID
  2
ACADANNOMONITORALERTICONDI
 70
     0
  0
APPID
  2
ACAD_EXEMPT_FROM_CAD_STANDARDS
 70
     0
  0
APPID
  2
ACAD_MLEADERVER
 70
     0
  0
APPID
  2
ACAD_PSEXT
 70
     0
  0
APPID
  2
ACAECLAYERSTANDARD
 70
     0
  0
APPID
  2
ACCMTRANSPARENCY
 70
     0
  0
APPID
  2
ACAD_OBJECT_CHANGE_GUID
 70
     0
  0
APPID
  2
MCAD_NO_VIS
 70
     0
  0
APPID
  2
ACAD_TEMP_GRAPHIC
 70
     0
  0
APPID
  2
ACATTRIBSERVICES
 70
     0
  0
APPID
  2
DESIGNERASSEMBLIES
 70
     0
  0
APPID
  2
ACAD_DSTYLE_DIMJAG
 70
     0
  0
APPID
  2
ACAD_DSTYLE_DIMBREAK
 70
     0
  0
APPID
  2
GENIUS_GENSCREG_15
 70
     0
  0
APPID
  2
GENIUS_GENOBJ-N-SDF_13
 70
     0
  0
APPID
  2
GENIUS_GENODEF_13
 70
     0
  0
APPID
  2
ACAD_STEPID
 70
     0
  0
APPID
  2
ACAD_DSTYLE_DIMARC_LENGTH_
 70
     0
  0
APPID
  2
ACAD_DSTYLE_DIM_LINETYPE
 70
     0
  0
APPID
  2
ACAD_DSTYLE_DIM_EXT1_LINETYPE
 70
     0
  0
APPID
  2
ACAD_DSTYLE_DIM_EXT2_LINETYPE
 70
     0
  0
APPID
  2
RAK
 70
     0
  0
APPID
  2
ACADANNOPO
 70
     0
  0
APPID
  2
ACSYNERGY
 70
     0
  0
APPID
  2
SYNERGY_BODY_TBR_ID
 70
     0
  0
APPID
  2
ACAD_VIEW_EDGE_ID
 70
     0
  0
APPID
  2
ACSYNERGYSKETCH
 70
     0
  0
APPID
  2
ACAD_MODELDOC_XFORM
 70
     0
  0
APPID
  2
GENIUS_GENDTOL_13
 70
     0
  0
APPID
  2
ACAD_DSTYLE_DIMINSPECT
 70
     0
  0
APPID
  2
ACAD_DSTYLE_DIMANGULAR_EXT
 70
     0
  0
APPID
  2
PLOTTRANSPARENCY
 70
     0
  0
APPID
  2
ACAUTHENVIRON
 70
     0
  0
APPID
  2
ACDBDYNAMICBLOCKTRUENAME
 70
     0
  0
APPID
  2
ACDBDYNAMICBLOCKGUID
 70
     0
  0
APPID
  2
PE_URL
 70
     0
  0
APPID
  2
ACADANNOAV
 70
     0
  0
APPID
  2
ACAD_TC
 70
     0
  0
APPID
  2
ACAD_DIMASSOC_CALC_DIMLFAC
 70
     0
  0
APPID
  2
ACAD_DIMASSOC_DIMLFAC
 70
     0
  0
APPID
  2
ACAD_DIMASSOC_OVERRIDDEN_D
 70
     0
  0
APPID
  2
ACAD_DSTYLE_DIMTALN
 70
     0
  0
APPID
  2
ACADANNOTATIVE
 70
     0
  0
APPID
  2
HATCHBACKGROUNDCOLOR
 70
     0
  0
ENDTAB
  0
TABLE
  2
DIMSTYLE
 70
     9
  0
DIMSTYLE
  2
AM_ANSI
 70
     0
  3

  4
mm
  5

  6

  7

 40
1.0
 41
0.12
 42
0.05
 43
0.5
 44
0.1
 45
0.0
 46
0.0
 47
0.1
 48
0.1
140
0.12
141
0.0
142
0.0
143
25.3999999999999986
144
1.0
145
0.0
146
0.71
147
0.06
 71
     0
 72
     0
 73
     1
 74
     1
 75
     0
 76
     0
 77
     0
 78
     7
170
     0
171
     2
172
     0
173
     0
174
     0
175
     0
176
   256
177
   256
178
   255
  0
DIMSTYLE
  2
AM_ANSI$3
 70
     0
  3

  4
mm
  5

  6

  7

 40
1.0
 41
0.12
 42
0.05
 43
0.5
 44
0.1
 45
0.0
 46
0.0
 47
0.1
 48
0.1
140
0.12
141
0.0
142
0.0
143
25.3999999999999986
144
1.0
145
0.0
146
0.71
147
0.06
 71
     0
 72
     0
 73
     1
 74
     1
 75
     0
 76
     0
 77
     0
 78
     7
170
     0
171
     2
172
     0
173
     0
174
     0
175
     0
176
   256
177
   256
178
   255
  0
DIMSTYLE
  2
AM_ANSI$4
 70
     0
  3

  4
mm
  5

  6

  7

 40
1.0
 41
0.12
 42
0.05
 43
0.5
 44
0.1
 45
0.0
 46
0.0
 47
0.1
 48
0.1
140
0.12
141
0.0
142
0.0
143
25.3999999999999986
144
1.0
145
0.0
146
0.71
147
0.06
 71
     0
 72
     0
 73
     1
 74
     1
 75
     0
 76
     0
 77
     0
 78
     7
170
     0
171
     2
172
     0
173
     0
174
     0
175
     0
176
   256
177
   256
178
   255
  0
DIMSTYLE
  2
AM_ANSI$7
 70
     0
  3

  4
mm
  5

  6

  7

 40
1.0
 41
0.12
 42
0.05
 43
0.5
 44
0.1
 45
0.0
 46
0.0
 47
0.1
 48
0.1
140
0.12
141
0.0
142
0.0
143
25.3999999999999986
144
1.0
145
0.0
146
0.71
147
0.06
 71
     0
 72
     0
 73
     1
 74
     1
 75
     0
 76
     0
 77
     0
 78
     7
170
     0
171
     2
172
     0
173
     0
174
     0
175
     0
176
   256
177
   256
178
   255
  0
DIMSTYLE
  2
AM_ANSI$SF
 70
     0
  3

  4
mm
  5

  6

  7

 40
1.0
 41
0.12
 42
0.05
 43
0.5
 44
0.1
 45
0.0
 46
0.0
 47
0.1
 48
0.1
140
0.12
141
0.0
142
0.0
143
25.3999999999999986
144
1.0
145
0.0
146
0.71
147
0.06
 71
     0
 72
     0
 73
     1
 74
     1
 75
     1
 76
     1
 77
     0
 78
     7
170
     0
171
     2
172
     0
173
     0
174
     0
175
     0
176
   256
177
   256
178
   255
  0
DIMSTYLE
  2
AM_ANSI$SH
 70
     0
  3

  4
mm
  5

  6
GENAXEH
  7

 40
1.0
 41
0.12
 42
0.05
 43
0.5
 44
0.1
 45
0.0
 46
0.0
 47
0.1
 48
0.1
140
0.12
141
0.0
142
0.0
143
25.3999999999999986
144
1.0
145
0.0
146
0.71
147
0.06
 71
     0
 72
     0
 73
     1
 74
     1
 75
     1
 76
     1
 77
     0
 78
     7
170
     0
171
     2
172
     0
173
     1
174
     0
175
     0
176
   256
177
   256
178
   255
  0
DIMSTYLE
  2
AM_ANSI$0
 70
     0
  3

  4
"
  5

  6

  7

 40
1.0
 41
3.5
 42
1.0
 43
10.0
 44
1.0
 45
0.0
 46
0.0
 47
0.1
 48
0.1
140
3.5
141
0.0
142
0.0
143
0.0393701
144
1.0
145
0.0
146
0.71
147
1.5
 71
     0
 72
     0
 73
     1
 74
     1
 75
     0
 76
     0
 77
     0
 78
     8
170
     0
171
     2
172
     0
173
     0
174
     0
175
     0
176
   256
177
   256
178
     2
  0
DIMSTYLE
  2
LORO
 70
     0
  3

  4

  5

  6

  7

 40
1.0
 41
3.5
 42
1.0
 43
0.38
 44
1.0
 45
0.0
 46
0.0
 47
0.0
 48
0.000000001
140
3.5
141
0.09
142
0.0
143
25.3999999999999986
144
2.0
145
0.0
146
0.5
147
1.5
 71
     0
 72
     0
 73
     0
 74
     0
 75
     0
 76
     0
 77
     1
 78
     8
170
     0
171
     2
172
     1
173
     0
174
     0
175
     0
176
     0
177
     0
178
     1
  0
DIMSTYLE
  2
STANDARD
 70
     0
  3

  4

  5

  6

  7

 40
1.0
 41
0.18
 42
0.0625
 43
0.38
 44
0.18
 45
0.0
 46
0.0
 47
0.0
 48
0.0
140
0.18
141
0.09
142
0.0
143
25.3999999999999986
144
1.0
145
0.0
146
1.0
147
0.09
 71
     0
 72
     0
 73
     1
 74
     1
 75
     0
 76
     0
 77
     0
 78
     0
170
     0
171
     2
172
     0
173
     0
174
     0
175
     0
176
     0
177
     0
178
     0
  0
ENDTAB
  0
ENDSEC
  0
SECTION
  2
BLOCKS
  0
BLOCK
  8
0
  2
$MODEL_SPACE
 70
     0
 10
0.0
 20
0.0
 30
0.0
  3
$MODEL_SPACE
  1

  0
ENDBLK
  5
38
  8
0
  0
BLOCK
 67
     1
  8
0
  2
$PAPER_SPACE
 70
     2
 10
0.0
 20
0.0
 30
0.0
  3
$PAPER_SPACE
  1

  0
ENDBLK
  5
36
 67
     1
  8
0
  0
BLOCK
  8
0
  2
GENAXEH
 70
     0
 10
0.0
 20
0.0
 30
0.0
  3
GENAXEH
  1

  0
LINE
  5
1721
  8
0
 10
-1.0
 20
0.0
 30
0.0
 11
1.0
 21
0.0
 31
0.0
  0
ENDBLK
  5
1723
  8
0
  0
BLOCK
  8
0
  2
*S1
 70
     1
 10
0.0
 20
0.0
 30
0.0
  3
*S1
  1

  0
ENDBLK
  5
2101
  8
0
  0
BLOCK
  8
0
  2
*U2
 70
     1
 10
0.0
 20
0.0
 30
0.0
  3
*U2
  1

  0
ENDBLK
  5
3EBB
  8
0
  0
BLOCK
  8
0
  2
A$C76C73195
 70
     0
 10
0.0
 20
0.0
 30
0.0
  3
A$C76C73195
  1

  0
LINE
  5
22B71
  8
0
  6
CONTINUOUS
 62
     3
 10
-5.1999093082074914
 20
79.9999999999999858
 30
-0.0000000000000178
 11
136.8000906917924908
 21
79.9999999999999574
 31
-0.0000000000000178
210
0.0000000000000002
220
1.0
230
-0.0000000000000002
  0
LINE
  5
22B72
  8
0
  6
CONTINUOUS
 62
     3
 10
136.8000906917924908
 20
81.9999999999999432
 30
-0.0000000000000182
 11
-5.1999093082074896
 21
81.9999999999999858
 31
-0.0000000000000182
210
0.0000000000000002
220
1.0
230
-0.0000000000000002
  0
LINE
  5
22B73
  8
0
  6
CONTINUOUS
 62
     3
 10
136.8000906917924908
 20
81.9999999999999432
 30
-0.0000000000000182
 11
136.8000906917924908
 21
79.9999999999999574
 31
-0.0000000000000178
210
0.0000000000000002
220
1.0
230
-0.0000000000000002
  0
LINE
  5
22B74
  8
0
  6
CONTINUOUS
 62
     3
 10
-5.1999093082074896
 20
81.9999999999999858
 30
-0.0000000000000182
 11
-5.1999093082074914
 21
79.9999999999999858
 31
-0.0000000000000178
210
0.0000000000000002
220
1.0
230
-0.0000000000000002
  0
LINE
  5
22B75
  8
0
  6
CONTINUOUS
 62
     3
 10
121.2611652040249055
 20
88.9929732873548431
 30
-0.0000000000000198
 11
65.800090691792974
 21
88.9929732873551416
 31
-0.0000000000000203
210
0.0000000000000002
220
1.0
230
-0.0000000000000002
  0
LINE
  5
22B76
  8
0
  6
CONTINUOUS
 62
     3
 10
65.800090691792974
 20
88.9929732873551131
 30
-0.0000000000000203
 11
10.3390161795610407
 21
88.9929732873558947
 31
-0.0000000000000198
210
0.0000000000000002
220
1.0
230
-0.0000000000000002
  0
ARC
  5
22B77
  8
0
  6
CONTINUOUS
 62
     3
 10
-100.6000906917934969
 20
76.3929732873553178
 30
0.0
 40
24.1999999999992994
210
0.0
220
-0.0000000000000002
230
-1.0
 50
148.6233889413601048
 51
166.6030971852744074
  0
ARC
  5
22B78
  8
0
  6
CONTINUOUS
 62
     3
 10
-31.0000906917930195
 20
76.3929732873556304
 30
0.0
 40
24.2000000000001805
210
0.0
220
-0.0000000000000002
230
-1.0
 50
13.3969028147244096
 51
31.3766110586406413
  0
LINE
  5
22B79
  8
0
  6
CONTINUOUS
 62
     3
 10
0.0
 20
0.0000000000000028
 30
0.0
 11
112.3277810226489066
 21
-0.0000000000000253
 31
0.0000000000000032
210
0.0000000000000002
220
1.0
230
-0.0000000000000002
  0
LINE
  5
22B7A
  8
0
  6
CONTINUOUS
 62
     3
 10
112.3277810226489066
 20
-0.0000000000000253
 30
0.0000000000000032
 11
131.6001813835850953
 21
-0.0000000000000324
 31
0.0
210
0.0000000000000002
220
1.0
230
-0.0000000000000002
  0
LINE
  5
22B7B
  8
0
  6
CONTINUOUS
 62
     3
 10
132.3000906917926045
 20
79.9999999999999574
 30
-0.0000000000000178
 11
132.3000906917924908
 21
7.9999999999999716
 31
-0.0000000000000018
210
0.0000000000000002
220
1.0
230
-0.0000000000000002
  0
LINE
  5
22B7C
  8
0
  6
CONTINUOUS
 62
     3
 10
-0.6999093082074328
 20
79.9999999999999858
 30
-0.0000000000000178
 11
-0.6999093082074522
 21
8.0000000000000018
 31
-0.0000000000000018
210
0.0000000000000002
220
1.0
230
-0.0000000000000002
  0
LINE
  5
22B7D
  8
0
  6
CONTINUOUS
 62
     3
 10
-0.0000000000000002
 20
0.0000000000000027
 30
0.0
 11
-0.6999093082074505
 21
8.0000000000000053
 31
-0.0000000000000018
210
0.0000000000000002
220
1.0
230
-0.0000000000000002
  0
LINE
  5
22B7E
  8
0
  6
CONTINUOUS
 62
     3
 10
131.6001813835850953
 20
-0.0000000000000323
 30
0.0
 11
132.3000906917924908
 21
7.9999999999999689
 31
-0.0000000000000018
210
0.0000000000000002
220
1.0
230
-0.0000000000000002
  0
LINE
  5
22B7F
  8
0
  6
VERDECKT
 62
     1
 10
124.300090691792505
 20
81.9999999999999432
 30
-0.0000000000000182
 11
124.300090691792505
 21
79.9999999999999574
 31
-0.0000000000000178
210
0.0000000000000002
220
1.0
230
-0.0000000000000002
  0
LINE
  5
22B80
  8
0
  6
VERDECKT
 62
     1
 10
7.3000906917925086
 20
81.9999999999999858
 30
-0.0000000000000182
 11
7.3000906917925077
 21
79.9999999999999858
 31
-0.0000000000000178
210
0.0000000000000002
220
1.0
230
-0.0000000000000002
  0
LINE
  5
22B81
  8
0
  6
VERDECKT
 62
     1
 10
15.0000906917922201
 20
3.9929732873555741
 30
-0.0000000000000009
 11
116.6000906917922038
 21
3.9929732873555328
 31
-0.0000000000000009
210
0.0000000000000002
220
1.0
230
-0.0000000000000002
  0
LINE
  5
22B82
  8
0
  6
VERDECKT
 62
     1
 10
120.2366491125091983
 20
88.3681798989251206
 30
-0.0000000000000196
 11
65.800090691792974
 21
88.3681798989254048
 31
-0.0000000000000202
210
0.0000000000000002
220
1.0
230
-0.0000000000000002
  0
LINE
  5
22B83
  8
0
  6
VERDECKT
 62
     1
 10
65.8000906917929598
 20
88.3681798989254332
 30
-0.0000000000000202
 11
11.3635322710766609
 21
88.3681798989261722
 31
-0.0000000000000196
210
0.0000000000000002
220
1.0
230
-0.0000000000000002
  0
LINE
  5
22B84
  8
0
  6
VERDECKT
 62
     1
 10
6.800090691792704
 20
61.1929732873559118
 30
-0.0000000000000136
 11
6.8000906917928461
 21
76.3929732873559288
 31
-0.000000000000017
210
0.0000000000000002
220
1.0
230
-0.0000000000000002
  0
LINE
  5
22B85
  8
0
  6
VERDECKT
 62
     1
 10
124.800090691792704
 20
61.1929732873548105
 30
-0.0000000000000136
 11
124.8000906917928035
 21
76.3929732873548204
 31
-0.000000000000017
210
0.0000000000000002
220
1.0
230
-0.0000000000000002
  0
ARC
  5
22B86
  8
0
  6
VERDECKT
 62
     1
 10
-112.1000906917925022
 20
61.1929732873549597
 30
0.0
 40
12.7000000000001396
210
0.0
220
-0.0000000000000002
230
-1.0
 50
180.0000000000007105
 51
211.7679567015019018
  0
ARC
  5
22B87
  8
0
  6
VERDECKT
 62
     1
 10
-19.500090691792721
 20
61.192973287355791
 30
0.0
 40
12.7000000000000206
210
0.0
220
-0.0000000000000002
230
-1.0
 50
328.2320432984989225
 51
0.0000000000005345
  0
ARC
  5
22B88
  8
0
  6
VERDECKT
 62
     1
 10
-134.8000906917924908
 20
47.135946574710232
 30
0.0
 40
14.0
210
0.0
220
-0.0000000000000002
230
-1.0
 50
0.0000000000005345
 51
31.7679567015021718
  0
ARC
  5
22B89
  8
0
  6
VERDECKT
 62
     1
 10
3.1999093082074621
 20
47.1359465747114967
 30
0.0
 40
14.0000000000000409
210
0.0
220
-0.0000000000000002
230
-1.0
 50
148.2320432984988088
 51
180.0000000000003979
  0
LINE
  5
22B8A
  8
0
  6
VERDECKT
 62
     1
 10
10.80009069179237
 20
25.9929732873558805
 30
-0.0000000000000058
 11
10.8000906917925708
 21
47.1359465747113973
 31
-0.0000000000000105
210
0.0000000000000002
220
1.0
230
-0.0000000000000002
  0
LINE
  5
22B8B
  8
0
  6
VERDECKT
 62
     1
 10
120.8000906917923061
 20
25.9929732873548502
 30
-0.0000000000000058
 11
120.8000906917926045
 21
47.1359465747103599
 31
-0.0000000000000105
210
0.0000000000000002
220
1.0
230
-0.0000000000000002
  0
ARC
  5
22B8C
  8
0
  6
VERDECKT
 62
     1
 10
-106.6000906917923032
 20
25.9929732873550101
 30
0.0
 40
14.2000000000000703
210
0.0
220
-0.0000000000000002
230
-1.0
 50
180.0000000000005969
 51
213.0626355525619999
  0
ARC
  5
22B8D
  8
0
  6
VERDECKT
 62
     1
 10
-25.0000906917923906
 20
25.9929732873557491
 30
0.0
 40
14.1999999999999993
210
0.0
220
-0.0000000000000002
230
-1.0
 50
326.9373644474388811
 51
0.0000000000005281
  0
LINE
  5
22B8E
  8
0
  6
VERDECKT
 62
     1
 10
13.7271219622042704
 20
17.2818337240513387
 30
-0.0000000000000038
 11
13.0994303867015294
 21
18.2460846020295193
 31
-0.0000000000000041
210
0.0000000000000002
220
1.0
230
-0.0000000000000002
  0
LINE
  5
22B8F
  8
0
  6
VERDECKT
 62
     1
 10
117.8730594213803045
 20
17.2818337240503688
 30
-0.0000000000000038
 11
118.5007509968829993
 21
18.2460846020285317
 31
-0.0000000000000041
210
0.0000000000000002
220
1.0
230
-0.0000000000000002
  0
ARC
  5
22B90
  8
0
  6
VERDECKT
 62
     1
 10
-124.4615458739780962
 20
12.99297328735482
 30
0.0
 40
7.861455182185864
210
0.0
220
-0.0000000000000002
230
-1.0
 50
0.0000000000000129
 51
33.0626355525617299
  0
ARC
  5
22B91
  8
0
  6
VERDECKT
 62
     1
 10
-7.138635509606341
 20
12.9929732873559001
 30
0.0
 40
7.8614551821859147
210
0.0
220
-0.0000000000000002
230
-1.0
 50
146.9373644474389096
 51
180.0000000000005116
  0
ARC
  5
22B92
  8
0
  6
VERDECKT
 62
     1
 10
-124.4615458739780962
 20
12.99297328735482
 30
0.0
 40
9.0614551821858953
210
0.0
220
-0.0000000000000002
230
-1.0
 50
0.0000000000004709
 51
33.0626355525620426
  0
ARC
  5
22B93
  8
0
  6
VERDECKT
 62
     1
 10
-7.1386355096063481
 20
12.9929732873559107
 30
0.0
 40
9.0614551821859095
210
0.0
220
-0.0000000000000002
230
-1.0
 50
146.9373644474389096
 51
180.0000000000005116
  0
LINE
  5
22B94
  8
0
  6
VERDECKT
 62
     1
 10
14.7328115654513798
 20
17.9365003735155284
 30
-0.000000000000004
 11
14.1051199899486601
 21
18.900751251493709
 31
-0.0000000000000042
210
0.0000000000000002
220
1.0
230
-0.0000000000000002
  0
LINE
  5
22B95
  8
0
  6
VERDECKT
 62
     1
 10
116.8673698181331986
 20
17.9365003735145585
 30
-0.000000000000004
 11
117.4950613936358934
 21
18.9007512514927392
 31
-0.0000000000000042
210
0.0000000000000002
220
1.0
230
-0.0000000000000002
  0
ARC
  5
22B96
  8
0
  6
VERDECKT
 62
     1
 10
-106.6000906917921043
 20
25.9929732873550385
 30
0.0
 40
13.0000000000002096
210
0.0
220
-0.0000000000000002
230
-1.0
 50
180.0000000000007105
 51
213.062635552561801
  0
ARC
  5
22B97
  8
0
  6
VERDECKT
 62
     1
 10
-25.0000906917923693
 20
25.9929732873557384
 30
0.0
 40
12.9999999999999805
210
0.0
220
-0.0000000000000002
230
-1.0
 50
326.9373644474388811
 51
0.0000000000005854
  0
LINE
  5
22B98
  8
0
  6
VERDECKT
 62
     1
 10
12.00009069179238
 20
25.9929732873558699
 30
-0.0000000000000058
 11
12.0000906917925807
 21
47.1359465747113831
 31
-0.0000000000000105
210
0.0000000000000002
220
1.0
230
-0.0000000000000002
  0
LINE
  5
22B99
  8
0
  6
VERDECKT
 62
     1
 10
119.6000906917923032
 20
25.9929732873548502
 30
-0.0000000000000058
 11
119.6000906917925022
 21
47.135946574710367
 31
-0.0000000000000105
210
0.0000000000000002
220
1.0
230
-0.0000000000000002
  0
ARC
  5
22B9A
  8
0
  6
VERDECKT
 62
     1
 10
-134.8000906917926898
 20
47.135946574710232
 30
0.0
 40
15.2000000000001396
210
0.0
220
-0.0000000000000002
230
-1.0
 50
0.0000000000005472
 51
31.7679567015019799
  0
ARC
  5
22B9B
  8
0
  6
VERDECKT
 62
     1
 10
3.1999093082074981
 20
47.1359465747115181
 30
0.0
 40
15.2000000000000899
210
0.0
220
-0.0000000000000002
230
-1.0
 50
148.232043298498894
 51
180.0000000000005116
  0
ARC
  5
22B9C
  8
0
  6
VERDECKT
 62
     1
 10
-112.1000906917926017
 20
61.1929732873549312
 30
0.0
 40
11.5000000000000693
210
0.0
220
-0.0000000000000002
230
-1.0
 50
180.0000000000005116
 51
211.7679567015017028
  0
ARC
  5
22B9D
  8
0
  6
VERDECKT
 62
     1
 10
-19.5000906917927601
 20
61.1929732873557981
 30
0.0
 40
11.5000000000000409
210
0.0
220
-0.0000000000000002
230
-1.0
 50
328.2320432984992067
 51
0.0000000000004454
  0
LINE
  5
22B9E
  8
0
  6
VERDECKT
 62
     1
 10
8.0000906917927015
 20
61.1929732873558976
 30
-0.0000000000000136
 11
8.0000906917928436
 21
76.3929732873559146
 31
-0.000000000000017
210
0.0000000000000002
220
1.0
230
-0.0000000000000002
  0
LINE
  5
22B9F
  8
0
  6
VERDECKT
 62
     1
 10
123.6000906917927011
 20
61.1929732873548105
 30
-0.0000000000000136
 11
123.6000906917928006
 21
76.3929732873548346
 31
-0.000000000000017
210
0.0000000000000002
220
1.0
230
-0.0000000000000002
  0
ARC
  5
22BA0
  8
0
  6
VERDECKT
 62
     1
 10
-100.6000906917928006
 20
76.3929732873550051
 30
0.0
 40
23.0000000000000604
210
0.0
220
-0.0000000000000002
230
-1.0
 50
148.6233889413603038
 51
180.0000000000003979
  0
ARC
  5
22BA1
  8
0
  6
VERDECKT
 62
     1
 10
-31.0000906917927708
 20
76.3929732873557157
 30
0.0
 40
22.9999999999999183
210
0.0
220
-0.0000000000000002
230
-1.0
 50
0.0000000000005091
 51
31.3766110586407798
  0
LINE
  5
22BA2
  8
0
  6
VERDECKT
 62
     1
 10
11.3635322710766502
 20
88.3681798989261154
 30
-0.0000000000000196
 11
10.3390161795610105
 21
88.9929732873558663
 31
-0.0000000000000198
210
0.0000000000000002
220
1.0
230
-0.0000000000000002
  0
LINE
  5
22BA3
  8
0
  6
VERDECKT
 62
     1
 10
120.2366491125091983
 20
88.3681798989250922
 30
-0.0000000000000196
 11
121.2611652040249055
 21
88.9929732873548289
 31
-0.0000000000000198
210
0.0000000000000002
220
1.0
230
-0.0000000000000002
  0
ARC
  5
22BA4
  8
0
  6
VERDECKT
 62
     1
 10
-100.6000906917940938
 20
76.3929732873551899
 30
0.0
 40
24.199999999998699
210
0.0
220
-0.0000000000000002
230
-1.0
 50
166.6030971852736968
 51
180.0000000000007958
  0
ARC
  5
22BA5
  8
0
  6
VERDECKT
 62
     1
 10
-31.0000906917923693
 20
76.3929732873557583
 30
0.0
 40
24.199999999999509
210
0.0
220
-0.0000000000000002
230
-1.0
 50
0.00000000000042
 51
13.39690281472447
  0
LINE
  5
22BA6
  8
0
  6
VERDECKT
 62
     1
 10
15.0000906917921597
 20
3.9929732873555648
 30
-0.0000000000000009
 11
15.0000906917922503
 21
12.9929732873558308
 31
-0.0000000000000029
210
0.0000000000000002
220
1.0
230
-0.0000000000000002
  0
LINE
  5
22BA7
  8
0
  6
VERDECKT
 62
     1
 10
116.6000906917922038
 20
3.9929732873555421
 30
-0.0000000000000009
 11
116.6000906917922038
 21
12.9929732873548804
 31
-0.0000000000000029
210
0.0000000000000002
220
1.0
230
-0.0000000000000002
  0
LINE
  5
22BA8
  8
0
  6
VERDECKT
 62
     1
 10
16.200090691792159
 20
3.9929732873555648
 30
-0.0000000000000009
 11
16.2000906917922514
 21
12.9929732873558201
 31
-0.0000000000000029
210
0.0000000000000002
220
1.0
230
-0.0000000000000002
  0
LINE
  5
22BA9
  8
0
  6
VERDECKT
 62
     1
 10
115.4000906917922009
 20
3.992973287355543
 30
-0.0000000000000009
 11
115.4000906917922009
 21
12.9929732873548893
 31
-0.0000000000000029
210
0.0000000000000002
220
1.0
230
-0.0000000000000002
  0
LINE
  5
22BAA
  8
0
  6
VERDECKT
 62
     1
 10
2.509549593858365
 20
-0.0000000000000023
 30
0.0
 11
1.800090691792491
 21
8.1091523572712561
 31
-0.0000000000000018
210
0.0000000000000002
220
1.0
230
-0.0000000000000002
  0
LINE
  5
22BAB
  8
0
  6
VERDECKT
 62
     1
 10
129.0906317897267002
 20
-0.000000000000037
 30
0.0
 11
129.8000906917926045
 21
8.1091523572712223
 31
-0.0000000000000018
210
0.0000000000000002
220
1.0
230
-0.0000000000000002
  0
LINE
  5
22BAC
  8
0
  6
VERDECKT
 62
     1
 10
129.8000906917924908
 20
79.9999999999999574
 30
-0.0000000000000178
 11
129.8000906917924908
 21
8.1091523572712294
 31
-0.0000000000000018
210
0.0000000000000002
220
1.0
230
-0.0000000000000002
  0
LINE
  5
22BAD
  8
0
  6
VERDECKT
 62
     1
 10
1.800090691792567
 20
79.9999999999999858
 30
-0.0000000000000178
 11
1.800090691792547
 21
8.1091523572712578
 31
-0.0000000000000018
210
0.0000000000000002
220
1.0
230
-0.0000000000000002
  0
ENDBLK
  5
22BAF
  8
0
  0
BLOCK
  8
0
  2
A$C7A77CA66
 70
     0
 10
0.0
 20
0.0
 30
0.0
  3
A$C7A77CA66
  1

  0
CIRCLE
  5
22BB3
  8
0
  6
CONTINUOUS
 62
     3
 10
65.8000906917925334
 20
-0.0000000000000568
 30
0.0000000000000284
 40
58.5
  0
CIRCLE
  5
22BB4
  8
0
  6
CONTINUOUS
 62
     3
 10
65.8000906917925334
 20
-0.0000000000000568
 30
0.0000000000000284
 40
71.0
  0
CIRCLE
  5
22BB5
  8
0
  6
CONTINUOUS
 62
     3
 10
65.8000906917922634
 20
0.0000000000000646
 30
0.0000000000000284
 40
49.6000000000000014
  0
CIRCLE
  5
22BB6
  8
0
  6
CONTINUOUS
 62
     3
 10
65.8000906917925903
 20
-0.000000000000075
 30
0.0000000000000284
 40
53.7999999999999901
  0
CIRCLE
  5
22BB7
  8
0
  6
CONTINUOUS
 62
     3
 10
65.8000906917929882
 20
-0.0000000000002436
 30
0.0000000000000284
 40
54.4365584207162883
  0
CIRCLE
  5
22BB8
  8
0
  6
CONTINUOUS
 62
     3
 10
65.8000906917929882
 20
-0.0000000000002461
 30
0.0000000000000284
 40
55.4610745122319386
  0
CIRCLE
  5
22BB9
  8
0
  6
VERDECKT
 62
     1
 10
65.8000906917928603
 20
-0.0000000000001946
 30
0.0000000000000284
 40
58.9999999999999929
  0
CIRCLE
  5
22BBA
  8
0
  6
VERDECKT
 62
     1
 10
65.8000906917925903
 20
-0.000000000000075
 30
0.0000000000000284
 40
55.0
  0
CIRCLE
  5
22BBB
  8
0
  6
VERDECKT
 62
     1
 10
65.8000906917922634
 20
0.0000000000000646
 30
0.0000000000000284
 40
50.8000000000000114
  0
CIRCLE
  5
22BBC
  8
0
  6
VERDECKT
 62
     1
 10
65.8000906917928603
 20
-0.0000000000001946
 30
0.0000000000000284
 40
57.8000000000000114
  0
CIRCLE
  5
22BBD
  8
0
  6
VERDECKT
 62
     1
 10
65.8000906917925761
 20
-0.0000000000000568
 30
0.0000000000000284
 40
64.0
  0
CIRCLE
  5
22BBE
  8
0
  6
VERDECKT
 62
     1
 10
65.8000906917925761
 20
-0.0000000000000568
 30
0.0000000000000284
 40
66.5
  0
CIRCLE
  5
22BBF
  8
0
  6
VERDECKT
 62
     1
 10
65.8000906917925334
 20
-0.0000000000000568
 30
0.0000000000000292
 40
65.8000906917925334
  0
CIRCLE
  5
22BC0
  8
0
  6
VERDECKT
 62
     1
 10
65.8000906917925334
 20
-0.0000000000000568
 30
0.0000000000000292
 40
63.290541097934117
  0
ENDBLK
  5
22BC2
  8
0
  0
ENDSEC
  0
SECTION
  2
ENTITIES
  0
TEXT
  5
5DDE
  8
VOLL
 10
78.076754716981128
 20
31.025947764705851
 30
0.0
 40
1.8
  1

  7
GREEKS
  0
INSERT
  5
5DDF
  8
ADSK_ASSOC_ENTITY_BACKUPS
  2
*S1
 10
0.0
 20
0.0
 30
0.0
  0
INSERT
  5
22BB0
  8
STEMPEL
  2
A$C76C73195
 10
-151.7944243284441086
 20
130.8991677125881097
 30
-44.4964866436779616
210
0.0
220
-1.0
230
0.0000000000000001
  0
INSERT
  5
22BC3
  8
STEMPEL
  2
A$C7A77CA66
 10
-151.7944243284443928
 20
9.8921409999437948
 30
-44.4964866436779829
210
0.0
220
-1.0
230
0.0000000000000001
  0
VIEWPORT
  5
1571
 67
     1
  8
0
 10
104.7950820922851989
 20
148.2447509765623863
 30
0.0
 40
567.3581314878892954
 41
298.5415224913494967
 68
     1
 69
     1
1001
ACAD
1000
MVIEW
1002
{
1070
    16
1010
0.0
1020
0.0
1030
0.0
1010
0.0
1020
0.0
1030
1.0
1040
0.0
1040
298.5415224913494967
1040
104.7950820922851989
1040
148.2447509765623863
1040
50.0
1040
0.0
1040
0.0
1070
     0
1070
  1500
1070
     1
1070
     1
1070
     0
1070
     0
1070
     0
1070
     0
1040
0.0
1040
0.0
1040
0.0
1040
10.0
1040
10.0
1040
10.0
1040
10.0
1070
     0
1002
{
1002
}
1002
}
1001
GENIUS_GENOBJ-N-SDF_13
1002
{
1000
OWNER
1000
GEN
1002
}
1001
GENIUS_GENODEF_13
1002
{
1000
HIER
1070
     0
1002
}
1002
{
1000
MANEDIT
1070
     0
1002
}
1002
{
1000
NOSEL
1070
     0
1002
}
1002
{
1000
BEHIND
1070
     0
1002
}
1002
{
1000
OTHER
1070
     0
1002
}
1002
{
1000
REACTOR
1002
}
1001
GENIUS_GENSCREG_15
1000
PF
1040
1.0
1000
DF
1040
1.0
1000
MIN
1011
-98.3237311841076007
1021
0.0
1031
0.0
1021
-84.5929851452383446
1031
0.0
1000
MAX
1011
756.7695330154733711
1021
0.0
1031
0.0
1021
339.8977580961391141
1031
0.0
1000
FLAGS
1070
     4
  0
ENDSEC
  0
EOF
