  0
SECTION
  2
HEADER
  9
$ACADVER
  1
AC1009
  9
$INSBASE
 10
0.0
 20
0.0
 30
0.0
  9
$EXTMIN
 10
-0.0186424942312442
 20
-0.0090630292066862
 30
-0.0090045362891829
  9
$EXTMAX
 10
80.0103690108987848
 20
177.2773137845533995
 30
0.0045203746732341
  9
$LIMMIN
 10
0.0
 20
0.0
  9
$LIMMAX
 10
210.0
 20
297.0
  9
$ORTHOMODE
 70
     1
  9
$REGENMODE
 70
     1
  9
$FILLMODE
 70
     1
  9
$QTEXTMODE
 70
     0
  9
$MIRRTEXT
 70
     1
  9
$DRAGMODE
 70
     2
  9
$LTSCALE
 40
10.0
  9
$OSMODE
 70
    39
  9
$ATTMODE
 70
     1
  9
$TEXTSIZE
 40
3.5
  9
$TRACEWID
 40
0.5
  9
$TEXTSTYLE
  7
STANDARD
  9
$CLAYER
  8
DEFPOINTS
  9
$CELTYPE
  6
BYLAYER
  9
$CECOLOR
 62
   256
  9
$DIMSCALE
 40
1.0
  9
$DIMASZ
 40
3.5
  9
$DIMEXO
 40
1.0
  9
$DIMDLI
 40
7.0
  9
$DIMRND
 40
0.0
  9
$DIMDLE
 40
0.0
  9
$DIMEXE
 40
1.0
  9
$DIMTP
 40
0.0
  9
$DIMTM
 40
0.0
  9
$DIMTXT
 40
3.5
  9
$DIMCEN
 40
1.5
  9
$DIMTSZ
 40
0.0
  9
$DIMTOL
 70
     0
  9
$DIMLIM
 70
     0
  9
$DIMTIH
 70
     0
  9
$DIMTOH
 70
     0
  9
$DIMSE1
 70
     0
  9
$DIMSE2
 70
     0
  9
$DIMTAD
 70
     1
  9
$DIMZIN
 70
     8
  9
$DIMBLK
  1

  9
$DIMASO
 70
     1
  9
$DIMSHO
 70
     0
  9
$DIMPOST
  1

  9
$DIMAPOST
  1

  9
$DIMALT
 70
     0
  9
$DIMALTD
 70
     2
  9
$DIMALTF
 40
25.3999999999999986
  9
$DIMLFAC
 40
1.0
  9
$DIMTOFL
 70
     1
  9
$DIMTVP
 40
0.0
  9
$DIMTIX
 70
     0
  9
$DIMSOXD
 70
     0
  9
$DIMSAH
 70
     0
  9
$DIMBLK1
  1

  9
$DIMBLK2
  1

  9
$DIMSTYLE
  2
STANDARD
  9
$DIMCLRD
 70
     0
  9
$DIMCLRE
 70
     0
  9
$DIMCLRT
 70
     1
  9
$DIMTFAC
 40
0.5142857142857143
  9
$DIMGAP
 40
1.5
  9
$LUNITS
 70
     2
  9
$LUPREC
 70
     2
  9
$SKETCHINC
 40
1.0
  9
$FILLETRAD
 40
0.0
  9
$AUNITS
 70
     0
  9
$AUPREC
 70
     0
  9
$MENU
  1
ACAD
  9
$ELEVATION
 40
0.0
  9
$PELEVATION
 40
0.0
  9
$THICKNESS
 40
0.0
  9
$LIMCHECK
 70
     0
  9
$BLIPMODE
 70
     0
  9
$CHAMFERA
 40
0.0
  9
$CHAMFERB
 40
0.0
  9
$SKPOLY
 70
     0
  9
$TDCREATE
 40
2455397.8646990740671754
  9
$TDUPDATE
 40
2458418.3472685189917684
  9
$TDINDWG
 40
0.0818950116
  9
$TDUSRTIMER
 40
0.0818950116
  9
$USRTIMER
 70
     1
  9
$ANGBASE
 50
0.0
  9
$ANGDIR
 70
     0
  9
$PDMODE
 70
     0
  9
$PDSIZE
 40
0.0
  9
$PLINEWID
 40
0.0
  9
$COORDS
 70
     1
  9
$SPLFRAME
 70
     0
  9
$SPLINETYPE
 70
     6
  9
$SPLINESEGS
 70
     8
  9
$ATTDIA
 70
     1
  9
$ATTREQ
 70
     1
  9
$HANDLING
 70
     1
  9
$HANDSEED
  5
FCF
  9
$SURFTAB1
 70
     6
  9
$SURFTAB2
 70
     6
  9
$SURFTYPE
 70
     6
  9
$SURFU
 70
     6
  9
$SURFV
 70
     6
  9
$UCSNAME
  2

  9
$UCSORG
 10
0.0
 20
0.0
 30
0.0
  9
$UCSXDIR
 10
1.0
 20
0.0
 30
0.0
  9
$UCSYDIR
 10
0.0
 20
1.0
 30
0.0
  9
$PUCSNAME
  2

  9
$PUCSORG
 10
0.0
 20
0.0
 30
0.0
  9
$PUCSXDIR
 10
1.0
 20
0.0
 30
0.0
  9
$PUCSYDIR
 10
0.0
 20
1.0
 30
0.0
  9
$USERI1
 70
     0
  9
$USERI2
 70
     0
  9
$USERI3
 70
     0
  9
$USERI4
 70
     0
  9
$USERI5
 70
     0
  9
$USERR1
 40
0.0
  9
$USERR2
 40
0.0
  9
$USERR3
 40
0.0
  9
$USERR4
 40
0.0
  9
$USERR5
 40
0.0
  9
$WORLDVIEW
 70
     1
  9
$SHADEDGE
 70
     3
  9
$SHADEDIF
 70
    70
  9
$TILEMODE
 70
     1
  9
$MAXACTVP
 70
    16
  9
$PLIMCHECK
 70
     0
  9
$PEXTMIN
 10
-0.2513884434411047
 20
-0.2306512564731804
 30
-0.0000000000000058
  9
$PEXTMAX
 10
10.2794802956162101
 20
14.1599489796946401
 30
0.0000000000000104
  9
$PLIMMIN
 10
-0.2500002402958907
 20
-0.2499999962453767
  9
$PLIMMAX
 10
10.7499995194082203
 20
8.2499997634587334
  9
$UNITMODE
 70
     0
  9
$VISRETAIN
 70
     0
  9
$PLINEGEN
 70
     0
  9
$PSLTSCALE
 70
     0
  0
ENDSEC
  0
SECTION
  2
TABLES
  0
TABLE
  2
VPORT
 70
     1
  0
VPORT
  2
*ACTIVE
 70
     0
 10
0.0
 20
0.0
 11
1.0
 21
1.0
 12
39.9958632583337987
 22
88.6341253776733424
 13
0.0
 23
0.0
 14
1.0
 24
1.0
 15
10.0
 25
10.0
 16
-0.0000000000000012
 26
0.0
 36
5.5852494427615742
 17
0.0
 27
0.0
 37
0.0
 40
178.7027792916329076
 41
2.0800000000000001
 42
50.0
 43
0.0
 44
0.0
 50
0.0
 51
0.0
 71
     0
 72
  1500
 73
     1
 74
     0
 75
     0
 76
     0
 77
     0
 78
     0
  0
ENDTAB
  0
TABLE
  2
LTYPE
 70
     3
  0
LTYPE
  2
CONTINUOUS
 70
     0
  3
Solid line
 72
    65
 73
     0
 40
0.0
  0
LTYPE
  2
STRICHPUNKT
 70
     0
  3
__ . __ . __ . __ . __ . __ . __ . __ . __ . __
 72
    65
 73
     4
 40
1.0
 49
0.5
 49
-0.25
 49
0.0
 49
-0.25
  0
LTYPE
  2
VERDECKT
 70
     0
  3
Verdeckt __ __ __ __ __ __ __ __ __ __ __ __ __
 72
    65
 73
     2
 40
0.375
 49
0.25
 49
-0.125
  0
ENDTAB
  0
TABLE
  2
LAYER
 70
    10
  0
LAYER
  2
0
 70
     0
 62
     7
  6
CONTINUOUS
  0
LAYER
  2
DEFPOINTS
 70
     0
 62
     7
  6
CONTINUOUS
  0
LAYER
  2
VOLL
 70
     0
 62
     1
  6
CONTINUOUS
  0
LAYER
  2
HILF
 70
     0
 62
     2
  6
CONTINUOUS
  0
LAYER
  2
MITTEL
 70
     0
 62
     2
  6
STRICHPUNKT
  0
LAYER
  2
BEM
 70
     0
 62
     7
  6
CONTINUOUS
  0
LAYER
  2
STEMPEL
 70
     0
 62
     3
  6
CONTINUOUS
  0
LAYER
  2
TEXT
 70
     0
 62
     7
  6
CONTINUOUS
  0
LAYER
  2
SCHRAFF
 70
     0
 62
     7
  6
CONTINUOUS
  0
LAYER
  2
ROHR
 70
     0
 62
     9
  6
CONTINUOUS
  0
ENDTAB
  0
TABLE
  2
STYLE
 70
     4
  0
STYLE
  2
STANDARD
 70
     0
 40
0.0
 41
0.8
 50
0.0
 71
     0
 42
3.5
  3
simplex.shx
  4

  0
STYLE
  2
ANNOTATIVE
 70
     0
 40
0.0
 41
1.0
 50
0.0
 71
     0
 42
0.2
  3
txt
  4

  0
STYLE
  2
GREEKS
 70
     0
 40
0.0
 41
0.8
 50
0.0
 71
     0
 42
2.5
  3
SIMPLEX.shx
  4

  0
STYLE
  2

 70
     1
 40
0.0
 41
1.0
 50
0.0
 71
     0
 42
2.5
  3
ltypeshp.shx
  4

  0
ENDTAB
  0
TABLE
  2
VIEW
 70
     0
  0
ENDTAB
  0
TABLE
  2
UCS
 70
     0
  0
ENDTAB
  0
TABLE
  2
APPID
 70
     9
  0
APPID
  2
ACAD
 70
     0
  0
APPID
  2
ACADANNOTATIVE
 70
     0
  0
APPID
  2
ACAECLAYERSTANDARD
 70
     0
  0
APPID
  2
ACCMTRANSPARENCY
 70
     0
  0
APPID
  2
ACAD_NAV_VCDISPLAY
 70
     0
  0
APPID
  2
ACAD_PSEXT
 70
     0
  0
APPID
  2
ACAD_MLEADERVER
 70
     0
  0
APPID
  2
ACAD_OBJECT_CHANGE_GUID
 70
     0
  0
APPID
  2
ACAD_EXEMPT_FROM_CAD_STANDARDS
 70
     0
  0
ENDTAB
  0
TABLE
  2
DIMSTYLE
 70
     2
  0
DIMSTYLE
  2
STANDARD
 70
     0
  3

  4

  5

  6

  7

 40
1.0
 41
0.18
 42
0.0625
 43
0.38
 44
0.18
 45
0.0
 46
0.0
 47
0.0
 48
0.0
140
0.18
141
0.09
142
0.0
143
25.3999999999999986
144
1.0
145
0.0
146
1.0
147
0.09
 71
     0
 72
     0
 73
     1
 74
     1
 75
     0
 76
     0
 77
     0
 78
     0
170
     0
171
     2
172
     0
173
     0
174
     0
175
     0
176
     0
177
     0
178
     0
  0
DIMSTYLE
  2
ANNOTATIVE
 70
     0
  3

  4

  5

  6

  7

 40
1.0
 41
0.18
 42
0.0625
 43
0.38
 44
0.18
 45
0.0
 46
0.0
 47
0.0
 48
0.0
140
0.18
141
0.09
142
0.0
143
25.3999999999999986
144
1.0
145
0.0
146
1.0
147
0.09
 71
     0
 72
     0
 73
     1
 74
     1
 75
     0
 76
     0
 77
     0
 78
     0
170
     0
171
     2
172
     0
173
     0
174
     0
175
     0
176
     0
177
     0
178
     0
  0
ENDTAB
  0
ENDSEC
  0
SECTION
  2
BLOCKS
  0
BLOCK
  8
0
  2
$MODEL_SPACE
 70
     0
 10
0.0
 20
0.0
 30
0.0
  3
$MODEL_SPACE
  1

  0
ENDBLK
  5
F0D
  8
0
  0
BLOCK
 67
     1
  8
0
  2
$PAPER_SPACE
 70
     0
 10
0.0
 20
0.0
 30
0.0
  3
$PAPER_SPACE
  1

  0
ENDBLK
  5
F09
 67
     1
  8
0
  0
BLOCK
  8
0
  2
*D2
 70
     1
 10
0.0
 20
0.0
 30
0.0
  3
*D2
  1

  0
LINE
  5
9E8
  8
SCHRAFF
 62
     0
 10
143.9000000000000057
 20
199.2807411987091939
 30
0.0
 11
140.3999999999998067
 21
199.2807411987091939
 31
0.0
  0
LINE
  5
9E9
  8
SCHRAFF
 62
     0
 10
152.499999999999801
 20
199.2807411987091939
 30
0.0
 11
164.1999999999999034
 21
199.2807411987091939
 31
0.0
  0
LINE
  5
9EA
  8
SCHRAFF
 62
     0
 10
147.4000000000000057
 20
199.2807411987091939
 30
0.0
 11
149.0
 21
199.2807411987091939
 31
0.0
  0
SOLID
  5
9EB
  8
SCHRAFF
 62
     0
 10
143.9000000000000057
 20
199.8640745320425083
 30
0.0
 11
143.9000000000000057
 21
198.697407865375709
 31
0.0
 12
147.4000000000000057
 22
199.2807411987091939
 32
0.0
 13
147.4000000000000057
 23
199.2807411987091939
 33
0.0
  0
SOLID
  5
9EC
  8
SCHRAFF
 62
     0
 10
152.499999999999801
 20
199.8640745320425083
 30
0.0
 11
152.499999999999801
 21
198.697407865375709
 31
0.0
 12
149.0
 22
199.2807411987091939
 32
0.0
 13
149.0
 23
199.2807411987091939
 33
0.0
  0
INSERT
  5
9ED
  8
DEFPOINTS
  2
*U3
 10
0.0
 20
0.0
 30
0.0
  0
POINT
  5
9EE
  8
DEFPOINTS
 62
     0
 10
147.4000000000000057
 20
199.2807411987091939
 30
0.0
  0
POINT
  5
9EF
  8
DEFPOINTS
 62
     0
 10
149.0
 20
199.2807411987091939
 30
0.0
  0
POINT
  5
9F0
  8
DEFPOINTS
 62
     0
 10
149.0
 20
199.2807411987091939
 30
0.0
  0
ENDBLK
  5
6C6
  8
0
  0
BLOCK
  8
0
  2
*U3
 70
     1
 10
0.0
 20
0.0
 30
0.0
  3
*U3
  1

  0
TEXT
  5
E7A
  8
SCHRAFF
 62
     1
 10
157.5
 20
200.7807411987091939
 30
0.0
 40
3.5
  1
1.6
 41
0.8
  0
ENDBLK
  5
E7C
  8
0
  0
BLOCK
  8
0
  2
*D4
 70
     1
 10
0.0
 20
0.0
 30
0.0
  3
*D4
  1

  0
LINE
  5
9F1
  8
BEM
 62
     0
 10
149.3000906917924908
 20
187.5226149535972127
 30
0.0
 11
179.1364180881718084
 21
187.5226149535972127
 31
0.0
  0
LINE
  5
9F2
  8
BEM
 62
     0
 10
143.1063531499366093
 20
251.5226149535972127
 30
0.0
 11
179.1364180881718084
 21
251.5226149535972127
 31
0.0
  0
LINE
  5
9F3
  8
BEM
 62
     0
 10
178.1364180881718084
 20
191.022614953597099
 30
0.0
 11
178.1364180881718084
 21
248.0226149535972127
 31
0.0
  0
SOLID
  5
9F4
  8
BEM
 62
     0
 10
177.5530847548384088
 20
191.022614953597099
 30
0.0
 11
178.7197514215052081
 21
191.022614953597099
 31
0.0
 12
178.1364180881718084
 22
187.5226149535972127
 32
0.0
 13
178.1364180881718084
 23
187.5226149535972127
 33
0.0
  0
SOLID
  5
9F5
  8
BEM
 62
     0
 10
177.5530847548384088
 20
248.0226149535972127
 30
0.0
 11
178.7197514215052081
 21
248.0226149535972127
 31
0.0
 12
178.1364180881718084
 22
251.5226149535972127
 32
0.0
 13
178.1364180881718084
 23
251.5226149535972127
 33
0.0
  0
INSERT
  5
9F6
  8
DEFPOINTS
  2
*U5
 10
0.0
 20
0.0
 30
0.0
  0
POINT
  5
9F7
  8
DEFPOINTS
 62
     0
 10
148.3000906917924908
 20
187.5226149535972127
 30
0.0
  0
POINT
  5
9F8
  8
DEFPOINTS
 62
     0
 10
142.1063531499366093
 20
251.5226149535972127
 30
0.0
  0
POINT
  5
9F9
  8
DEFPOINTS
 62
     0
 10
178.1364180881718084
 20
251.5226149535972127
 30
0.0
  0
ENDBLK
  5
6D2
  8
0
  0
BLOCK
  8
0
  2
*U5
 70
     1
 10
0.0
 20
0.0
 30
0.0
  3
*U5
  1

  0
TEXT
  5
E7E
  8
BEM
 62
     1
 10
176.6364180881718084
 20
217.1892816202638983
 30
0.0
 40
3.5
  1
64
 50
90.0
 41
0.8
  0
ENDBLK
  5
E80
  8
0
  0
BLOCK
  8
0
  2
*D6
 70
     1
 10
0.0
 20
0.0
 30
0.0
  3
*D6
  1

  0
LINE
  5
9FA
  8
BEM
 62
     0
 10
71.4999999999999716
 20
242.5226149535972127
 30
0.0
 11
64.3576605667235526
 21
242.5226149535972127
 31
0.0
  0
LINE
  5
9FB
  8
BEM
 62
     0
 10
71.4999999999999716
 20
244.5226149535972127
 30
0.0
 11
64.3576605667235526
 21
244.5226149535972127
 31
0.0
  0
LINE
  5
9FC
  8
BEM
 62
     0
 10
65.3576605667235526
 20
239.0226149535972127
 30
0.0
 11
65.3576605667235526
 21
235.5226149535972127
 31
0.0
  0
LINE
  5
9FD
  8
BEM
 62
     0
 10
65.3576605667235526
 20
248.0226149535972127
 30
0.0
 11
65.3576605667235526
 21
256.3892816202638869
 31
0.0
  0
LINE
  5
9FE
  8
BEM
 62
     0
 10
65.3576605667235526
 20
242.5226149535972127
 30
0.0
 11
65.3576605667235526
 21
244.5226149535972127
 31
0.0
  0
SOLID
  5
9FF
  8
BEM
 62
     0
 10
64.7743272333901956
 20
239.0226149535972127
 30
0.0
 11
65.9409939000568812
 21
239.0226149535972127
 31
0.0
 12
65.3576605667235526
 22
242.5226149535972127
 32
0.0
 13
65.3576605667235526
 23
242.5226149535972127
 33
0.0
  0
SOLID
  5
A00
  8
BEM
 62
     0
 10
64.7743272333901956
 20
248.0226149535972127
 30
0.0
 11
65.9409939000568812
 21
248.0226149535972127
 31
0.0
 12
65.3576605667235526
 22
244.5226149535972127
 32
0.0
 13
65.3576605667235526
 23
244.5226149535972127
 33
0.0
  0
INSERT
  5
A01
  8
DEFPOINTS
  2
*U7
 10
0.0
 20
0.0
 30
0.0
  0
POINT
  5
A02
  8
DEFPOINTS
 62
     0
 10
72.4999999999999716
 20
242.5226149535972127
 30
0.0
  0
POINT
  5
A03
  8
DEFPOINTS
 62
     0
 10
72.4999999999999716
 20
244.5226149535972127
 30
0.0
  0
POINT
  5
A04
  8
DEFPOINTS
 62
     0
 10
65.3576605667235526
 20
244.5226149535972127
 30
0.0
  0
ENDBLK
  5
6E0
  8
0
  0
BLOCK
  8
0
  2
*U7
 70
     1
 10
0.0
 20
0.0
 30
0.0
  3
*U7
  1

  0
TEXT
  5
E82
  8
BEM
 62
     1
 10
63.85766056672351
 20
253.0226149535972127
 30
0.0
 40
3.5
  1
2
 50
90.0
 41
0.8
  0
ENDBLK
  5
E84
  8
0
  0
BLOCK
  8
0
  2
*D8
 70
     1
 10
0.0
 20
0.0
 30
0.0
  3
*D8
  1

  0
LINE
  5
A05
  8
BEM
 62
     0
 10
75.4374433176295724
 20
187.5226149535972127
 30
0.0
 11
64.3576605667235384
 21
187.5226149535972127
 31
0.0
  0
LINE
  5
A06
  8
BEM
 62
     0
 10
71.4999999999999716
 20
242.5226149535972127
 30
0.0
 11
64.3576605667235526
 21
242.5226149535972127
 31
0.0
  0
LINE
  5
A07
  8
BEM
 62
     0
 10
65.3576605667235384
 20
191.022614953597099
 30
0.0
 11
65.3576605667235526
 21
239.0226149535972127
 31
0.0
  0
SOLID
  5
A08
  8
BEM
 62
     0
 10
64.7743272333901956
 20
191.022614953597099
 30
0.0
 11
65.940993900056867
 21
191.022614953597099
 31
0.0
 12
65.3576605667235384
 22
187.5226149535972127
 32
0.0
 13
65.3576605667235384
 23
187.5226149535972127
 33
0.0
  0
SOLID
  5
A09
  8
BEM
 62
     0
 10
64.7743272333901956
 20
239.0226149535972127
 30
0.0
 11
65.9409939000568812
 21
239.0226149535972127
 31
0.0
 12
65.3576605667235526
 22
242.5226149535972127
 32
0.0
 13
65.3576605667235526
 23
242.5226149535972127
 33
0.0
  0
INSERT
  5
A0A
  8
DEFPOINTS
  2
*U9
 10
0.0
 20
0.0
 30
0.0
  0
POINT
  5
A0B
  8
DEFPOINTS
 62
     0
 10
76.4374433176295724
 20
187.5226149535972127
 30
0.0
  0
POINT
  5
A0C
  8
DEFPOINTS
 62
     0
 10
72.4999999999999716
 20
242.5226149535972127
 30
0.0
  0
POINT
  5
A0D
  8
DEFPOINTS
 62
     0
 10
65.3576605667235526
 20
242.5226149535972127
 30
0.0
  0
ENDBLK
  5
6EC
  8
0
  0
BLOCK
  8
0
  2
*U9
 70
     1
 10
0.0
 20
0.0
 30
0.0
  3
*U9
  1

  0
TEXT
  5
E86
  8
BEM
 62
     1
 10
63.85766056672351
 20
212.7559482869305896
 30
0.0
 40
3.5
  1
55
 50
90.0
 41
0.8
  0
ENDBLK
  5
E88
  8
0
  0
BLOCK
  8
0
  2
*D10
 70
     1
 10
0.0
 20
0.0
 30
0.0
  3
*D10
  1

  0
LINE
  5
A0E
  8
BEM
 62
     0
 10
143.1063531499366093
 20
251.5226149535972127
 30
0.0
 11
170.9081861026371882
 21
251.5226149535972127
 31
0.0
  0
LINE
  5
A0F
  8
BEM
 62
     0
 10
140.0
 20
206.5226149535972127
 30
0.0
 11
170.9081861026371882
 21
206.5226149535972127
 31
0.0
  0
LINE
  5
A10
  8
BEM
 62
     0
 10
169.9081861026371882
 20
248.0226149535972127
 30
0.0
 11
169.9081861026371882
 21
210.0226149535972127
 31
0.0
  0
SOLID
  5
A11
  8
BEM
 62
     0
 10
169.3248527693039023
 20
248.0226149535972127
 30
0.0
 11
170.4915194359705879
 21
248.0226149535972127
 31
0.0
 12
169.9081861026371882
 22
251.5226149535972127
 32
0.0
 13
169.9081861026371882
 23
251.5226149535972127
 33
0.0
  0
SOLID
  5
A12
  8
BEM
 62
     0
 10
169.3248527693039023
 20
210.0226149535972127
 30
0.0
 11
170.4915194359705879
 21
210.0226149535972127
 31
0.0
 12
169.9081861026371882
 22
206.5226149535972127
 32
0.0
 13
169.9081861026371882
 23
206.5226149535972127
 33
0.0
  0
INSERT
  5
A13
  8
DEFPOINTS
  2
*U11
 10
0.0
 20
0.0
 30
0.0
  0
POINT
  5
A14
  8
DEFPOINTS
 62
     0
 10
142.1063531499366093
 20
251.5226149535972127
 30
0.0
  0
POINT
  5
A15
  8
DEFPOINTS
 62
     0
 10
139.0
 20
206.5226149535972127
 30
0.0
  0
POINT
  5
A16
  8
DEFPOINTS
 62
     0
 10
169.9081861026371882
 20
206.5226149535972127
 30
0.0
  0
ENDBLK
  5
6F8
  8
0
  0
BLOCK
  8
0
  2
*U11
 70
     1
 10
0.0
 20
0.0
 30
0.0
  3
*U11
  1

  0
TEXT
  5
E8A
  8
BEM
 62
     1
 10
168.4081861026371882
 20
226.7559482869305896
 30
0.0
 40
3.5
  1
45
 50
90.0
 41
0.8
  0
ENDBLK
  5
E8C
  8
0
  0
BLOCK
  8
0
  2
*D12
 70
     1
 10
0.0
 20
0.0
 30
0.0
  3
*D12
  1

  0
LINE
  5
A17
  8
BEM
 62
     0
 10
143.1063531499366093
 20
251.5226149535972127
 30
0.0
 11
163.3128960733808128
 21
251.5226149535972127
 31
0.0
  0
LINE
  5
A18
  8
BEM
 62
     0
 10
153.499999999999801
 20
244.5226149535972127
 30
0.0
 11
163.3128960733808128
 21
244.5226149535972127
 31
0.0
  0
LINE
  5
A19
  8
BEM
 62
     0
 10
162.3128960733808128
 20
255.0226149535972127
 30
0.0
 11
162.3128960733808128
 21
258.5226149535972127
 31
0.0
  0
LINE
  5
A1A
  8
BEM
 62
     0
 10
162.3128960733808128
 20
241.0226149535972127
 30
0.0
 11
162.3128960733808128
 21
237.5226149535972127
 31
0.0
  0
LINE
  5
A1B
  8
BEM
 62
     0
 10
162.3128960733808128
 20
251.5226149535972127
 30
0.0
 11
162.3128960733808128
 21
244.5226149535972127
 31
0.0
  0
SOLID
  5
A1C
  8
BEM
 62
     0
 10
161.7295627400474984
 20
255.0226149535972127
 30
0.0
 11
162.8962294067142125
 21
255.0226149535972127
 31
0.0
 12
162.3128960733808128
 22
251.5226149535972127
 32
0.0
 13
162.3128960733808128
 23
251.5226149535972127
 33
0.0
  0
SOLID
  5
A1D
  8
BEM
 62
     0
 10
161.7295627400474984
 20
241.0226149535972127
 30
0.0
 11
162.8962294067142125
 21
241.0226149535972127
 31
0.0
 12
162.3128960733808128
 22
244.5226149535972127
 32
0.0
 13
162.3128960733808128
 23
244.5226149535972127
 33
0.0
  0
INSERT
  5
A1E
  8
DEFPOINTS
  2
*U13
 10
0.0
 20
0.0
 30
0.0
  0
POINT
  5
A1F
  8
DEFPOINTS
 62
     0
 10
142.1063531499366093
 20
251.5226149535972127
 30
0.0
  0
POINT
  5
A20
  8
DEFPOINTS
 62
     0
 10
152.499999999999801
 20
244.5226149535972127
 30
0.0
  0
POINT
  5
A21
  8
DEFPOINTS
 62
     0
 10
162.3128960733808128
 20
244.5226149535972127
 30
0.0
  0
ENDBLK
  5
706
  8
0
  0
BLOCK
  8
0
  2
*U13
 70
     1
 10
0.0
 20
0.0
 30
0.0
  3
*U13
  1

  0
TEXT
  5
E8E
  8
BEM
 62
     1
 10
160.8128960733808128
 20
247.089281620263904
 30
0.0
 40
3.5
  1
7
 50
90.0
 41
0.8
  0
ENDBLK
  5
E90
  8
0
  0
BLOCK
  8
0
  2
*D14
 70
     1
 10
0.0
 20
0.0
 30
0.0
  3
*D14
  1

  0
LINE
  5
A22
  8
BEM
 62
     0
 10
85.9999999999999716
 20
205.5226149535972127
 30
0.0
 11
85.9999999999999716
 21
174.2113892702620035
 31
0.0
  0
LINE
  5
A23
  8
BEM
 62
     0
 10
139.0
 20
205.5226149535972127
 30
0.0
 11
139.0
 21
174.2113892702620035
 31
0.0
  0
LINE
  5
A24
  8
BEM
 62
     0
 10
89.4999999999999716
 20
175.2113892702620035
 30
0.0
 11
135.5
 21
175.2113892702620035
 31
0.0
  0
SOLID
  5
A25
  8
BEM
 62
     0
 10
89.4999999999999716
 20
175.7947226035952042
 30
0.0
 11
89.4999999999999716
 21
174.6280559369286038
 31
0.0
 12
85.9999999999999716
 22
175.2113892702620035
 32
0.0
 13
85.9999999999999716
 23
175.2113892702620035
 33
0.0
  0
SOLID
  5
A26
  8
BEM
 62
     0
 10
135.5
 20
175.7947226035952042
 30
0.0
 11
135.5
 21
174.6280559369286038
 31
0.0
 12
139.0
 22
175.2113892702620035
 32
0.0
 13
139.0
 23
175.2113892702620035
 33
0.0
  0
INSERT
  5
A27
  8
DEFPOINTS
  2
*U15
 10
0.0
 20
0.0
 30
0.0
  0
POINT
  5
A28
  8
DEFPOINTS
 62
     0
 10
85.9999999999999716
 20
206.5226149535972127
 30
0.0
  0
POINT
  5
A29
  8
DEFPOINTS
 62
     0
 10
139.0
 20
206.5226149535972127
 30
0.0
  0
POINT
  5
A2A
  8
DEFPOINTS
 62
     0
 10
139.0
 20
175.2113892702620035
 30
0.0
  0
ENDBLK
  5
712
  8
0
  0
BLOCK
  8
0
  2
*U15
 70
     1
 10
0.0
 20
0.0
 30
0.0
  3
*U15
  1

  0
TEXT
  5
E92
  8
BEM
 62
     1
 10
108.966666666666697
 20
176.7113892702618898
 30
0.0
 40
3.5
  1
\U+220553
 41
0.8
  0
ENDBLK
  5
E94
  8
0
  0
BLOCK
  8
0
  2
*D16
 70
     1
 10
0.0
 20
0.0
 30
0.0
  3
*D16
  1

  0
LINE
  5
A2B
  8
BEM
 62
     0
 10
75.9999999999999716
 20
191.5226149535972127
 30
0.0
 11
75.9999999999999716
 21
165.3564596219804059
 31
0.0
  0
LINE
  5
A2C
  8
BEM
 62
     0
 10
149.0
 20
191.5226149535972127
 30
0.0
 11
149.0
 21
165.3564596219804059
 31
0.0
  0
LINE
  5
A2D
  8
BEM
 62
     0
 10
79.4999999999999716
 20
166.3564596219804059
 30
0.0
 11
145.5
 21
166.3564596219804059
 31
0.0
  0
SOLID
  5
A2E
  8
BEM
 62
     0
 10
79.4999999999999716
 20
166.9397929553138056
 30
0.0
 11
79.4999999999999716
 21
165.7731262886470063
 31
0.0
 12
75.9999999999999716
 22
166.3564596219804059
 32
0.0
 13
75.9999999999999716
 23
166.3564596219804059
 33
0.0
  0
SOLID
  5
A2F
  8
BEM
 62
     0
 10
145.5
 20
166.9397929553138056
 30
0.0
 11
145.5
 21
165.7731262886470063
 31
0.0
 12
149.0
 22
166.3564596219804059
 32
0.0
 13
149.0
 23
166.3564596219804059
 33
0.0
  0
INSERT
  5
A30
  8
DEFPOINTS
  2
*U17
 10
0.0
 20
0.0
 30
0.0
  0
POINT
  5
A31
  8
DEFPOINTS
 62
     0
 10
75.9999999999999716
 20
192.5226149535972127
 30
0.0
  0
POINT
  5
A32
  8
DEFPOINTS
 62
     0
 10
149.0
 20
192.5226149535972127
 30
0.0
  0
POINT
  5
A33
  8
DEFPOINTS
 62
     0
 10
149.0
 20
166.3564596219804059
 30
0.0
  0
ENDBLK
  5
71E
  8
0
  0
BLOCK
  8
0
  2
*U17
 70
     1
 10
0.0
 20
0.0
 30
0.0
  3
*U17
  1

  0
TEXT
  5
E96
  8
BEM
 62
     1
 10
108.9666666666665975
 20
167.8564596219804059
 30
0.0
 40
3.5
  1
\U+220573
 41
0.8
  0
ENDBLK
  5
E98
  8
0
  0
BLOCK
  8
0
  2
*D18
 70
     1
 10
0.0
 20
0.0
 30
0.0
  3
*D18
  1

  0
LINE
  5
C23
  8
BEM
 62
     0
 10
72.4999999999999716
 20
245.5226149535972127
 30
0.0
 11
72.4999999999999716
 21
260.8188487252784853
 31
0.0
  0
LINE
  5
C24
  8
BEM
 62
     0
 10
152.499999999999801
 20
245.5226149535972127
 30
0.0
 11
152.499999999999801
 21
260.8188487252784853
 31
0.0
  0
LINE
  5
C25
  8
BEM
 62
     0
 10
75.9999999999999716
 20
259.818848725278599
 30
0.0
 11
149.0
 21
259.818848725278599
 31
0.0
  0
SOLID
  5
C26
  8
BEM
 62
     0
 10
75.9999999999999716
 20
260.4021820586119134
 30
0.0
 11
75.9999999999999716
 21
259.2355153919452846
 31
0.0
 12
72.4999999999999716
 22
259.818848725278599
 32
0.0
 13
72.4999999999999716
 23
259.818848725278599
 33
0.0
  0
SOLID
  5
C27
  8
BEM
 62
     0
 10
149.0
 20
260.4021820586119134
 30
0.0
 11
149.0
 21
259.2355153919452846
 31
0.0
 12
152.499999999999801
 22
259.818848725278599
 32
0.0
 13
152.499999999999801
 23
259.818848725278599
 33
0.0
  0
INSERT
  5
C28
  8
DEFPOINTS
  2
*U19
 10
0.0
 20
0.0
 30
0.0
  0
POINT
  5
C29
  8
DEFPOINTS
 62
     0
 10
72.4999999999999716
 20
244.5226149535972127
 30
0.0
  0
POINT
  5
C2A
  8
DEFPOINTS
 62
     0
 10
152.499999999999801
 20
244.5226149535972127
 30
0.0
  0
POINT
  5
C2B
  8
DEFPOINTS
 62
     0
 10
152.499999999999801
 20
259.818848725278599
 30
0.0
  0
ENDBLK
  5
72A
  8
0
  0
BLOCK
  8
0
  2
*U19
 70
     1
 10
0.0
 20
0.0
 30
0.0
  3
*U19
  1

  0
TEXT
  5
E9A
  8
BEM
 62
     1
 10
108.9666666666665975
 20
261.3188487252784853
 30
0.0
 40
3.5
  1
\U+220580
 41
0.8
  0
ENDBLK
  5
E9C
  8
0
  0
BLOCK
  8
0
  2
A$C795C3A5B
 70
     0
 10
0.0
 20
0.0
 30
0.0
  3
A$C795C3A5B
  1

  0
LINE
  5
DD1
  8
0
  6
CONTINUOUS
 62
     3
 10
368.7722001817866158
 20
-33.1017048280521635
 30
0.0
 11
440.8973135465275277
 21
-33.1017048280521635
 31
0.0
210
0.0
220
1.0
230
0.0
  0
LINE
  5
DD2
  8
0
  6
CONTINUOUS
 62
     3
 10
364.8347568641568728
 20
21.8982951719477796
 30
0.0
 11
444.8347568641568728
 21
21.8982951719477796
 31
0.0
210
0.0
220
1.0
230
0.0
  0
LINE
  5
DD3
  8
0
  6
CONTINUOUS
 62
     3
 10
373.8336073730980047
 20
26.8982951719477512
 30
0.0
 11
435.8359063552160251
 21
26.8982951719477512
 31
0.0
210
0.0
220
1.0
230
0.0
  0
LINE
  5
DD4
  8
0
  6
CONTINUOUS
 62
     3
 10
444.8347568641568728
 20
23.8982951719477796
 30
0.0
 11
364.8347568641568728
 21
23.8982951719477796
 31
0.0
210
0.0
220
1.0
230
0.0
  0
LINE
  5
DD5
  8
0
  6
CONTINUOUS
 62
     3
 10
441.3347568641568728
 20
21.8982951719477796
 30
0.0
 11
441.3347568641568728
 21
-28.1017048280521884
 31
0.0
210
0.0
220
1.0
230
0.0
  0
LINE
  5
DD6
  8
0
  6
CONTINUOUS
 62
     3
 10
368.3347568641571002
 20
21.8982951719477796
 30
0.0
 11
368.3347568641571002
 21
-28.1017048280521884
 31
0.0
210
0.0
220
1.0
230
0.0
  0
LINE
  5
DD7
  8
0
  6
CONTINUOUS
 62
     3
 10
368.7722001817866158
 20
-33.1017048280521635
 30
0.0
 11
368.3347568641571002
 21
-28.1017048280521884
 31
0.0
210
0.0
220
1.0
230
0.0
  0
LINE
  5
DD8
  8
0
  6
CONTINUOUS
 62
     3
 10
440.8973135465275277
 20
-33.1017048280521635
 30
0.0
 11
441.3347568641568728
 21
-28.1017048280521884
 31
0.0
210
0.0
220
1.0
230
0.0
  0
ARC
  5
DD9
  8
0
  6
CONTINUOUS
 62
     3
 10
-373.9470139665094734
 20
23.2765940446508388
 30
0.0
 40
3.6234762467681292
210
0.0
220
0.0
230
-1.0
 50
9.8794567235594641
 51
88.2064790821076343
  0
ARC
  5
DDA
  8
0
  6
CONTINUOUS
 62
     3
 10
-435.7224997618046132
 20
23.2765940446508495
 30
0.0
 40
3.623476246768131
210
0.0
220
0.0
230
-1.0
 50
91.7935209178923088
 51
170.1205432764405998
  0
LINE
  5
DDB
  8
0
  6
CONTINUOUS
 62
     3
 10
444.8347568641568728
 20
23.8982951719477796
 30
0.0
 11
444.8347568641568728
 21
21.8982951719477796
 31
0.0
210
0.0
220
1.0
230
0.0
  0
LINE
  5
DDC
  8
0
  6
CONTINUOUS
 62
     3
 10
364.8347568641568728
 20
23.8982951719477796
 30
0.0
 11
364.8347568641568728
 21
21.8982951719477796
 31
0.0
210
0.0
220
1.0
230
0.0
  0
LINE
  5
DDD
  8
0
  6
CONTINUOUS
 62
     3
 10
375.2284037142202919
 20
30.8982951719478116
 30
0.0
 11
434.4411100140937947
 21
30.8982951719478116
 31
0.0
210
0.0
220
1.0
230
0.0
  0
ARC
  5
DDE
  8
0
  6
CONTINUOUS
 62
     3
 10
-392.8347568641697194
 20
22.5157938292840711
 30
0.0
 40
19.5000000000126406
210
0.0
220
0.0
230
-1.0
 50
12.9878048295048707
 51
25.4594285688110986
  0
ARC
  5
DDF
  8
0
  6
CONTINUOUS
 62
     3
 10
-416.8347568641443104
 20
22.5157938292840782
 30
0.0
 40
19.5000000000126406
210
0.0
220
0.0
230
-1.0
 50
154.5405714311889085
 51
167.0121951704950902
  0
LINE
  5
DE0
  8
0
  6
VERDECKT
 62
     1
 10
370.3783119218559818
 20
-33.1017048280521635
 30
0.0
 11
369.9347568641570092
 21
-28.0318473193986186
 31
0.0
210
0.0
220
1.0
230
0.0
  0
LINE
  5
DE1
  8
0
  6
VERDECKT
 62
     1
 10
439.2912018064578774
 20
-33.1017048280521635
 30
0.0
 11
439.7347568641570774
 21
-28.0318473193986186
 31
0.0
210
0.0
220
1.0
230
0.0
  0
LINE
  5
DE2
  8
0
  6
VERDECKT
 62
     1
 10
439.7347568641570774
 20
21.8982951719477796
 30
0.0
 11
439.7347568641570774
 21
-28.0318473193986186
 31
0.0
210
0.0
220
1.0
230
0.0
  0
LINE
  5
DE3
  8
0
  6
VERDECKT
 62
     1
 10
369.9347568641570092
 20
21.8982951719477796
 30
0.0
 11
369.9347568641570092
 21
-28.0318473193986186
 31
0.0
210
0.0
220
1.0
230
0.0
  0
ARC
  5
DE4
  8
0
  6
VERDECKT
 62
     1
 10
-392.8347568641631256
 20
22.5157938292862916
 30
0.0
 40
19.5000000000059401
210
0.0
220
0.0
230
-1.0
 50
4.065538538600399
 51
12.9878048295026893
  0
ARC
  5
DE5
  8
0
  6
VERDECKT
 62
     1
 10
-416.8347568641510179
 20
22.5157938292862987
 30
0.0
 40
19.5000000000059401
210
0.0
220
0.0
230
-1.0
 50
167.0121951704973071
 51
175.934461461399593
  0
LINE
  5
DE6
  8
0
  6
VERDECKT
 62
     1
 10
437.3347568641568728
 20
23.8982951719477796
 30
0.0
 11
437.3347568641568728
 21
21.8982951719477796
 31
0.0
210
0.0
220
1.0
230
0.0
  0
LINE
  5
DE7
  8
0
  6
VERDECKT
 62
     1
 10
372.3347568641572138
 20
23.8982951719477796
 30
0.0
 11
372.3347568641572138
 21
21.8982951719477796
 31
0.0
210
0.0
220
1.0
230
0.0
  0
LINE
  5
DE8
  8
0
  6
VERDECKT
 62
     1
 10
378.3347568641568728
 20
-14.1017048280521902
 30
0.0
 11
431.3347568641571002
 21
-14.1017048280521902
 31
0.0
210
0.0
220
1.0
230
0.0
  0
ARC
  5
DE9
  8
0
  6
VERDECKT
 62
     1
 10
-370.3347568641574981
 20
-12.2290316677086803
 30
0.0
 40
9.4999999999994902
210
0.0
220
0.0
230
-1.0
 50
148.2116693829497933
 51
180.0000000000015916
  0
ARC
  5
DEA
  8
0
  6
VERDECKT
 62
     1
 10
-439.3347568641565886
 20
-12.2290316677086803
 30
0.0
 40
9.4999999999994884
210
0.0
220
0.0
230
-1.0
 50
359.9999999999984084
 51
31.7883306170501001
  0
ARC
  5
DEB
  8
0
  6
VERDECKT
 62
     1
 10
-387.3347568641563043
 20
-1.693377914856359
 30
0.0
 40
10.4999999999993605
210
0.0
220
0.0
230
-1.0
 50
328.2116693829456722
 51
0.0000000000011832
  0
ARC
  5
DEC
  8
0
  6
VERDECKT
 62
     1
 10
-422.3347568641576117
 20
-1.693377914856361
 30
0.0
 40
10.4999999999993605
210
0.0
220
0.0
230
-1.0
 50
179.9999999999988063
 51
211.7883306170541005
  0
LINE
  5
DED
  8
0
  6
VERDECKT
 62
     1
 10
432.8347568641568728
 20
6.39829517194792
 30
0.0
 11
432.8347568641568728
 21
-1.6933779148561421
 31
0.0
210
0.0
220
1.0
230
0.0
  0
LINE
  5
DEE
  8
0
  6
VERDECKT
 62
     1
 10
376.8347568641571002
 20
6.39829517194792
 30
0.0
 11
376.8347568641571002
 21
-1.6933779148561421
 31
0.0
210
0.0
220
1.0
230
0.0
  0
ARC
  5
DEF
  8
0
  6
VERDECKT
 62
     1
 10
-365.3347568641577254
 20
6.398295171948023
 30
0.0
 40
11.4999999999993108
210
0.0
220
0.0
230
-1.0
 50
160.5369005553104103
 51
180.0000000000003979
  0
ARC
  5
DF0
  8
0
  6
VERDECKT
 62
     1
 10
-444.3347568641561907
 20
6.3982951719480212
 30
0.0
 40
11.4999999999993108
210
0.0
220
0.0
230
-1.0
 50
359.9999999999994884
 51
19.46309944468954
  0
ARC
  5
DF1
  8
0
  6
VERDECKT
 62
     1
 10
-398.3347568641573275
 20
18.0602951719478391
 30
0.0
 40
23.5000320571283687
210
0.0
220
0.0
230
-1.0
 50
340.5369005553114903
 51
0.094638044796968
  0
ARC
  5
DF2
  8
0
  6
VERDECKT
 62
     1
 10
-411.3347568641567022
 20
18.0602951719478604
 30
0.0
 40
23.5000320571283687
210
0.0
220
0.0
230
-1.0
 50
179.9053619552030057
 51
199.463099444688396
  0
LINE
  5
DF3
  8
0
  6
VERDECKT
 62
     1
 10
434.8347568641568159
 20
22.5157938292870483
 30
0.0
 11
434.8347568641568159
 21
18.0991112260128908
 31
0.0
210
0.0
220
1.0
230
0.0
  0
LINE
  5
DF4
  8
0
  6
VERDECKT
 62
     1
 10
374.8347568641571002
 20
22.5157938292870483
 30
0.0
 11
374.8347568641571002
 21
18.0991112260128908
 31
0.0
210
0.0
220
1.0
230
0.0
  0
ARC
  5
DF5
  8
0
  6
VERDECKT
 62
     1
 10
-392.8347568641635235
 20
22.5157938292857196
 30
0.0
 40
18.0000000000063594
210
0.0
220
0.0
230
-1.0
 50
0.0000000000042111
 51
24.999999999997101
  0
ARC
  5
DF6
  8
0
  6
VERDECKT
 62
     1
 10
-416.83475686415062
 20
22.5157938292857303
 30
0.0
 40
18.00000000000637
210
0.0
220
0.0
230
-1.0
 50
155.0000000000028137
 51
179.9999999999957083
  0
LINE
  5
DF7
  8
0
  6
VERDECKT
 62
     1
 10
432.7867348349043937
 20
30.8982951719478187
 30
0.0
 11
433.148297030816309
 21
30.1229225406201913
 31
0.0
210
0.0
220
1.0
230
0.0
  0
LINE
  5
DF8
  8
0
  6
VERDECKT
 62
     1
 10
376.882778893409693
 20
30.8982951719478187
 30
0.0
 11
376.5212166974976071
 21
30.1229225406201913
 31
0.0
210
0.0
220
1.0
230
0.0
  0
ARC
  5
DF9
  8
0
  6
VERDECKT
 62
     1
 10
-392.8347568641705152
 20
22.5157938292843305
 30
0.0
 40
19.5000000000134115
210
0.0
220
0.0
230
-1.0
 50
0.0000000000079641
 51
12.9878048295035597
  0
ARC
  5
DFA
  8
0
  6
VERDECKT
 62
     1
 10
-416.8347568641435146
 20
22.5157938292843305
 30
0.0
 40
19.5000000000134683
210
0.0
220
0.0
230
-1.0
 50
167.0121951704963976
 51
179.9999999999920135
  0
LINE
  5
DFB
  8
0
  6
VERDECKT
 62
     1
 10
436.3347568641568728
 20
22.5157938292870483
 30
0.0
 11
436.3347568641568728
 21
18.1003308739562101
 31
0.0
210
0.0
220
1.0
230
0.0
  0
LINE
  5
DFC
  8
0
  6
VERDECKT
 62
     1
 10
373.3347568641572138
 20
22.5157938292870483
 30
0.0
 11
373.3347568641572138
 21
18.1003308739562101
 31
0.0
210
0.0
220
1.0
230
0.0
  0
ARC
  5
DFD
  8
0
  6
VERDECKT
 62
     1
 10
-398.3347568641610223
 20
18.0602951719484786
 30
0.0
 40
25.0000320571321808
210
0.0
220
0.0
230
-1.0
 50
340.5369005553130819
 51
0.0917549917580634
  0
ARC
  5
DFE
  8
0
  6
VERDECKT
 62
     1
 10
-411.3347568641530074
 20
18.0602951719484786
 30
0.0
 40
25.0000320571321915
210
0.0
220
0.0
230
-1.0
 50
179.9082450082420053
 51
199.4630994446868044
  0
ARC
  5
DFF
  8
0
  6
VERDECKT
 62
     1
 10
-365.334756864156418
 20
6.3982951719475833
 30
0.0
 40
10.0000000000006803
210
0.0
220
0.0
230
-1.0
 50
160.5369005553104103
 51
179.9999999999980105
  0
ARC
  5
E00
  8
0
  6
VERDECKT
 62
     1
 10
-444.3347568641576117
 20
6.3982951719475771
 30
0.0
 40
10.0000000000007407
210
0.0
220
0.0
230
-1.0
 50
0.0000000000019338
 51
19.4630994446894796
  0
LINE
  5
E01
  8
0
  6
VERDECKT
 62
     1
 10
434.3347568641568728
 20
6.39829517194792
 30
0.0
 11
434.3347568641568728
 21
-1.6933779148561701
 31
0.0
210
0.0
220
1.0
230
0.0
  0
LINE
  5
E02
  8
0
  6
VERDECKT
 62
     1
 10
375.3347568641568728
 20
6.39829517194792
 30
0.0
 11
375.3347568641568728
 21
-1.6933779148561701
 31
0.0
210
0.0
220
1.0
230
0.0
  0
ARC
  5
E03
  8
0
  6
VERDECKT
 62
     1
 10
-387.3347568641565886
 20
-1.6933779148562911
 30
0.0
 40
11.9999999999995399
210
0.0
220
0.0
230
-1.0
 50
328.2116693829491965
 51
0.0000000000005852
  0
ARC
  5
E04
  8
0
  6
VERDECKT
 62
     1
 10
-422.3347568641574981
 20
-1.6933779148562931
 30
0.0
 40
11.9999999999995399
210
0.0
220
0.0
230
-1.0
 50
179.9999999999994031
 51
211.7883306170508035
  0
ARC
  5
E05
  8
0
  6
VERDECKT
 62
     1
 10
-370.3347568641567022
 20
-12.2290316677089095
 30
0.0
 40
8.0000000000003464
210
0.0
220
0.0
230
-1.0
 50
148.2116693829476048
 51
179.9999999999994884
  0
ARC
  5
E06
  8
0
  6
VERDECKT
 62
     1
 10
-439.3347568641573844
 20
-12.2290316677089095
 30
0.0
 40
8.0000000000003411
210
0.0
220
0.0
230
-1.0
 50
0.0000000000004326
 51
31.7883306170523916
  0
LINE
  5
E07
  8
0
  6
VERDECKT
 62
     1
 10
431.3347568641571002
 20
-12.2290316677088509
 30
0.0
 11
431.3347568641571002
 21
-14.1017048280521902
 31
0.0
210
0.0
220
1.0
230
0.0
  0
LINE
  5
E08
  8
0
  6
VERDECKT
 62
     1
 10
378.3347568641568728
 20
-12.2290316677088509
 30
0.0
 11
378.3347568641568728
 21
-14.1017048280521902
 31
0.0
210
0.0
220
1.0
230
0.0
  0
LINE
  5
E09
  8
0
  6
VERDECKT
 62
     1
 10
429.8347568641568728
 20
-12.2290316677089592
 30
0.0
 11
429.8347568641568728
 21
-14.10170482805216
 31
0.0
210
0.0
220
1.0
230
0.0
  0
LINE
  5
E0A
  8
0
  6
VERDECKT
 62
     1
 10
379.8347568641568728
 20
-12.2290316677089592
 30
0.0
 11
379.8347568641568728
 21
-14.10170482805216
 31
0.0
210
0.0
220
1.0
230
0.0
  0
ENDBLK
  5
E0C
  8
0
  0
BLOCK
  8
0
  2
A$C30662803
 70
     0
 10
0.0
 20
0.0
 30
0.0
  3
A$C30662803
  1

  0
CIRCLE
  5
E10
  8
0
  6
CONTINUOUS
 62
     3
 10
299.7613802287795011
 20
219.4340069860238032
 30
0.0
 40
31.0011494910590386
  0
CIRCLE
  5
E11
  8
0
  6
CONTINUOUS
 62
     3
 10
299.7613802287795011
 20
219.4340069860238032
 30
0.0
 40
34.4574862804708602
  0
CIRCLE
  5
E12
  8
0
  6
CONTINUOUS
 62
     3
 10
299.7613802287795011
 20
219.4340069860238032
 30
0.0
 40
40.0
  0
CIRCLE
  5
E13
  8
0
  6
CONTINUOUS
 62
     3
 10
299.7613802287795011
 20
219.4340069860238032
 30
0.0
 40
25.0000000000000604
  0
CIRCLE
  5
E14
  8
0
  6
CONTINUOUS
 62
     3
 10
299.7613802287795011
 20
219.4340069860238032
 30
0.0
 40
27.9519779707474108
  0
CIRCLE
  5
E15
  8
0
  6
CONTINUOUS
 62
     3
 10
299.7613802287795011
 20
219.4340069860238032
 30
0.0
 40
29.6063531499368118
  0
CIRCLE
  5
E16
  8
0
  6
VERDECKT
 62
     1
 10
299.7613802287795011
 20
219.4340069860238032
 30
0.0
 40
34.4564449423010615
  0
CIRCLE
  5
E17
  8
0
  6
VERDECKT
 62
     1
 10
299.7613802287795011
 20
219.4340069860238032
 30
0.0
 40
34.9000000000000412
  0
CIRCLE
  5
E18
  8
0
  6
VERDECKT
 62
     1
 10
299.7613802287795011
 20
219.4340069860238032
 30
0.0
 40
36.5
  0
CIRCLE
  5
E19
  8
0
  6
VERDECKT
 62
     1
 10
299.7613802287795011
 20
219.4340069860238032
 30
0.0
 40
36.0625566823704276
  0
CIRCLE
  5
E1A
  8
0
  6
VERDECKT
 62
     1
 10
299.7613802287795011
 20
219.4340069860238032
 30
0.0
 40
31.4509303129062801
  0
CIRCLE
  5
E1B
  8
0
  6
VERDECKT
 62
     1
 10
299.7613802287795011
 20
219.4340069860238032
 30
0.0
 40
32.5
  0
CIRCLE
  5
E1C
  8
0
  6
VERDECKT
 62
     1
 10
299.7613802287795011
 20
219.4340069860238032
 30
0.0
 40
28.0
  0
CIRCLE
  5
E1D
  8
0
  6
VERDECKT
 62
     1
 10
299.7613802287795011
 20
219.4340069860238032
 30
0.0
 40
29.9999999999998899
  0
CIRCLE
  5
E1E
  8
0
  6
VERDECKT
 62
     1
 10
299.7613802287795011
 20
219.4340069860238032
 30
0.0
 40
31.4999999999998899
  0
CIRCLE
  5
E1F
  8
0
  6
VERDECKT
 62
     1
 10
299.7613802287795011
 20
219.4340069860238032
 30
0.0
 40
29.4999999999999396
  0
CIRCLE
  5
E20
  8
0
  6
VERDECKT
 62
     1
 10
299.7613802287795011
 20
219.4340069860238032
 30
0.0
 40
26.5000000000000604
  0
CIRCLE
  5
E21
  8
0
  6
VERDECKT
 62
     1
 10
299.7613802287795011
 20
219.4340069860238032
 30
0.0
 40
30.0000320571281485
  0
CIRCLE
  5
E22
  8
0
  6
VERDECKT
 62
     1
 10
299.7613802287795011
 20
219.4340069860238032
 30
0.0
 40
31.5000320571281485
  0
ENDBLK
  5
E24
  8
0
  0
ENDSEC
  0
SECTION
  2
ENTITIES
  0
TEXT
  5
8F
  8
VOLL
 10
78.076754716981128
 20
31.025947764705851
 30
0.0
 40
1.8
  1

  7
GREEKS
  0
INSERT
  5
F68
  8
DEFPOINTS
  2
A$C795C3A5B
 10
-364.8347563904140998
 20
146.2747089805845064
 30
0.0
  0
INSERT
  5
F69
  8
DEFPOINTS
  2
A$C30662803
 10
-259.7613797550362733
 20
-179.4340070881636962
 30
0.0
  0
VIEWPORT
  5
9D9
 67
     1
  8
0
 10
6.2682026497813332
 20
7.2772722566693213
 30
0.0
 40
55.3559964356728287
 41
23.2642801020320995
 68
     1
 69
     1
1001
ACAD
1000
MVIEW
1002
{
1070
    16
1010
0.0
1020
0.0
1030
0.0
1010
0.0
1020
0.0
1030
1.0
1040
0.0
1040
23.2642801020320995
1040
6.2682026497813332
1040
7.2772722566693213
1040
50.0
1040
0.0
1040
0.0
1070
     0
1070
  1500
1070
     1
1070
     1
1070
     0
1070
     0
1070
     0
1070
     0
1040
0.0
1040
0.0
1040
0.0
1040
10.0
1040
10.0
1040
10.0
1040
10.0
1070
     0
1002
{
1002
}
1002
}
  0
ENDSEC
  0
EOF
