  0
SECTION
  2
HEADER
  9
$ACADVER
  1
AC1009
  9
$INSBASE
 10
0.0
 20
0.0
 30
0.0
  9
$EXTMIN
 10
120.5672138161020968
 20
43.614654598004563
 30
-10.0918345815073494
  9
$EXTMAX
 10
173.567213816102111
 20
275.0303542549037843
 30
-10.0918345815073103
  9
$LIMMIN
 10
0.0
 20
0.0
  9
$LIMMAX
 10
210.0
 20
297.0
  9
$ORTHOMODE
 70
     1
  9
$REGENMODE
 70
     1
  9
$FILLMODE
 70
     1
  9
$QTEXTMODE
 70
     0
  9
$MIRRTEXT
 70
     1
  9
$DRAGMODE
 70
     2
  9
$LTSCALE
 40
10.0
  9
$OSMODE
 70
  2495
  9
$ATTMODE
 70
     1
  9
$TEXTSIZE
 40
3.5
  9
$TRACEWID
 40
0.5
  9
$TEXTSTYLE
  7
STANDARD
  9
$CLAYER
  8
STEMPEL
  9
$CELTYPE
  6
BYLAYER
  9
$CECOLOR
 62
   256
  9
$DIMSCALE
 40
1.0
  9
$DIMASZ
 40
3.5
  9
$DIMEXO
 40
1.0
  9
$DIMDLI
 40
7.0
  9
$DIMRND
 40
0.0
  9
$DIMDLE
 40
0.0
  9
$DIMEXE
 40
1.0
  9
$DIMTP
 40
0.0
  9
$DIMTM
 40
0.0
  9
$DIMTXT
 40
3.5
  9
$DIMCEN
 40
1.5
  9
$DIMTSZ
 40
0.0
  9
$DIMTOL
 70
     0
  9
$DIMLIM
 70
     0
  9
$DIMTIH
 70
     0
  9
$DIMTOH
 70
     0
  9
$DIMSE1
 70
     0
  9
$DIMSE2
 70
     0
  9
$DIMTAD
 70
     1
  9
$DIMZIN
 70
     8
  9
$DIMBLK
  1

  9
$DIMASO
 70
     1
  9
$DIMSHO
 70
     0
  9
$DIMPOST
  1

  9
$DIMAPOST
  1

  9
$DIMALT
 70
     0
  9
$DIMALTD
 70
     2
  9
$DIMALTF
 40
25.3999999999999986
  9
$DIMLFAC
 40
1.0
  9
$DIMTOFL
 70
     1
  9
$DIMTVP
 40
0.0
  9
$DIMTIX
 70
     0
  9
$DIMSOXD
 70
     0
  9
$DIMSAH
 70
     0
  9
$DIMBLK1
  1

  9
$DIMBLK2
  1

  9
$DIMSTYLE
  2
STANDARD
  9
$DIMCLRD
 70
     0
  9
$DIMCLRE
 70
     0
  9
$DIMCLRT
 70
     1
  9
$DIMTFAC
 40
0.5
  9
$DIMGAP
 40
1.5
  9
$LUNITS
 70
     2
  9
$LUPREC
 70
     2
  9
$SKETCHINC
 40
1.0
  9
$FILLETRAD
 40
0.0
  9
$AUNITS
 70
     0
  9
$AUPREC
 70
     0
  9
$MENU
  1
ACAD
  9
$ELEVATION
 40
0.0
  9
$PELEVATION
 40
0.0
  9
$THICKNESS
 40
0.0
  9
$LIMCHECK
 70
     0
  9
$BLIPMODE
 70
     0
  9
$CHAMFERA
 40
0.0
  9
$CHAMFERB
 40
0.0
  9
$SKPOLY
 70
     0
  9
$TDCREATE
 40
2455397.8646990740671754
  9
$TDUPDATE
 40
2459335.4731944450177252
  9
$TDINDWG
 40
0.0806175
  9
$TDUSRTIMER
 40
0.0806175
  9
$USRTIMER
 70
     1
  9
$ANGBASE
 50
0.0
  9
$ANGDIR
 70
     0
  9
$PDMODE
 70
     0
  9
$PDSIZE
 40
0.0
  9
$PLINEWID
 40
0.0
  9
$COORDS
 70
     1
  9
$SPLFRAME
 70
     0
  9
$SPLINETYPE
 70
     6
  9
$SPLINESEGS
 70
     8
  9
$ATTDIA
 70
     1
  9
$ATTREQ
 70
     1
  9
$HANDLING
 70
     1
  9
$HANDSEED
  5
EC6
  9
$SURFTAB1
 70
     6
  9
$SURFTAB2
 70
     6
  9
$SURFTYPE
 70
     6
  9
$SURFU
 70
     6
  9
$SURFV
 70
     6
  9
$UCSNAME
  2

  9
$UCSORG
 10
0.0
 20
0.0
 30
0.0
  9
$UCSXDIR
 10
1.0
 20
0.0
 30
0.0
  9
$UCSYDIR
 10
0.0
 20
1.0
 30
0.0
  9
$PUCSNAME
  2

  9
$PUCSORG
 10
0.0
 20
0.0
 30
0.0
  9
$PUCSXDIR
 10
1.0
 20
0.0
 30
0.0
  9
$PUCSYDIR
 10
0.0
 20
1.0
 30
0.0
  9
$USERI1
 70
     0
  9
$USERI2
 70
     0
  9
$USERI3
 70
     0
  9
$USERI4
 70
     0
  9
$USERI5
 70
     0
  9
$USERR1
 40
0.0
  9
$USERR2
 40
0.0
  9
$USERR3
 40
0.0
  9
$USERR4
 40
0.0
  9
$USERR5
 40
0.0
  9
$WORLDVIEW
 70
     1
  9
$SHADEDGE
 70
     3
  9
$SHADEDIF
 70
    70
  9
$TILEMODE
 70
     1
  9
$MAXACTVP
 70
    16
  9
$PLIMCHECK
 70
     0
  9
$PEXTMIN
 10
0.0251558542057069
 20
-0.1233938284017313
 30
-0.0000000349181948
  9
$PEXTMAX
 10
210.0507914021715123
 20
296.9128621608643925
 30
0.0000000814935746
  9
$PLIMMIN
 10
0.0379726502700351
 20
-0.1052672168250979
  9
$PLIMMAX
 10
210.0379726502700066
 20
296.8947327831749021
  9
$UNITMODE
 70
     0
  9
$VISRETAIN
 70
     0
  9
$PLINEGEN
 70
     0
  9
$PSLTSCALE
 70
     0
  0
ENDSEC
  0
SECTION
  2
TABLES
  0
TABLE
  2
VPORT
 70
     1
  0
VPORT
  2
*ACTIVE
 70
     0
 10
0.0
 20
0.0
 11
1.0
 21
1.0
 12
0.2826353406536839
 22
-38.2078498284499801
 13
0.0
 23
0.0
 14
1.0
 24
1.0
 15
10.0
 25
10.0
 16
-0.0000000000000853
 26
0.0
 36
408.5837490525404974
 17
146.7845784754483986
 27
197.5303542549042106
 37
-5.0459172907536649
 40
233.0706391061738998
 41
1.7852028639618129
 42
50.0
 43
0.0
 44
0.0
 50
0.0
 51
0.0
 71
     0
 72
  1500
 73
     1
 74
     0
 75
     0
 76
     0
 77
     0
 78
     0
  0
ENDTAB
  0
TABLE
  2
LTYPE
 70
     6
  0
LTYPE
  2
CONTINUOUS
 70
     0
  3
Solid line
 72
    65
 73
     0
 40
0.0
  0
LTYPE
  2
PHANTOM2
 70
     0
  3
Phantom (.5x) ___ _ _ ___ _ _ ___ _ _ ___ _ _
 72
    65
 73
     6
 40
1.25
 49
0.625
 49
-0.125
 49
0.125
 49
-0.125
 49
0.125
 49
-0.125
  0
LTYPE
  2
VERDECKT
 70
     0
  3
Verdeckt __ __ __ __ __ __ __ __ __ __ __ __ __
 72
    65
 73
     2
 40
0.375
 49
0.25
 49
-0.125
  0
ENDTAB
  0
TABLE
  2
LAYER
 70
    11
  0
LAYER
  2
0
 70
     0
 62
     7
  6
CONTINUOUS
  0
LAYER
  2
VOLL
 70
     0
 62
     1
  6
CONTINUOUS
  0
LAYER
  2
STEMPEL
 70
     0
 62
     3
  6
CONTINUOUS
  0
LAYER
  2
DEFPOINTS
 70
     0
 62
     7
  6
CONTINUOUS
  0
LAYER
  2
ADSK_ASSOC_ENTITY_BACKUPS
 70
     1
 62
    -7
  6
CONTINUOUS
  0
ENDTAB
  0
TABLE
  2
STYLE
 70
     7
  0
STYLE
  2
STANDARD
 70
     0
 40
0.0
 41
0.8
 50
0.0
 71
     0
 42
3.5
  3
simplex.shx
  4

  0
STYLE
  2
GREEKS
 70
     0
 40
0.0
 41
0.8
 50
0.0
 71
     0
 42
2.5
  3
SIMPLEX.shx
  4

  0
ENDTAB
  0
TABLE
  2
VIEW
 70
     7
  0
ENDTAB
  0
TABLE
  2
UCS
 70
     0
  0
ENDTAB
  0
TABLE
  2
APPID
 70
    13
  0
APPID
  2
ACAD
 70
     0
  0
APPID
  2
ACAD_NAV_VCDISPLAY
 70
     0
  0
APPID
  2
ACAD_MLEADERVER
 70
     0
  0
APPID
  2
ACAD_EXEMPT_FROM_CAD_STANDARDS
 70
     0
  0
APPID
  2
ACAD_PSEXT
 70
     0
  0
APPID
  2
ACAECLAYERSTANDARD
 70
     0
  0
APPID
  2
ACAUTHENVIRON
 70
     0
  0
APPID
  2
ACCMTRANSPARENCY
 70
     0
  0
APPID
  2
ACSYNERGY
 70
     0
  0
APPID
  2
SYNERGY_BODY_TBR_ID
 70
     0
  0
APPID
  2
ACAD_VIEW_EDGE_ID
 70
     0
  0
APPID
  2
ACADANNOMONITORALERTICONDI
 70
     0
  0
APPID
  2
AcDbAttr
 70
     0
  0
ENDTAB
  0
TABLE
  2
DIMSTYLE
 70
     5
  0
DIMSTYLE
  2
STANDARD
 70
     0
  3

  4

  5

  6

  7

 40
1.0
 41
0.18
 42
0.0625
 43
0.38
 44
0.18
 45
0.0
 46
0.0
 47
0.0
 48
0.0
140
0.18
141
0.09
142
0.0
143
25.3999999999999986
144
1.0
145
0.0
146
1.0
147
0.09
 71
     0
 72
     0
 73
     1
 74
     1
 75
     0
 76
     0
 77
     0
 78
     0
170
     0
171
     2
172
     0
173
     0
174
     0
175
     0
176
     0
177
     0
178
     0
  0
ENDTAB
  0
ENDSEC
  0
SECTION
  2
BLOCKS
  0
BLOCK
  8
0
  2
$MODEL_SPACE
 70
     0
 10
0.0
 20
0.0
 30
0.0
  3
$MODEL_SPACE
  1

  0
ENDBLK
  5
36
  8
0
  0
BLOCK
 67
     1
  8
0
  2
$PAPER_SPACE
 70
     0
 10
0.0
 20
0.0
 30
0.0
  3
$PAPER_SPACE
  1

  0
ENDBLK
  5
34
 67
     1
  8
0
  0
BLOCK
  8
0
  2
*S4
 70
     1
 10
0.0
 20
0.0
 30
0.0
  3
*S4
  1

  0
ENDBLK
  5
AAC
  8
0
  0
BLOCK
  8
0
  2
A$CD543138C
 70
     0
 10
0.0
 20
0.0
 30
0.0
  3
A$CD543138C
  1

  0
CIRCLE
  5
E12
  8
0
 10
58.5312540446623188
 20
199.474743386740812
 30
0.0000000000000124
 40
26.5
  0
CIRCLE
  5
E13
  8
0
 10
58.5312540446623188
 20
199.474743386740812
 30
0.0000000000000124
 40
25.5
  0
CIRCLE
  5
E14
  8
0
 10
58.5312540446623188
 20
199.474743386740812
 30
0.0000000000000124
 40
24.9999999999999716
  0
CIRCLE
  5
E15
  8
0
 10
58.5312540446623331
 20
199.474743386740812
 30
0.0000000000000142
 40
15.0
  0
CIRCLE
  5
E16
  8
0
 10
58.5312540446623331
 20
199.474743386740812
 30
0.0000000000000142
 40
17.0
  0
CIRCLE
  5
E17
  8
0
 10
58.5312540446623331
 20
199.474743386740812
 30
0.0000000000000142
 40
17.1887802265776592
  0
CIRCLE
  5
E18
  8
0
 10
58.5312540446623331
 20
199.474743386740812
 30
0.0000000000000142
 40
18.1013655750161604
  0
CIRCLE
  5
E19
  8
0
 10
58.5312540446623331
 20
199.474743386740812
 30
0.0000000000000142
 40
19.5000000000000391
  0
CIRCLE
  5
E1A
  8
0
  6
VERDECKT
 62
     1
 10
58.5312540446622975
 20
199.4747433867406983
 30
0.0000000000000142
 40
24.3932873081808914
  0
CIRCLE
  5
E1B
  8
0
  6
VERDECKT
 62
     1
 10
58.5312540446622975
 20
199.4747433867406983
 30
0.0000000000000142
 40
25.8875793553185112
  0
CIRCLE
  5
E1C
  8
0
  6
VERDECKT
 62
     1
 10
58.5312540446623188
 20
199.474743386740812
 30
0.0000000000000124
 40
24.0074442146850089
  0
CIRCLE
  5
E1D
  8
0
  6
VERDECKT
 62
     1
 10
58.5312540446623331
 20
199.474743386740812
 30
0.0000000000000142
 40
16.0
  0
CIRCLE
  5
E1E
  8
0
  6
VERDECKT
 62
     1
 10
58.5312540446623188
 20
199.474743386740812
 30
0.0000000000000124
 40
24.2567058537528091
  0
CIRCLE
  5
E1F
  8
0
  6
VERDECKT
 62
     1
 10
58.5312540446623331
 20
199.474743386740812
 30
0.0000000000000142
 40
18.5000000000000604
  0
CIRCLE
  5
E20
  8
0
  6
VERDECKT
 62
     1
 10
58.5312540446623331
 20
199.474743386740812
 30
0.0000000000000142
 40
17.9999999999999609
  0
ENDBLK
  5
E22
  8
0
  0
BLOCK
  8
0
  2
A$C86D29D2E
 70
     0
 10
0.0
 20
0.0
 30
0.0
  3
A$C86D29D2E
  1

  0
LINE
  5
E26
  8
0
 10
84.4188333999808265
 20
-77.5000000000000142
 30
0.0000000000000172
 11
32.6436746893438112
 21
-77.5000000000000142
 31
0.0000000000000172
210
0.0
220
1.0
230
-0.0000000000000002
  0
LINE
  5
E27
  8
0
 10
84.0312540446623188
 20
7.5000000000000302
 30
-0.0000000000000017
 11
33.0312540446623188
 21
7.5000000000000302
 31
-0.0000000000000017
210
0.0
220
1.0
230
-0.0000000000000002
  0
LINE
  5
E28
  8
0
 10
32.6436746893438112
 20
-77.5000000000000142
 30
0.0000000000000172
 11
32.0559885070659831
 21
-70.7827161989544464
 31
0.0000000000000157
210
0.0
220
1.0
230
-0.0000000000000002
  0
LINE
  5
E29
  8
0
 10
84.4188333999808265
 20
-77.5000000000000142
 30
0.0000000000000172
 11
85.0065195822586617
 21
-70.7827161989544464
 31
0.0000000000000157
210
0.0
220
1.0
230
-0.0000000000000002
  0
ARC
  5
E2A
  8
0
 10
-78.5312540446637115
 20
-70.2162038710948622
 30
0.0
 40
6.4999999999986073
210
0.0
220
-0.0000000000000002
230
-1.0
 50
179.9999999999982094
 51
184.9999999999992895
  0
ARC
  5
E2B
  8
0
 10
-38.5312540446609404
 20
-70.2162038710946916
 30
0.0
 40
6.4999999999986198
210
0.0
220
-0.0000000000000002
230
-1.0
 50
354.9999999999990905
 51
0.0000000000002544
  0
LINE
  5
E2C
  8
0
 10
32.0312540446623188
 20
-70.2162038710946632
 30
0.0000000000000156
 11
32.0312540446623188
 21
-2.82419153728577
 31
0.0000000000000006
210
0.0
220
1.0
230
-0.0000000000000002
  0
LINE
  5
E2D
  8
0
 10
85.0312540446623046
 20
-70.2162038710946632
 30
0.0000000000000156
 11
85.0312540446623046
 21
-2.82419153728577
 31
0.0000000000000006
210
0.0
220
1.0
230
-0.0000000000000002
  0
ARC
  5
E2E
  8
0
 10
-78.5312540446602299
 20
-2.8241915372858899
 30
0.0
 40
6.5000000000020881
210
0.0
220
-0.0000000000000002
230
-1.0
 50
174.2894068625012096
 51
179.9999999999988916
  0
ARC
  5
E2F
  8
0
 10
-38.5312540446643865
 20
-2.8241915372858899
 30
0.0
 40
6.500000000002073
210
0.0
220
-0.0000000000000002
230
-1.0
 50
0.0000000000010559
 51
5.7105931374988321
  0
LINE
  5
E30
  8
0
 10
84.0312540446623188
 20
7.5000000000000293
 30
-0.0000000000000017
 11
84.9989957810272472
 21
-2.1774173636492842
 31
0.0000000000000005
210
0.0
220
1.0
230
-0.0000000000000002
  0
LINE
  5
E31
  8
0
 10
33.0312540446623188
 20
7.5000000000000293
 30
-0.0000000000000017
 11
32.0635123082973905
 21
-2.1774173636492842
 31
0.0000000000000005
210
0.0
220
1.0
230
-0.0000000000000002
  0
LINE
  5
E32
  8
0
 10
33.5312540446623473
 20
8.1689647316224825
 30
-0.0000000000000018
 11
83.5312540446622904
 21
8.1689647316224825
 31
-0.0000000000000018
210
0.0
220
1.0
230
-0.0000000000000002
  0
LINE
  5
E33
  8
0
 10
40.4298884696461585
 20
77.4999999999995879
 30
-0.0000000000000172
 11
76.632619619678465
 21
77.4999999999995879
 31
-0.0000000000000172
210
0.0
220
1.0
230
-0.0000000000000002
  0
ARC
  5
E34
  8
0
 10
-37.5312540446623473
 20
49.1773480451885803
 30
0.0
 40
4.9999999999999609
210
0.0
220
-0.0000000000000002
230
-1.0
 50
147.7957724960274959
 51
180.0
  0
ARC
  5
E35
  8
0
 10
-79.5312540446622904
 20
49.1773480451885732
 30
0.0
 40
4.9999999999999707
210
0.0
220
-0.0000000000000002
230
-1.0
 50
0.0
 51
32.2042275039725396
  0
LINE
  5
E36
  8
0
 10
74.5312540446623188
 20
49.1773480451885732
 30
-0.0000000000000109
 11
74.5312540446623188
 21
20.4713807630048805
 31
-0.0000000000000045
210
0.0
220
1.0
230
-0.0000000000000002
  0
LINE
  5
E37
  8
0
 10
42.5312540446623117
 20
49.1773480451885732
 30
-0.0000000000000109
 11
42.5312540446623117
 21
20.4713807630048805
 31
-0.0000000000000045
210
0.0
220
1.0
230
-0.0000000000000002
  0
ARC
  5
E38
  8
0
 10
-36.5312540446622478
 20
20.4713807630049089
 30
0.0
 40
6.0000000000000711
210
0.0
220
-0.0000000000000002
230
-1.0
 50
180.0000000000001137
 51
221.9872124958160953
  0
ARC
  5
E39
  8
0
 10
-80.5312540446623899
 20
20.4713807630048983
 30
0.0
 40
6.0000000000000702
210
0.0
220
-0.0000000000000002
230
-1.0
 50
318.012787504183791
 51
359.9999999999997158
  0
LINE
  5
E3A
  8
0
 10
76.0714891671793225
 20
16.4575923732701987
 30
-0.0000000000000037
 11
83.5312540446622904
 21
8.1689647316224896
 31
-0.0000000000000018
210
0.0
220
1.0
230
-0.0000000000000002
  0
LINE
  5
E3B
  8
0
 10
40.9910189221453081
 20
16.4575923732701987
 30
-0.0000000000000037
 11
33.5312540446623402
 21
8.1689647316224896
 31
-0.0000000000000018
210
0.0
220
1.0
230
-0.0000000000000002
  0
LINE
  5
E3C
  8
0
 10
34.2745481909095133
 20
7.5000000000000302
 30
-0.0000000000000017
 11
33.5312540446623473
 21
8.1689647316224825
 31
-0.0000000000000018
210
0.0
220
1.0
230
-0.0000000000000002
  0
LINE
  5
E3D
  8
0
 10
82.7879598984151244
 20
7.5000000000000302
 30
-0.0000000000000017
 11
83.5312540446622904
 21
8.1689647316224825
 31
-0.0000000000000018
210
0.0
220
1.0
230
-0.0000000000000002
  0
ARC
  5
E3E
  8
0
 10
-55.0312540446620702
 20
70.9578196795915801
 30
0.0
 40
15.9999999999998099
210
0.0
220
-0.0000000000000002
230
-1.0
 50
0.0
 51
24.1348912076252518
  0
ARC
  5
E3F
  8
0
 10
-62.0312540446627096
 20
70.9578196795915943
 30
0.0
 40
15.9999999999996607
210
0.0
220
-0.0000000000000002
230
-1.0
 50
155.865108792374599
 51
180.0
  0
LINE
  5
E40
  8
0
 10
39.0313840200846371
 20
67.5990000000002027
 30
-0.000000000000015
 11
39.0312540446622904
 21
70.9578196795915659
 31
-0.0000000000000158
210
0.0
220
1.0
230
-0.0000000000000002
  0
LINE
  5
E41
  8
0
 10
78.0311240692399934
 20
67.5990000000002027
 30
-0.000000000000015
 11
78.0312540446623473
 21
70.9578196795915659
 31
-0.0000000000000158
210
0.0
220
1.0
230
-0.0000000000000002
  0
ARC
  5
E42
  8
0
 10
-54.0312540446635623
 20
67.5990000000003306
 30
0.0
 40
14.9998700245789305
210
0.0
220
-0.0000000000000002
230
-1.0
 50
337.6692614761383879
 51
359.9999999999994884
  0
ARC
  5
E43
  8
0
 10
-63.031254044661182
 20
67.5990000000003164
 30
0.0
 40
14.9998700245788292
210
0.0
220
-0.0000000000000002
230
-1.0
 50
180.0000000000003979
 51
202.3307385238616973
  0
ARC
  5
E44
  8
0
 10
-35.5312540446621909
 20
59.9999999999998508
 30
0.0
 40
5.000000000000175
210
0.0
220
-0.0000000000000002
230
-1.0
 50
157.66926147613691
 51
179.9999999999978115
  0
ARC
  5
E45
  8
0
 10
-81.531254044662262
 20
59.9999999999999005
 30
0.0
 40
4.9999999999999849
210
0.0
220
-0.0000000000000002
230
-1.0
 50
0.0000000000016284
 51
22.3307385238634097
  0
LINE
  5
E46
  8
0
 10
76.5312540446622762
 20
60.0000000000000426
 30
-0.0000000000000133
 11
76.5312540446622762
 21
56.1055512754639807
 31
-0.0000000000000125
210
0.0
220
1.0
230
-0.0000000000000002
  0
LINE
  5
E47
  8
0
 10
40.5312540446623615
 20
60.0000000000000426
 30
-0.0000000000000133
 11
40.5312540446623615
 21
56.1055512754639807
 31
-0.0000000000000125
210
0.0
220
1.0
230
-0.0000000000000002
  0
ARC
  5
E48
  8
0
 10
-48.5312540446622833
 20
56.1055512754640375
 30
0.0
 40
7.9999999999999369
210
0.0
220
-0.0000000000000002
230
-1.0
 50
327.795772496028178
 51
359.9999999999996021
  0
ARC
  5
E49
  8
0
 10
-68.5312540446623331
 20
56.1055512754640375
 30
0.0
 40
7.9999999999999574
210
0.0
220
-0.0000000000000002
230
-1.0
 50
180.0000000000003979
 51
212.2042275039717083
  0
LINE
  5
E4A
  8
0
  6
VERDECKT
 62
     1
 10
82.9245413528432067
 20
-77.3692663858785181
 30
0.0000000000000172
 11
34.137966736481431
 21
-77.3692663858785181
 31
0.0000000000000172
210
0.0
220
1.0
230
-0.0000000000000002
  0
LINE
  5
E4B
  8
0
  6
VERDECKT
 62
     1
 10
82.5386982593473277
 20
7.350744421468506
 30
-0.0000000000000016
 11
34.52380982997731
 21
7.350744421468506
 31
-0.0000000000000016
210
0.0
220
1.0
230
-0.0000000000000002
  0
LINE
  5
E4C
  8
0
  6
VERDECKT
 62
     1
 10
33.5312540446623188
 20
-70.2162038710946916
 30
0.0000000000000156
 11
33.5312540446623188
 21
-2.82419153728577
 31
0.0000000000000006
210
0.0
220
1.0
230
-0.0000000000000002
  0
LINE
  5
E4D
  8
0
  6
VERDECKT
 62
     1
 10
83.5312540446623046
 20
-70.2162038710946916
 30
0.0000000000000156
 11
83.5312540446623046
 21
-2.82419153728577
 31
0.0000000000000006
210
0.0
220
1.0
230
-0.0000000000000002
  0
ARC
  5
E4E
  8
0
  6
VERDECKT
 62
     1
 10
-78.5312540446620346
 20
-70.2162038710948053
 30
0.0
 40
5.0000000000002549
210
0.0
220
-0.0000000000000002
230
-1.0
 50
179.9999999999986073
 51
184.9999999999984936
  0
ARC
  5
E4F
  8
0
  6
VERDECKT
 62
     1
 10
-38.5312540446626031
 20
-70.2162038710946348
 30
0.0
 40
5.0000000000002842
210
0.0
220
-0.0000000000000002
230
-1.0
 50
354.9999999999994884
 51
359.9999999999993179
  0
LINE
  5
E50
  8
0
  6
VERDECKT
 62
     1
 10
34.137966736481431
 20
-77.3692663858785181
 30
0.0000000000000172
 11
33.5502805542036029
 21
-70.651982584832993
 31
0.0000000000000157
210
0.0
220
1.0
230
-0.0000000000000002
  0
LINE
  5
E51
  8
0
  6
VERDECKT
 62
     1
 10
82.9245413528432067
 20
-77.3692663858785039
 30
0.0000000000000172
 11
83.5122275351210561
 21
-70.651982584832993
 31
0.0000000000000157
210
0.0
220
1.0
230
-0.0000000000000002
  0
LINE
  5
E52
  8
0
  6
VERDECKT
 62
     1
 10
82.9245413528432067
 20
-77.3692663858785181
 30
0.0000000000000172
 11
84.4188333999808265
 21
-77.5000000000000142
 31
0.0000000000000172
210
0.0
220
1.0
230
-0.0000000000000002
  0
LINE
  5
E53
  8
0
  6
VERDECKT
 62
     1
 10
34.137966736481431
 20
-77.3692663858785181
 30
0.0000000000000172
 11
32.6436746893438112
 21
-77.5000000000000142
 31
0.0000000000000172
210
0.0
220
1.0
230
-0.0000000000000002
  0
LINE
  5
E54
  8
0
  6
VERDECKT
 62
     1
 10
34.52380982997731
 20
7.3507444214685211
 30
-0.0000000000000016
 11
33.0312540446623188
 21
7.5000000000000444
 31
-0.0000000000000017
210
0.0
220
1.0
230
-0.0000000000000002
  0
LINE
  5
E55
  8
0
  6
VERDECKT
 62
     1
 10
82.5386982593473277
 20
7.350744421468522
 30
-0.0000000000000016
 11
84.0312540446623188
 21
7.5000000000000453
 31
-0.0000000000000017
210
0.0
220
1.0
230
-0.0000000000000002
  0
LINE
  5
E56
  8
0
  6
VERDECKT
 62
     1
 10
82.5386982593473277
 20
7.3507444214685069
 30
-0.0000000000000016
 11
83.5064399957122561
 21
-2.326672942180779
 31
0.0000000000000005
210
0.0
220
1.0
230
-0.0000000000000002
  0
LINE
  5
E57
  8
0
  6
VERDECKT
 62
     1
 10
34.5238098299773171
 20
7.3507444214685069
 30
-0.0000000000000016
 11
33.5560680936123674
 21
-2.326672942180779
 31
0.0000000000000005
210
0.0
220
1.0
230
-0.0000000000000002
  0
ARC
  5
E58
  8
0
  6
VERDECKT
 62
     1
 10
-78.5312540446584535
 20
-2.824191537286048
 30
0.0
 40
5.000000000003852
210
0.0
220
-0.0000000000000002
230
-1.0
 50
174.2894068625016075
 51
179.9999999999967883
  0
ARC
  5
E59
  8
0
  6
VERDECKT
 62
     1
 10
-38.5312540446632781
 20
-2.8241915372858339
 30
0.0
 40
5.0000000000009592
210
0.0
220
-0.0000000000000002
230
-1.0
 50
0.0000000000007379
 51
5.7105931374992522
  0
LINE
  5
E5A
  8
0
  6
VERDECKT
 62
     1
 10
41.3424738180846418
 20
77.0911137299741398
 30
-0.0000000000000171
 11
75.7200342712399959
 21
77.0911137299741398
 31
-0.0000000000000171
210
0.0
220
1.0
230
-0.0000000000000002
  0
LINE
  5
E5B
  8
0
  6
VERDECKT
 62
     1
 10
75.3281950209321707
 20
15.78862764164775
 30
-0.0000000000000035
 11
82.7879598984151244
 21
7.5000000000000373
 31
-0.0000000000000017
210
0.0
220
1.0
230
-0.0000000000000002
  0
LINE
  5
E5C
  8
0
  6
VERDECKT
 62
     1
 10
41.734313068392467
 20
15.78862764164775
 30
-0.0000000000000035
 11
34.2745481909095133
 21
7.5000000000000373
 31
-0.0000000000000017
210
0.0
220
1.0
230
-0.0000000000000002
  0
ARC
  5
E5D
  8
0
  6
VERDECKT
 62
     1
 10
-36.5312540446624823
 20
20.4713807630048201
 30
0.0
 40
6.9999999999998286
210
0.0
220
-0.0000000000000002
230
-1.0
 50
180.0000000000001137
 51
221.98721249581709
  0
ARC
  5
E5E
  8
0
  6
VERDECKT
 62
     1
 10
-80.5312540446621767
 20
20.4713807630048308
 30
0.0
 40
6.9999999999998561
210
0.0
220
-0.0000000000000002
230
-1.0
 50
318.0127875041828815
 51
359.9999999999996021
  0
LINE
  5
E5F
  8
0
  6
VERDECKT
 62
     1
 10
73.5312540446623188
 20
49.1773480451885732
 30
-0.0000000000000109
 11
73.5312540446623188
 21
20.4713807630047917
 31
-0.0000000000000045
210
0.0
220
1.0
230
-0.0000000000000002
  0
LINE
  5
E60
  8
0
  6
VERDECKT
 62
     1
 10
43.5312540446623188
 20
49.1773480451885732
 30
-0.0000000000000109
 11
43.5312540446623188
 21
20.4713807630047917
 31
-0.0000000000000045
210
0.0
220
1.0
230
-0.0000000000000002
  0
ARC
  5
E61
  8
0
  6
VERDECKT
 62
     1
 10
-37.5312540446631004
 20
49.1773480451888503
 30
0.0
 40
5.9999999999992228
210
0.0
220
-0.0000000000000002
230
-1.0
 50
147.7957724960278938
 51
180.0000000000025864
  0
ARC
  5
E62
  8
0
  6
VERDECKT
 62
     1
 10
-79.5312540446615941
 20
49.177348045188829
 30
0.0
 40
5.9999999999992752
210
0.0
220
-0.0000000000000002
230
-1.0
 50
359.9999999999973284
 51
32.2042275039719215
  0
ARC
  5
E63
  8
0
  6
VERDECKT
 62
     1
 10
-48.5312540446624325
 20
56.1055512754641228
 30
0.0
 40
7.0000000000001066
210
0.0
220
-0.0000000000000002
230
-1.0
 50
327.7957724960268138
 51
359.9999999999992042
  0
ARC
  5
E64
  8
0
  6
VERDECKT
 62
     1
 10
-68.5312540446622904
 20
56.1055512754640802
 30
0.0
 40
7.0000000000000142
210
0.0
220
-0.0000000000000002
230
-1.0
 50
180.0000000000003979
 51
212.2042275039734136
  0
LINE
  5
E65
  8
0
  6
VERDECKT
 62
     1
 10
75.5312540446623188
 20
60.0000000000000426
 30
-0.0000000000000133
 11
75.5312540446623188
 21
56.1055512754640375
 31
-0.0000000000000125
210
0.0
220
1.0
230
-0.0000000000000002
  0
LINE
  5
E66
  8
0
  6
VERDECKT
 62
     1
 10
41.5312540446623188
 20
60.0000000000000426
 30
-0.0000000000000133
 11
41.5312540446623188
 21
56.1055512754640375
 31
-0.0000000000000125
210
0.0
220
1.0
230
-0.0000000000000002
  0
ARC
  5
E67
  8
0
  6
VERDECKT
 62
     1
 10
-35.5312540446613809
 20
59.9999999999997797
 30
0.0
 40
6.0000000000009379
210
0.0
220
-0.0000000000000002
230
-1.0
 50
157.6692614761369953
 51
179.9999999999974989
  0
ARC
  5
E68
  8
0
  6
VERDECKT
 62
     1
 10
-81.5312540446632852
 20
59.9999999999997726
 30
0.0
 40
6.0000000000009663
210
0.0
220
-0.0000000000000002
230
-1.0
 50
0.000000000002519
 51
22.3307385238629408
  0
ARC
  5
E69
  8
0
  6
VERDECKT
 62
     1
 10
-54.0312540446622904
 20
67.5990000000000748
 30
0.0
 40
13.9998700245776799
210
0.0
220
-0.0000000000000002
230
-1.0
 50
337.6692614761383879
 51
359.9999999999997726
  0
ARC
  5
E6A
  8
0
  6
VERDECKT
 62
     1
 10
-63.0312540446622265
 20
67.5990000000000748
 30
0.0
 40
13.9998700245778007
210
0.0
220
-0.0000000000000002
230
-1.0
 50
180.0000000000001137
 51
202.3307385238614131
  0
LINE
  5
E6B
  8
0
  6
VERDECKT
 62
     1
 10
40.0313840200846016
 20
67.5990000000000322
 30
-0.000000000000015
 11
40.031254044662262
 21
70.9578196795915659
 31
-0.0000000000000158
210
0.0
220
1.0
230
-0.0000000000000002
  0
LINE
  5
E6C
  8
0
  6
VERDECKT
 62
     1
 10
77.0311240692400361
 20
67.5990000000000322
 30
-0.000000000000015
 11
77.0312540446623757
 21
70.9578196795915659
 31
-0.0000000000000158
210
0.0
220
1.0
230
-0.0000000000000002
  0
ARC
  5
E6D
  8
0
  6
VERDECKT
 62
     1
 10
-55.0312540446622123
 20
70.9578196795916085
 30
0.0
 40
14.9999999999999503
210
0.0
220
-0.0000000000000002
230
-1.0
 50
359.9999999999997726
 51
24.1348912076250812
  0
ARC
  5
E6E
  8
0
  6
VERDECKT
 62
     1
 10
-62.0312540446624396
 20
70.9578196795916085
 30
0.0
 40
14.9999999999999307
210
0.0
220
-0.0000000000000002
230
-1.0
 50
155.8651087923749117
 51
180.0000000000001137
  0
LINE
  5
E6F
  8
0
  6
VERDECKT
 62
     1
 10
41.3424738180846632
 20
77.091113729974154
 30
-0.0000000000000171
 11
40.4298884696461585
 21
77.4999999999996021
 31
-0.0000000000000172
210
0.0
220
1.0
230
-0.0000000000000002
  0
LINE
  5
E70
  8
0
  6
VERDECKT
 62
     1
 10
75.7200342712399674
 20
77.091113729974154
 30
-0.0000000000000171
 11
76.632619619678465
 21
77.4999999999996021
 31
-0.0000000000000172
210
0.0
220
1.0
230
-0.0000000000000002
  0
ENDBLK
  5
E72
  8
0
  0
ENDSEC
  0
SECTION
  2
ENTITIES
  0
TEXT
  5
8F
  8
VOLL
 10
78.076754716981128
 20
31.025947764705851
 30
0.0
 40
1.8
  1

  7
GREEKS
  0
INSERT
  5
AAE
  8
ADSK_ASSOC_ENTITY_BACKUPS
  2
*S4
 10
0.0
 20
0.0
 30
0.0
  0
INSERT
  5
E23
  8
STEMPEL
  2
A$CD543138C
 10
88.5359597714397637
 20
-129.3600887887361921
 30
-10.0918345815073192
  0
INSERT
  5
E73
  8
STEMPEL
  2
A$C86D29D2E
 10
88.5359597714397637
 20
197.5303542549042106
 30
-10.0918345815073298
  0
VIEWPORT
  5
928
 67
     1
  8
0
 10
132.9149431972508069
 20
148.0377308158412006
 30
0.0
 40
854.0144493722364132
 41
478.3850993141269896
 68
     1
 69
     1
1001
ACAD
1000
MVIEW
1002
{
1070
    16
1010
0.0
1020
0.0
1030
0.0
1010
0.0
1020
0.0
1030
1.0
1040
0.0
1040
478.3850993141269896
1040
132.9149431972508069
1040
148.0377308158412006
1040
50.0
1040
0.0
1040
0.0
1070
     0
1070
  1500
1070
     1
1070
     1
1070
     0
1070
     0
1070
     0
1070
     0
1040
0.0
1040
0.0
1040
0.0
1040
10.0
1040
10.0
1040
10.0
1040
10.0
1070
     0
1002
{
1002
}
1002
}
  0
ENDSEC
  0
EOF
