  0
SECTION
  2
HEADER
  9
$ACADVER
  1
AC1009
  9
$INSBASE
 10
0.0
 20
0.0
 30
0.0
  9
$EXTMIN
 10
-0.0242813233960533
 20
-0.0090630292066862
 30
-0.0020138419249633
  9
$EXTMAX
 10
43.2604790692080314
 20
212.2179571357764871
 30
0.0141764081110978
  9
$LIMMIN
 10
0.0
 20
0.0
  9
$LIMMAX
 10
210.0
 20
297.0
  9
$ORTHOMODE
 70
     1
  9
$REGENMODE
 70
     1
  9
$FILLMODE
 70
     1
  9
$QTEXTMODE
 70
     0
  9
$MIRRTEXT
 70
     1
  9
$DRAGMODE
 70
     2
  9
$LTSCALE
 40
10.0
  9
$OSMODE
 70
    39
  9
$ATTMODE
 70
     1
  9
$TEXTSIZE
 40
3.5
  9
$TRACEWID
 40
0.5
  9
$TEXTSTYLE
  7
STANDARD
  9
$CLAYER
  8
DEFPOINTS
  9
$CELTYPE
  6
BYLAYER
  9
$CECOLOR
 62
   256
  9
$DIMSCALE
 40
1.0
  9
$DIMASZ
 40
3.5
  9
$DIMEXO
 40
1.0
  9
$DIMDLI
 40
7.0
  9
$DIMRND
 40
0.0
  9
$DIMDLE
 40
0.0
  9
$DIMEXE
 40
1.0
  9
$DIMTP
 40
0.0
  9
$DIMTM
 40
0.0
  9
$DIMTXT
 40
3.5
  9
$DIMCEN
 40
1.5
  9
$DIMTSZ
 40
0.0
  9
$DIMTOL
 70
     0
  9
$DIMLIM
 70
     0
  9
$DIMTIH
 70
     0
  9
$DIMTOH
 70
     0
  9
$DIMSE1
 70
     0
  9
$DIMSE2
 70
     0
  9
$DIMTAD
 70
     1
  9
$DIMZIN
 70
     8
  9
$DIMBLK
  1

  9
$DIMASO
 70
     1
  9
$DIMSHO
 70
     0
  9
$DIMPOST
  1

  9
$DIMAPOST
  1

  9
$DIMALT
 70
     0
  9
$DIMALTD
 70
     2
  9
$DIMALTF
 40
25.3999999999999986
  9
$DIMLFAC
 40
1.0
  9
$DIMTOFL
 70
     1
  9
$DIMTVP
 40
0.0
  9
$DIMTIX
 70
     0
  9
$DIMSOXD
 70
     0
  9
$DIMSAH
 70
     0
  9
$DIMBLK1
  1

  9
$DIMBLK2
  1

  9
$DIMSTYLE
  2
STANDARD
  9
$DIMCLRD
 70
     0
  9
$DIMCLRE
 70
     0
  9
$DIMCLRT
 70
     1
  9
$DIMTFAC
 40
0.5
  9
$DIMGAP
 40
1.5
  9
$LUNITS
 70
     2
  9
$LUPREC
 70
     2
  9
$SKETCHINC
 40
1.0
  9
$FILLETRAD
 40
0.0
  9
$AUNITS
 70
     0
  9
$AUPREC
 70
     0
  9
$MENU
  1
ACAD
  9
$ELEVATION
 40
0.0
  9
$PELEVATION
 40
0.0
  9
$THICKNESS
 40
0.0
  9
$LIMCHECK
 70
     0
  9
$BLIPMODE
 70
     0
  9
$CHAMFERA
 40
0.0
  9
$CHAMFERB
 40
0.0
  9
$SKPOLY
 70
     0
  9
$TDCREATE
 40
2455397.8646990740671754
  9
$TDUPDATE
 40
2458418.3460069438442588
  9
$TDINDWG
 40
0.0470563773
  9
$TDUSRTIMER
 40
0.0470563773
  9
$USRTIMER
 70
     1
  9
$ANGBASE
 50
0.0
  9
$ANGDIR
 70
     0
  9
$PDMODE
 70
     0
  9
$PDSIZE
 40
0.0
  9
$PLINEWID
 40
0.0
  9
$COORDS
 70
     1
  9
$SPLFRAME
 70
     0
  9
$SPLINETYPE
 70
     6
  9
$SPLINESEGS
 70
     8
  9
$ATTDIA
 70
     1
  9
$ATTREQ
 70
     1
  9
$HANDLING
 70
     1
  9
$HANDSEED
  5
992
  9
$SURFTAB1
 70
     6
  9
$SURFTAB2
 70
     6
  9
$SURFTYPE
 70
     6
  9
$SURFU
 70
     6
  9
$SURFV
 70
     6
  9
$UCSNAME
  2

  9
$UCSORG
 10
0.0
 20
0.0
 30
0.0
  9
$UCSXDIR
 10
1.0
 20
0.0
 30
0.0
  9
$UCSYDIR
 10
0.0
 20
1.0
 30
0.0
  9
$PUCSNAME
  2

  9
$PUCSORG
 10
0.0
 20
0.0
 30
0.0
  9
$PUCSXDIR
 10
1.0
 20
0.0
 30
0.0
  9
$PUCSYDIR
 10
0.0
 20
1.0
 30
0.0
  9
$USERI1
 70
     0
  9
$USERI2
 70
     0
  9
$USERI3
 70
     0
  9
$USERI4
 70
     0
  9
$USERI5
 70
     0
  9
$USERR1
 40
0.0
  9
$USERR2
 40
0.0
  9
$USERR3
 40
0.0
  9
$USERR4
 40
0.0
  9
$USERR5
 40
0.0
  9
$WORLDVIEW
 70
     1
  9
$SHADEDGE
 70
     3
  9
$SHADEDIF
 70
    70
  9
$TILEMODE
 70
     1
  9
$MAXACTVP
 70
    16
  9
$PLIMCHECK
 70
     0
  9
$PEXTMIN
 10
-0.215927339412616
 20
-0.2192483838341666
 30
-0.0000000000000058
  9
$PEXTMAX
 10
9.3278346574390874
 20
13.3675479678023503
 30
0.0000000000000104
  9
$PLIMMIN
 10
-0.2500002402958907
 20
-0.2499999962453767
  9
$PLIMMAX
 10
10.7499995194082203
 20
8.2499997634587334
  9
$UNITMODE
 70
     0
  9
$VISRETAIN
 70
     0
  9
$PLINEGEN
 70
     0
  9
$PSLTSCALE
 70
     0
  0
ENDSEC
  0
SECTION
  2
TABLES
  0
TABLE
  2
VPORT
 70
     1
  0
VPORT
  2
*ACTIVE
 70
     0
 10
0.0
 20
0.0
 11
1.0
 21
1.0
 12
21.6180988729059891
 22
106.1044470532849004
 13
0.0
 23
0.0
 14
1.0
 24
1.0
 15
10.0
 25
10.0
 16
-0.0000000000000012
 26
0.0
 36
5.5852494427615751
 17
0.0
 27
0.0
 37
0.0
 40
213.9225755857420097
 41
2.0800000000000001
 42
50.0
 43
0.0
 44
0.0
 50
0.0
 51
0.0
 71
     0
 72
  1500
 73
     1
 74
     0
 75
     0
 76
     0
 77
     0
 78
     0
  0
ENDTAB
  0
TABLE
  2
LTYPE
 70
     2
  0
LTYPE
  2
CONTINUOUS
 70
     0
  3
Solid line
 72
    65
 73
     0
 40
0.0
  0
LTYPE
  2
VERDECKT
 70
     0
  3
Verdeckt __ __ __ __ __ __ __ __ __ __ __ __ __
 72
    65
 73
     2
 40
0.375
 49
0.25
 49
-0.125
  0
ENDTAB
  0
TABLE
  2
LAYER
 70
     3
  0
LAYER
  2
0
 70
     0
 62
     7
  6
CONTINUOUS
  0
LAYER
  2
DEFPOINTS
 70
     0
 62
     7
  6
CONTINUOUS
  0
LAYER
  2
VOLL
 70
     0
 62
     1
  6
CONTINUOUS
  0
ENDTAB
  0
TABLE
  2
STYLE
 70
     3
  0
STYLE
  2
STANDARD
 70
     0
 40
0.0
 41
0.8
 50
0.0
 71
     0
 42
3.5
  3
simplex.shx
  4

  0
STYLE
  2
ANNOTATIVE
 70
     0
 40
0.0
 41
1.0
 50
0.0
 71
     0
 42
0.2
  3
txt
  4

  0
STYLE
  2
GREEKS
 70
     0
 40
0.0
 41
0.8
 50
0.0
 71
     0
 42
2.5
  3
SIMPLEX.shx
  4

  0
ENDTAB
  0
TABLE
  2
VIEW
 70
     0
  0
ENDTAB
  0
TABLE
  2
UCS
 70
     0
  0
ENDTAB
  0
TABLE
  2
APPID
 70
    12
  0
APPID
  2
ACAD
 70
     0
  0
APPID
  2
ACADANNOTATIVE
 70
     0
  0
APPID
  2
ACAECLAYERSTANDARD
 70
     0
  0
APPID
  2
ACCMTRANSPARENCY
 70
     0
  0
APPID
  2
ACAD_STEPID
 70
     0
  0
APPID
  2
ACAD_ASSOCPERSSUBENTMANAGER
 70
     0
  0
APPID
  2
ACAD_NAV_VCDISPLAY
 70
     0
  0
APPID
  2
ACAD_PSEXT
 70
     0
  0
APPID
  2
ACAD_MLEADERVER
 70
     0
  0
APPID
  2
ACAD_OBJECT_CHANGE_GUID
 70
     0
  0
APPID
  2
ACAD_EXEMPT_FROM_CAD_STANDARDS
 70
     0
  0
APPID
  2
ACADANNOMONITORALERTICONDI
 70
     0
  0
ENDTAB
  0
TABLE
  2
DIMSTYLE
 70
     2
  0
DIMSTYLE
  2
STANDARD
 70
     0
  3

  4

  5

  6

  7

 40
1.0
 41
0.18
 42
0.0625
 43
0.38
 44
0.18
 45
0.0
 46
0.0
 47
0.0
 48
0.0
140
0.18
141
0.09
142
0.0
143
25.3999999999999986
144
1.0
145
0.0
146
1.0
147
0.09
 71
     0
 72
     0
 73
     1
 74
     1
 75
     0
 76
     0
 77
     0
 78
     0
170
     0
171
     2
172
     0
173
     0
174
     0
175
     0
176
     0
177
     0
178
     0
  0
DIMSTYLE
  2
ANNOTATIVE
 70
     0
  3

  4

  5

  6

  7

 40
1.0
 41
0.18
 42
0.0625
 43
0.38
 44
0.18
 45
0.0
 46
0.0
 47
0.0
 48
0.0
140
0.18
141
0.09
142
0.0
143
25.3999999999999986
144
1.0
145
0.0
146
1.0
147
0.09
 71
     0
 72
     0
 73
     1
 74
     1
 75
     0
 76
     0
 77
     0
 78
     0
170
     0
171
     2
172
     0
173
     0
174
     0
175
     0
176
     0
177
     0
178
     0
  0
ENDTAB
  0
ENDSEC
  0
SECTION
  2
BLOCKS
  0
BLOCK
  8
0
  2
$MODEL_SPACE
 70
     0
 10
0.0
 20
0.0
 30
0.0
  3
$MODEL_SPACE
  1

  0
ENDBLK
  5
909
  8
0
  0
BLOCK
 67
     1
  8
0
  2
$PAPER_SPACE
 70
     0
 10
0.0
 20
0.0
 30
0.0
  3
$PAPER_SPACE
  1

  0
ENDBLK
  5
905
 67
     1
  8
0
  0
BLOCK
  8
0
  2
A$C2C1424EB
 70
     0
 10
0.0
 20
0.0
 30
0.0
  3
A$C2C1424EB
  1

  0
LINE
  5
7F4
  8
0
  6
CONTINUOUS
 62
     3
 10
288.588081464471486
 20
184.0551705327243042
 30
0.0
 11
324.7908126145038068
 21
184.0551705327243042
 31
0.0
210
0.0
220
1.0
230
0.0
  0
LINE
  5
7F5
  8
0
  6
CONTINUOUS
 62
     3
 10
290.689447039487618
 20
131.0551705327243042
 30
0.0
 11
322.689447039487618
 21
131.0551705327243042
 31
0.0
210
0.0
220
1.0
230
0.0
  0
ARC
  5
7F6
  8
0
  6
CONTINUOUS
 62
     3
 10
-303.1894470394889822
 20
177.5129902123154011
 30
0.0
 40
16.0000000000015916
210
0.0
220
0.0
230
-1.0
 50
359.9955656571426061
 51
24.1348912076257704
  0
ARC
  5
7F7
  8
0
  6
CONTINUOUS
 62
     3
 10
-310.1894470394864243
 20
177.5129902123154011
 30
0.0
 40
16.0000000000015916
210
0.0
220
0.0
230
-1.0
 50
155.8651087923742011
 51
180.0044343428573939
  0
LINE
  5
7F8
  8
0
  6
CONTINUOUS
 62
     3
 10
287.189577014910185
 20
174.1541705283418082
 30
0.0
 11
287.1894470874058811
 21
177.511751910188309
 31
0.0
210
0.0
220
1.0
230
0.0
  0
LINE
  5
7F9
  8
0
  6
CONTINUOUS
 62
     3
 10
326.1893170640651078
 20
174.1541705283418082
 30
0.0
 11
326.1894469915694117
 21
177.511751910188309
 31
0.0
210
0.0
220
1.0
230
0.0
  0
ARC
  5
7FA
  8
0
  6
CONTINUOUS
 62
     3
 10
-302.1894470394871064
 20
174.1541705327234126
 30
0.0
 40
14.9998700245769108
210
0.0
220
0.0
230
-1.0
 50
337.6692614761399795
 51
359.9999999832627964
  0
ARC
  5
7FB
  8
0
  6
CONTINUOUS
 62
     3
 10
-311.1894470394880159
 20
174.1541705327234126
 30
0.0
 40
14.9998700245770298
210
0.0
220
0.0
230
-1.0
 50
180.0000000167370047
 51
202.330738523859992
  0
ARC
  5
7FC
  8
0
  6
CONTINUOUS
 62
     3
 10
-283.6894470394883001
 20
166.5551705327243042
 30
0.0
 40
4.9999999999993179
210
0.0
220
0.0
230
-1.0
 50
157.6692614761348921
 51
180.0000000000015916
  0
ARC
  5
7FD
  8
0
  6
CONTINUOUS
 62
     3
 10
-329.6894470394868222
 20
166.5551705327243042
 30
0.0
 40
4.9999999999993161
210
0.0
220
0.0
230
-1.0
 50
359.9999999999984084
 51
22.3307385238650902
  0
LINE
  5
7FE
  8
0
  6
CONTINUOUS
 62
     3
 10
324.689447039487618
 20
166.5551705327241052
 30
0.0
 11
324.689447039487618
 21
162.6607218081884128
 31
0.0
210
0.0
220
1.0
230
0.0
  0
LINE
  5
7FF
  8
0
  6
CONTINUOUS
 62
     3
 10
288.689447039487618
 20
166.5551705327241052
 30
0.0
 11
288.689447039487618
 21
162.6607218081884128
 31
0.0
210
0.0
220
1.0
230
0.0
  0
ARC
  5
800
  8
0
  6
CONTINUOUS
 62
     3
 10
-296.6894470394872769
 20
162.6607218081882991
 30
0.0
 40
7.9999999999997122
210
0.0
220
0.0
230
-1.0
 50
327.7957724960273822
 51
0.0000000000008142
  0
ARC
  5
801
  8
0
  6
CONTINUOUS
 62
     3
 10
-316.6894470394880159
 20
162.6607218081882991
 30
0.0
 40
7.999999999999714
210
0.0
220
0.0
230
-1.0
 50
179.9999999999992042
 51
212.2042275039725041
  0
ARC
  5
802
  8
0
  6
CONTINUOUS
 62
     3
 10
-285.6894470394883001
 20
155.7325185779131118
 30
0.0
 40
4.9999999999993694
210
0.0
220
0.0
230
-1.0
 50
147.7957724960261032
 51
180.0000000000023022
  0
ARC
  5
803
  8
0
  6
CONTINUOUS
 62
     3
 10
-327.6894470394869927
 20
155.7325185779131118
 30
0.0
 40
4.9999999999993729
210
0.0
220
0.0
230
-1.0
 50
359.9999999999976126
 51
32.2042275039738897
  0
LINE
  5
804
  8
0
  6
CONTINUOUS
 62
     3
 10
322.689447039487618
 20
155.7325185779129129
 30
0.0
 11
322.689447039487618
 21
131.0551705327243042
 31
0.0
210
0.0
220
1.0
230
0.0
  0
LINE
  5
805
  8
0
  6
CONTINUOUS
 62
     3
 10
290.689447039487618
 20
155.7325185779129129
 30
0.0
 11
290.689447039487618
 21
131.0551705327243042
 31
0.0
210
0.0
220
1.0
230
0.0
  0
LINE
  5
806
  8
0
  6
CONTINUOUS
 62
     3
 10
290.689447039487618
 20
131.0551705327243042
 30
0.0
 11
322.689447039487618
 21
131.0551705327243042
 31
0.0
210
0.0
220
1.0
230
0.0
  0
LINE
  5
807
  8
0
  6
CONTINUOUS
 62
     3
 10
286.3018676841689967
 20
56.0551705327243184
 30
0.0
 11
327.0770263948061825
 21
56.0551705327243184
 31
0.0
210
0.0
220
1.0
230
0.0
  0
LINE
  5
808
  8
0
  6
CONTINUOUS
 62
     3
 10
322.689447039487618
 20
131.0551705327243042
 30
0.0
 11
326.1993148091414128
 21
126.1413556552089972
 31
0.0
210
0.0
220
1.0
230
0.0
  0
LINE
  5
809
  8
0
  6
CONTINUOUS
 62
     3
 10
290.689447039487618
 20
131.0551705327243042
 30
0.0
 11
287.1795792698338801
 21
126.1413556552089972
 31
0.0
210
0.0
220
1.0
230
0.0
  0
ARC
  5
80A
  8
0
  6
CONTINUOUS
 62
     3
 10
-293.6894470394880159
 20
121.4914501054559963
 30
0.0
 40
8.0000000000002274
210
0.0
220
0.0
230
-1.0
 50
0.0000000000008142
 51
35.5376777919759093
  0
ARC
  5
80B
  8
0
  6
CONTINUOUS
 62
     3
 10
-319.6894470394873906
 20
121.4914501054559963
 30
0.0
 40
8.0000000000002238
210
0.0
220
0.0
230
-1.0
 50
144.4623222080240055
 51
179.9999999999992042
  0
LINE
  5
80C
  8
0
  6
CONTINUOUS
 62
     3
 10
327.689447039487618
 20
121.4914501054560958
 30
0.0
 11
327.689447039487618
 21
63.0551705327243184
 31
0.0
210
0.0
220
1.0
230
0.0
  0
LINE
  5
80D
  8
0
  6
CONTINUOUS
 62
     3
 10
285.689447039487618
 20
121.4914501054560958
 30
0.0
 11
285.689447039487618
 21
63.0551705327243184
 31
0.0
210
0.0
220
1.0
230
0.0
  0
LINE
  5
80E
  8
0
  6
CONTINUOUS
 62
     3
 10
286.3018676841689967
 20
56.0551705327243184
 30
0.0
 11
285.689447039487618
 21
63.0551705327243184
 31
0.0
210
0.0
220
1.0
230
0.0
  0
LINE
  5
80F
  8
0
  6
CONTINUOUS
 62
     3
 10
327.0770263948061825
 20
56.0551705327243184
 30
0.0
 11
327.689447039487618
 21
63.0551705327243184
 31
0.0
210
0.0
220
1.0
230
0.0
  0
LINE
  5
810
  8
0
  6
VERDECKT
 62
     1
 10
321.689447039487618
 20
155.7325185779127992
 30
0.0
 11
321.689447039487618
 21
131.0551705327243042
 31
0.0
210
0.0
220
1.0
230
0.0
  0
LINE
  5
811
  8
0
  6
VERDECKT
 62
     1
 10
291.689447039487618
 20
155.7325185779127992
 30
0.0
 11
291.689447039487618
 21
131.0551705327243042
 31
0.0
210
0.0
220
1.0
230
0.0
  0
ARC
  5
812
  8
0
  6
VERDECKT
 62
     1
 10
-285.6894470394875043
 20
155.7325185779127992
 30
0.0
 40
6.0000000000000471
210
0.0
220
0.0
230
-1.0
 50
147.7957724960274959
 51
179.9999999999992042
  0
ARC
  5
813
  8
0
  6
VERDECKT
 62
     1
 10
-327.6894470394876748
 20
155.7325185779127992
 30
0.0
 40
6.0000000000001119
210
0.0
220
0.0
230
-1.0
 50
0.0000000000008142
 51
32.2042275039725112
  0
ARC
  5
814
  8
0
  6
VERDECKT
 62
     1
 10
-296.6894470394880159
 20
162.6607218081884128
 30
0.0
 40
7.000000000000397
210
0.0
220
0.0
230
-1.0
 50
327.7957724960297128
 51
359.9999999999992042
  0
ARC
  5
815
  8
0
  6
VERDECKT
 62
     1
 10
-316.6894470394872201
 20
162.6607218081884128
 30
0.0
 40
7.000000000000397
210
0.0
220
0.0
230
-1.0
 50
180.0000000000007958
 51
212.204227503970202
  0
LINE
  5
816
  8
0
  6
VERDECKT
 62
     1
 10
323.689447039487618
 20
166.5551705327241905
 30
0.0
 11
323.689447039487618
 21
162.6607218081884128
 31
0.0
210
0.0
220
1.0
230
0.0
  0
LINE
  5
817
  8
0
  6
VERDECKT
 62
     1
 10
289.689447039487618
 20
166.5551705327241905
 30
0.0
 11
289.689447039487618
 21
162.6607218081884128
 31
0.0
210
0.0
220
1.0
230
0.0
  0
ARC
  5
818
  8
0
  6
VERDECKT
 62
     1
 10
-283.6894470394885275
 20
166.5551705327243894
 30
0.0
 40
5.9999999999990941
210
0.0
220
0.0
230
-1.0
 50
157.6692614761348921
 51
180.0000000000023022
  0
ARC
  5
819
  8
0
  6
VERDECKT
 62
     1
 10
-329.6894470394868222
 20
166.5551705327243894
 30
0.0
 40
5.9999999999992042
210
0.0
220
0.0
230
-1.0
 50
359.9999999999976126
 51
22.3307385238650902
  0
ARC
  5
81A
  8
0
  6
VERDECKT
 62
     1
 10
-302.1894470394860264
 20
174.1541705327240948
 30
0.0
 40
13.9998700245762304
210
0.0
220
0.0
230
-1.0
 50
337.6692614761365121
 51
359.9999999653255145
  0
ARC
  5
81B
  8
0
  6
VERDECKT
 62
     1
 10
-311.1894470394890959
 20
174.1541705327240948
 30
0.0
 40
13.9998700245762393
210
0.0
220
0.0
230
-1.0
 50
180.0000000346744002
 51
202.3307385238636016
  0
LINE
  5
81C
  8
0
  6
VERDECKT
 62
     1
 10
288.1895770149100144
 20
174.1541705242516116
 30
0.0
 11
288.1894470844106877
 21
177.5118293120908106
 31
0.0
210
0.0
220
1.0
230
0.0
  0
LINE
  5
81D
  8
0
  6
VERDECKT
 62
     1
 10
325.1893170640652784
 20
174.1541705242516116
 30
0.0
 11
325.1894469945646051
 21
177.5118293120908106
 31
0.0
210
0.0
220
1.0
230
0.0
  0
ARC
  5
81E
  8
0
  6
VERDECKT
 62
     1
 10
-303.1894470394881864
 20
177.512990212315998
 30
0.0
 40
15.0000000000004192
210
0.0
220
0.0
230
-1.0
 50
359.9955656877727961
 51
25.8581969917409786
  0
ARC
  5
81F
  8
0
  6
VERDECKT
 62
     1
 10
-310.1894470394871064
 20
177.512990212315998
 30
0.0
 40
15.0000000000004796
210
0.0
220
0.0
230
-1.0
 50
154.1418030082589041
 51
180.0044343122272039
  0
LINE
  5
820
  8
0
  6
VERDECKT
 62
     1
 10
287.8075974404840736
 20
56.0551705327243184
 30
0.0
 11
287.189447039487618
 21
63.1206619470868375
 31
0.0
210
0.0
220
1.0
230
0.0
  0
LINE
  5
821
  8
0
  6
VERDECKT
 62
     1
 10
325.5712966384912193
 20
56.0551705327243184
 30
0.0
 11
326.189447039487618
 21
63.1206619470868375
 31
0.0
210
0.0
220
1.0
230
0.0
  0
LINE
  5
822
  8
0
  6
VERDECKT
 62
     1
 10
326.189447039487618
 20
121.4914501054560958
 30
0.0
 11
326.189447039487618
 21
63.1206619470868375
 31
0.0
210
0.0
220
1.0
230
0.0
  0
LINE
  5
823
  8
0
  6
VERDECKT
 62
     1
 10
287.189447039487618
 20
121.4914501054560958
 30
0.0
 11
287.189447039487618
 21
63.1206619470868375
 31
0.0
210
0.0
220
1.0
230
0.0
  0
ARC
  5
824
  8
0
  6
VERDECKT
 62
     1
 10
-293.6894470394880159
 20
121.4914501054559963
 30
0.0
 40
6.5000000000003411
210
0.0
220
0.0
230
-1.0
 50
0.0000000000008142
 51
35.5376777919752271
  0
ARC
  5
825
  8
0
  6
VERDECKT
 62
     1
 10
-319.6894470394872769
 20
121.4914501054559963
 30
0.0
 40
6.5000000000003411
210
0.0
220
0.0
230
-1.0
 50
144.4623222080246876
 51
179.9999999999992042
  0
LINE
  5
826
  8
0
  6
VERDECKT
 62
     1
 10
320.846091625121403
 20
131.0551705327243042
 30
0.0
 11
324.9787146023311948
 21
125.2694983646303939
 31
0.0
210
0.0
220
1.0
230
0.0
  0
LINE
  5
827
  8
0
  6
VERDECKT
 62
     1
 10
292.5328024538537193
 20
131.0551705327243042
 30
0.0
 11
288.4001794766439275
 21
125.2694983646303939
 31
0.0
210
0.0
220
1.0
230
0.0
  0
ENDBLK
  5
829
  8
0
  0
BLOCK
  8
0
  2
A$C075525D6
 70
     0
 10
0.0
 20
0.0
 30
0.0
  3
A$C075525D6
  1

  0
CIRCLE
  5
82D
  8
0
  6
CONTINUOUS
 62
     3
 10
412.3809537839654809
 20
137.0136501740948063
 30
0.0
 40
18.1013655750161284
  0
CIRCLE
  5
82E
  8
0
  6
CONTINUOUS
 62
     3
 10
412.3809537839654809
 20
137.0136501740948063
 30
0.0
 40
15.0
  0
CIRCLE
  5
82F
  8
0
  6
CONTINUOUS
 62
     3
 10
412.3809537839654809
 20
137.0136501740948063
 30
0.0
 40
16.9981434521663388
  0
CIRCLE
  5
830
  8
0
  6
CONTINUOUS
 62
     3
 10
412.3809537839654809
 20
137.0136501740948063
 30
0.0
 40
19.5000000000002416
  0
CIRCLE
  5
831
  8
0
  6
CONTINUOUS
 62
     3
 10
412.3809537839654809
 20
137.0136501740948063
 30
0.0
 40
20.9999999999999396
  0
CIRCLE
  5
832
  8
0
  6
CONTINUOUS
 62
     3
 10
412.3809537839654809
 20
137.0136501740948063
 30
0.0
 40
14.1566445856337797
  0
CIRCLE
  5
833
  8
0
  6
VERDECKT
 62
     1
 10
412.3809537839654809
 20
137.0136501740948063
 30
0.0
 40
18.0
  0
CIRCLE
  5
834
  8
0
  6
VERDECKT
 62
     1
 10
412.3809537839654809
 20
137.0136501740948063
 30
0.0
 40
16.0
  0
CIRCLE
  5
835
  8
0
  6
VERDECKT
 62
     1
 10
412.3809537839654809
 20
137.0136501740948063
 30
0.0
 40
17.0
  0
CIRCLE
  5
836
  8
0
  6
VERDECKT
 62
     1
 10
412.3809537839654809
 20
137.0136501740948063
 30
0.0
 40
18.4999999999999005
  0
CIRCLE
  5
837
  8
0
  6
VERDECKT
 62
     1
 10
412.3809537839654809
 20
137.0136501740948063
 30
0.0
 40
20.3875793553185609
  0
CIRCLE
  5
838
  8
0
  6
VERDECKT
 62
     1
 10
412.3809537839654809
 20
137.0136501740948063
 30
0.0
 40
18.8818495990034911
  0
ENDBLK
  5
83A
  8
0
  0
ENDSEC
  0
SECTION
  2
ENTITIES
  0
TEXT
  5
8F
  8
VOLL
 10
78.076754716981128
 20
31.025947764705851
 30
0.0
 40
1.8
  1

  7
GREEKS
  0
INSERT
  5
939
  8
DEFPOINTS
  2
A$C2C1424EB
 10
-285.6894463830163886
 20
28.1569129144630494
 30
0.0
  0
INSERT
  5
93A
  8
DEFPOINTS
  2
A$C075525D6
 10
-391.3809531274940809
 20
-116.0136498529182063
 30
0.0
  0
VIEWPORT
  5
4E3
 67
     1
  8
0
 10
3.60439014289924
 20
4.7611010370736251
 30
0.0
 40
45.0317941066367098
 41
21.9047683946066805
 68
     1
 69
     1
1001
ACAD
1000
MVIEW
1002
{
1070
    16
1010
0.0
1020
0.0
1030
0.0
1010
0.0
1020
0.0
1030
1.0
1040
0.0
1040
21.9047683946066805
1040
3.60439014289924
1040
4.7611010370736251
1040
50.0
1040
0.0
1040
0.0
1070
     0
1070
  1500
1070
     1
1070
     1
1070
     0
1070
     0
1070
     0
1070
     0
1040
0.0
1040
0.0
1040
0.0
1040
10.0
1040
10.0
1040
10.0
1040
10.0
1070
     0
1002
{
1002
}
1002
}
  0
ENDSEC
  0
EOF
