  0
SECTION
  2
HEADER
  9
$ACADVER
  1
AC1009
  9
$INSBASE
 10
0.0
 20
0.0
 30
0.0
  9
$EXTMIN
 10
-0.0486199842716815
 20
-0.0181260584133725
 30
-0.0440843873234371
  9
$EXTMAX
 10
221.6754226417060067
 20
660.3645644485537787
 30
0.0062947132951194
  9
$LIMMIN
 10
0.0
 20
0.0
  9
$LIMMAX
 10
419.9999999999998863
 20
594.0
  9
$ORTHOMODE
 70
     1
  9
$REGENMODE
 70
     1
  9
$FILLMODE
 70
     1
  9
$QTEXTMODE
 70
     0
  9
$MIRRTEXT
 70
     1
  9
$DRAGMODE
 70
     2
  9
$LTSCALE
 40
20.0
  9
$OSMODE
 70
    39
  9
$ATTMODE
 70
     1
  9
$TEXTSIZE
 40
3.5
  9
$TRACEWID
 40
0.5
  9
$TEXTSTYLE
  7
STANDARD
  9
$CLAYER
  8
DEFPOINTS
  9
$CELTYPE
  6
BYLAYER
  9
$CECOLOR
 62
   256
  9
$DIMSCALE
 40
2.0
  9
$DIMASZ
 40
3.5
  9
$DIMEXO
 40
1.0
  9
$DIMDLI
 40
7.0
  9
$DIMRND
 40
0.0
  9
$DIMDLE
 40
0.0
  9
$DIMEXE
 40
1.0
  9
$DIMTP
 40
0.0
  9
$DIMTM
 40
0.0
  9
$DIMTXT
 40
3.5
  9
$DIMCEN
 40
1.5
  9
$DIMTSZ
 40
0.0
  9
$DIMTOL
 70
     0
  9
$DIMLIM
 70
     0
  9
$DIMTIH
 70
     0
  9
$DIMTOH
 70
     0
  9
$DIMSE1
 70
     0
  9
$DIMSE2
 70
     0
  9
$DIMTAD
 70
     1
  9
$DIMZIN
 70
     8
  9
$DIMBLK
  1

  9
$DIMASO
 70
     1
  9
$DIMSHO
 70
     0
  9
$DIMPOST
  1

  9
$DIMAPOST
  1

  9
$DIMALT
 70
     0
  9
$DIMALTD
 70
     2
  9
$DIMALTF
 40
25.3999999999999986
  9
$DIMLFAC
 40
1.0
  9
$DIMTOFL
 70
     1
  9
$DIMTVP
 40
0.0
  9
$DIMTIX
 70
     0
  9
$DIMSOXD
 70
     0
  9
$DIMSAH
 70
     0
  9
$DIMBLK1
  1

  9
$DIMBLK2
  1

  9
$DIMSTYLE
  2
STANDARD
  9
$DIMCLRD
 70
     0
  9
$DIMCLRE
 70
     0
  9
$DIMCLRT
 70
     1
  9
$DIMTFAC
 40
0.5142857142857143
  9
$DIMGAP
 40
1.5
  9
$LUNITS
 70
     2
  9
$LUPREC
 70
     2
  9
$SKETCHINC
 40
1.0
  9
$FILLETRAD
 40
0.0
  9
$AUNITS
 70
     0
  9
$AUPREC
 70
     0
  9
$MENU
  1
ACAD
  9
$ELEVATION
 40
0.0
  9
$PELEVATION
 40
0.0
  9
$THICKNESS
 40
0.0
  9
$LIMCHECK
 70
     0
  9
$BLIPMODE
 70
     0
  9
$CHAMFERA
 40
0.0
  9
$CHAMFERB
 40
0.0
  9
$SKPOLY
 70
     0
  9
$TDCREATE
 40
2455397.8646990740671754
  9
$TDUPDATE
 40
2458418.3455208339728415
  9
$TDINDWG
 40
0.1897329745
  9
$TDUSRTIMER
 40
0.1897329745
  9
$USRTIMER
 70
     1
  9
$ANGBASE
 50
0.0
  9
$ANGDIR
 70
     0
  9
$PDMODE
 70
     0
  9
$PDSIZE
 40
0.0
  9
$PLINEWID
 40
0.0
  9
$COORDS
 70
     1
  9
$SPLFRAME
 70
     0
  9
$SPLINETYPE
 70
     6
  9
$SPLINESEGS
 70
     8
  9
$ATTDIA
 70
     1
  9
$ATTREQ
 70
     1
  9
$HANDLING
 70
     1
  9
$HANDSEED
  5
362C
  9
$SURFTAB1
 70
     6
  9
$SURFTAB2
 70
     6
  9
$SURFTYPE
 70
     6
  9
$SURFU
 70
     6
  9
$SURFV
 70
     6
  9
$UCSNAME
  2

  9
$UCSORG
 10
0.0
 20
0.0
 30
0.0
  9
$UCSXDIR
 10
1.0
 20
0.0
 30
0.0
  9
$UCSYDIR
 10
0.0
 20
1.0
 30
0.0
  9
$PUCSNAME
  2

  9
$PUCSORG
 10
0.0
 20
0.0
 30
0.0
  9
$PUCSXDIR
 10
1.0
 20
0.0
 30
0.0
  9
$PUCSYDIR
 10
0.0
 20
1.0
 30
0.0
  9
$USERI1
 70
     0
  9
$USERI2
 70
     0
  9
$USERI3
 70
     0
  9
$USERI4
 70
     0
  9
$USERI5
 70
     0
  9
$USERR1
 40
0.0
  9
$USERR2
 40
0.0
  9
$USERR3
 40
0.0
  9
$USERR4
 40
0.0
  9
$USERR5
 40
0.0
  9
$WORLDVIEW
 70
     1
  9
$SHADEDGE
 70
     3
  9
$SHADEDIF
 70
    70
  9
$TILEMODE
 70
     1
  9
$MAXACTVP
 70
    16
  9
$PLIMCHECK
 70
     0
  9
$PEXTMIN
 10
-0.2282593532205119
 20
-0.242234111620867
 30
-0.0015258207003583
  9
$PEXTMAX
 10
14.2893062931993899
 20
20.0959521584469805
 30
0.0000000349246037
  9
$PLIMMIN
 10
-0.2500002402958907
 20
-0.2499999962453767
  9
$PLIMMAX
 10
10.7499995194082203
 20
8.2499997634587334
  9
$UNITMODE
 70
     0
  9
$VISRETAIN
 70
     0
  9
$PLINEGEN
 70
     0
  9
$PSLTSCALE
 70
     0
  0
ENDSEC
  0
SECTION
  2
TABLES
  0
TABLE
  2
VPORT
 70
     1
  0
VPORT
  2
*ACTIVE
 70
     0
 10
0.0
 20
0.0
 11
1.0
 21
1.0
 12
110.8134013287172053
 22
330.1732191950702031
 13
0.0
 23
0.0
 14
1.0
 24
1.0
 15
10.0
 25
10.0
 16
-0.0000000000000012
 26
0.0
 36
5.5852494427615742
 17
0.0
 27
0.0
 37
0.0
 40
665.6587173285940935
 41
2.0800000000000001
 42
50.0
 43
0.0
 44
0.0
 50
0.0
 51
0.0
 71
     0
 72
  1500
 73
     1
 74
     0
 75
     0
 76
     0
 77
     0
 78
     0
  0
ENDTAB
  0
TABLE
  2
LTYPE
 70
     3
  0
LTYPE
  2
CONTINUOUS
 70
     0
  3
Solid line
 72
    65
 73
     0
 40
0.0
  0
LTYPE
  2
AUSGEZOGEN
 70
     0
  3
Ausgezogene Linie
 72
    65
 73
     0
 40
0.0
  0
LTYPE
  2
VERDECKT
 70
     0
  3
Verdeckt __ __ __ __ __ __ __ __ __ __ __ __ __
 72
    65
 73
     2
 40
0.375
 49
0.25
 49
-0.125
  0
ENDTAB
  0
TABLE
  2
LAYER
 70
     4
  0
LAYER
  2
0
 70
     0
 62
     7
  6
CONTINUOUS
  0
LAYER
  2
DEFPOINTS
 70
     0
 62
     7
  6
AUSGEZOGEN
  0
LAYER
  2
VOLL
 70
     0
 62
     1
  6
CONTINUOUS
  0
LAYER
  2
TEXT
 70
     0
 62
     7
  6
CONTINUOUS
  0
ENDTAB
  0
TABLE
  2
STYLE
 70
     3
  0
STYLE
  2
STANDARD
 70
     0
 40
0.0
 41
0.8
 50
0.0
 71
     0
 42
3.5
  3
simplex.shx
  4

  0
STYLE
  2
ANNOTATIVE
 70
     0
 40
0.0
 41
1.0
 50
0.0
 71
     0
 42
0.2
  3
txt
  4

  0
STYLE
  2
GREEKS
 70
     0
 40
0.0
 41
0.8
 50
0.0
 71
     0
 42
2.5
  3
SIMPLEX.shx
  4

  0
ENDTAB
  0
TABLE
  2
VIEW
 70
     0
  0
ENDTAB
  0
TABLE
  2
UCS
 70
     0
  0
ENDTAB
  0
TABLE
  2
APPID
 70
    11
  0
APPID
  2
ACAD
 70
     0
  0
APPID
  2
ACADANNOTATIVE
 70
     0
  0
APPID
  2
ACAD_NAV_VCDISPLAY
 70
     0
  0
APPID
  2
ACAD_PSEXT
 70
     0
  0
APPID
  2
ACAD_EXEMPT_FROM_CAD_STANDARDS
 70
     0
  0
APPID
  2
ACAD_MLEADERVER
 70
     0
  0
APPID
  2
ACAD_DSTYLE_DIMJAG
 70
     0
  0
APPID
  2
ACAD_DSTYLE_DIMTALN
 70
     0
  0
APPID
  2
ACAECLAYERSTANDARD
 70
     0
  0
APPID
  2
ACCMTRANSPARENCY
 70
     0
  0
APPID
  2
ACAD_OBJECT_CHANGE_GUID
 70
     0
  0
ENDTAB
  0
TABLE
  2
DIMSTYLE
 70
     2
  0
DIMSTYLE
  2
STANDARD
 70
     0
  3

  4

  5

  6

  7

 40
1.0
 41
0.18
 42
0.0625
 43
0.38
 44
0.18
 45
0.0
 46
0.0
 47
0.0
 48
0.0
140
0.18
141
0.09
142
0.0
143
25.3999999999999986
144
1.0
145
0.0
146
1.0
147
0.09
 71
     0
 72
     0
 73
     1
 74
     1
 75
     0
 76
     0
 77
     0
 78
     0
170
     0
171
     2
172
     0
173
     0
174
     0
175
     0
176
     0
177
     0
178
     0
  0
DIMSTYLE
  2
ANNOTATIVE
 70
     0
  3

  4

  5

  6

  7

 40
1.0
 41
0.18
 42
0.0625
 43
0.38
 44
0.18
 45
0.0
 46
0.0
 47
0.0
 48
0.0
140
0.18
141
0.09
142
0.0
143
25.3999999999999986
144
1.0
145
0.0
146
1.0
147
0.09
 71
     0
 72
     0
 73
     1
 74
     1
 75
     0
 76
     0
 77
     0
 78
     0
170
     0
171
     2
172
     0
173
     0
174
     0
175
     0
176
     0
177
     0
178
     0
  0
ENDTAB
  0
ENDSEC
  0
SECTION
  2
BLOCKS
  0
BLOCK
  8
0
  2
$MODEL_SPACE
 70
     0
 10
0.0
 20
0.0
 30
0.0
  3
$MODEL_SPACE
  1

  0
ENDBLK
  5
359A
  8
0
  0
BLOCK
 67
     1
  8
0
  2
$PAPER_SPACE
 70
     0
 10
0.0
 20
0.0
 30
0.0
  3
$PAPER_SPACE
  1

  0
ENDBLK
  5
3596
 67
     1
  8
0
  0
BLOCK
  8
0
  2
A$C61F47ABC
 70
     0
 10
0.0
 20
0.0
 30
0.0
  3
A$C61F47ABC
  1

  0
LINE
  5
3472
  8
0
  6
CONTINUOUS
 62
     3
 10
641.6794022144981682
 20
-85.2409309373088035
 30
0.0
 11
821.6794022144979408
 21
-85.2409309373088035
 31
0.0
210
0.0
220
1.0
230
0.0
  0
LINE
  5
3473
  8
0
  6
CONTINUOUS
 62
     3
 10
623.9291754850162306
 20
-280.2409309373089172
 30
0.0
 11
839.429628943979651
 21
-280.2409309373089172
 31
0.0
210
0.0
220
1.0
230
0.0
  0
LINE
  5
3474
  8
0
  6
CONTINUOUS
 62
     3
 10
821.6794022144979408
 20
-85.2409309373088035
 30
0.0
 11
837.9938343359070814
 21
-108.8800393025047981
 31
0.0
210
0.0
220
1.0
230
0.0
  0
LINE
  5
3475
  8
0
  6
CONTINUOUS
 62
     3
 10
641.6794022144981682
 20
-85.2409309373088035
 30
0.0
 11
625.3649700930891413
 21
-108.8800393025047981
 31
0.0
210
0.0
220
1.0
230
0.0
  0
ARC
  5
3476
  8
0
  6
CONTINUOUS
 62
     3
 10
-640.1794022144977134
 20
-119.1041578914180974
 30
0.0
 40
17.9999999999995417
210
0.0
220
0.0
230
-1.0
 50
0.0
 51
34.6113357475142678
  0
ARC
  5
3477
  8
0
  6
CONTINUOUS
 62
     3
 10
-823.1794022144985092
 20
-119.1041578914180974
 30
0.0
 40
17.9999999999996412
210
0.0
220
0.0
230
-1.0
 50
145.388664252486393
 51
180.0
  0
LINE
  5
3478
  8
0
  6
CONTINUOUS
 62
     3
 10
841.1794022144979408
 20
-119.1041578914180974
 30
0.0
 11
841.1794022144979408
 21
-260.2409309373089172
 31
0.0
210
0.0
220
1.0
230
0.0
  0
LINE
  5
3479
  8
0
  6
CONTINUOUS
 62
     3
 10
622.1794022144980545
 20
-119.1041578914180974
 30
0.0
 11
622.1794022144980545
 21
-260.2409309373089172
 31
0.0
210
0.0
220
1.0
230
0.0
  0
LINE
  5
347A
  8
0
  6
CONTINUOUS
 62
     3
 10
623.9291754850162306
 20
-280.2409309373089172
 30
0.0
 11
622.1794022144980545
 21
-260.2409309373089172
 31
0.0
210
0.0
220
1.0
230
0.0
  0
LINE
  5
347B
  8
0
  6
CONTINUOUS
 62
     3
 10
839.429628943979651
 20
-280.2409309373089172
 30
0.0
 11
841.1794022144979408
 21
-260.2409309373089172
 31
0.0
210
0.0
220
1.0
230
0.0
  0
LINE
  5
347C
  8
0
  6
CONTINUOUS
 62
     3
 10
644.9209574170920405
 20
59.7590690626911325
 30
0.0
 11
818.4378470119041822
 21
59.7590690626911325
 31
0.0
210
0.0
220
1.0
230
0.0
  0
LINE
  5
347D
  8
0
  6
CONTINUOUS
 62
     3
 10
818.4378470119041822
 20
59.7590690626910828
 30
0.0
 11
818.9001747607801462
 21
58.7676040056827631
 31
0.0
210
0.0
220
1.0
230
0.0
  0
LINE
  5
347E
  8
0
  6
CONTINUOUS
 62
     3
 10
644.9209574170920405
 20
59.7590690626911467
 30
0.0
 11
644.4586296682158491
 21
58.7676040056828271
 31
0.0
210
0.0
220
1.0
230
0.0
  0
ARC
  5
347F
  8
0
  6
CONTINUOUS
 62
     3
 10
-676.1794022144978271
 20
43.9759648447572076
 30
0.0
 40
34.9999999999997726
210
0.0
220
0.0
230
-1.0
 50
0.0
 51
25.0000000000022595
  0
ARC
  5
3480
  8
0
  6
CONTINUOUS
 62
     3
 10
-787.1794022144980545
 20
43.975964844757101
 30
0.0
 40
35.0000000000000995
210
0.0
220
0.0
230
-1.0
 50
154.9999999999976978
 51
180.0
  0
LINE
  5
3481
  8
0
  6
CONTINUOUS
 62
     3
 10
822.1794022144985092
 20
43.9759648447570584
 30
0.0
 11
822.1794022144985092
 21
27.8116745915468186
 31
0.0
210
0.0
220
1.0
230
0.0
  0
LINE
  5
3482
  8
0
  6
CONTINUOUS
 62
     3
 10
641.1794022144978271
 20
43.9759648447572431
 30
0.0
 11
641.1794022144978271
 21
27.8116745915469288
 31
0.0
210
0.0
220
1.0
230
0.0
  0
ARC
  5
3483
  8
0
  6
CONTINUOUS
 62
     3
 10
-676.1794022144940755
 20
27.7540690626901494
 30
0.0
 40
35.0000474056353781
210
0.0
220
0.0
230
-1.0
 50
332.472816379446499
 51
0.0943014485666473
  0
ARC
  5
3484
  8
0
  6
CONTINUOUS
 62
     3
 10
-787.1794022145022609
 20
27.7540690626900215
 30
0.0
 40
35.000047405635172
210
0.0
220
0.0
230
-1.0
 50
179.9056985514332041
 51
207.527183620553302
  0
ARC
  5
3485
  8
0
  6
CONTINUOUS
 62
     3
 10
-629.1794022144962355
 20
3.2590690626905712
 30
0.0
 40
18.0000000000017017
210
0.0
220
0.0
230
-1.0
 50
152.4728163794480054
 51
179.9999999999992042
  0
ARC
  5
3486
  8
0
  6
CONTINUOUS
 62
     3
 10
-834.1794022144996461
 20
3.2590690626904419
 30
0.0
 40
18.0000000000017017
210
0.0
220
0.0
230
-1.0
 50
0.0000000000008142
 51
27.5271836205519413
  0
LINE
  5
3487
  8
0
  6
CONTINUOUS
 62
     3
 10
816.1794022144979408
 20
3.2590690626907981
 30
0.0
 11
816.1794022144979408
 21
-11.7999594292419303
 31
0.0
210
0.0
220
1.0
230
0.0
  0
LINE
  5
3488
  8
0
  6
CONTINUOUS
 62
     3
 10
647.1794022144980545
 20
3.2590690626909109
 30
0.0
 11
647.1794022144980545
 21
-11.7999594292418202
 31
0.0
210
0.0
220
1.0
230
0.0
  0
ARC
  5
3489
  8
0
  6
CONTINUOUS
 62
     3
 10
-665.1794022144982819
 20
-11.7999594292417598
 30
0.0
 40
18.0000000000001315
210
0.0
220
0.0
230
-1.0
 50
325.2280559680510805
 51
0.0
  0
ARC
  5
348A
  8
0
  6
CONTINUOUS
 62
     3
 10
-798.1794022144979408
 20
-11.7999594292418806
 30
0.0
 40
18.0
210
0.0
220
0.0
230
-1.0
 50
180.0
 51
214.7719440319496869
  0
ARC
  5
348B
  8
0
  6
CONTINUOUS
 62
     3
 10
-642.1794022144982819
 20
-27.76867885191281
 30
0.0
 40
9.9999999999995381
210
0.0
220
0.0
230
-1.0
 50
145.2280559680525016
 51
179.9999999999984084
  0
ARC
  5
348C
  8
0
  6
CONTINUOUS
 62
     3
 10
-821.1794022144978271
 20
-27.7686788519129415
 30
0.0
 40
9.9999999999995435
210
0.0
220
0.0
230
-1.0
 50
0.0000000000016284
 51
34.7719440319474415
  0
LINE
  5
348D
  8
0
  6
CONTINUOUS
 62
     3
 10
811.1794022144978271
 20
-27.7686788519126786
 30
0.0
 11
811.1794022144978271
 21
-67.3406352482932675
 31
0.0
210
0.0
220
1.0
230
0.0
  0
LINE
  5
348E
  8
0
  6
CONTINUOUS
 62
     3
 10
652.1794022144980545
 20
-27.7686788519125685
 30
0.0
 11
652.1794022144980545
 21
-67.3406352482931396
 31
0.0
210
0.0
220
1.0
230
0.0
  0
ARC
  5
348F
  8
0
  6
CONTINUOUS
 62
     3
 10
-642.1794022144985092
 20
-67.3406352482934238
 30
0.0
 40
9.9999999999995435
210
0.0
220
0.0
230
-1.0
 50
179.9999999999984084
 51
212.3474434994421927
  0
ARC
  5
3490
  8
0
  6
CONTINUOUS
 62
     3
 10
-821.1794022144974861
 20
-67.3406352482935233
 30
0.0
 40
9.9999999999995435
210
0.0
220
0.0
230
-1.0
 50
327.652556500557921
 51
0.0000000000016284
  0
LINE
  5
3491
  8
0
  6
CONTINUOUS
 62
     3
 10
812.7312114589554994
 20
-72.6911560601367626
 30
0.0
 11
820.6794022144979408
 21
-85.240930937308832
 31
0.0
210
0.0
220
1.0
230
0.0
  0
LINE
  5
3492
  8
0
  6
CONTINUOUS
 62
     3
 10
650.6275929700403822
 20
-72.6911560601366489
 30
0.0
 11
642.6794022144980545
 21
-85.2409309373087467
 31
0.0
210
0.0
220
1.0
230
0.0
  0
LINE
  5
3493
  8
0
  6
VERDECKT
 62
     1
 10
818.1558111937822559
 20
-85.2409309373087751
 30
0.0
 11
835.6070647163470539
 21
-110.5272584084963938
 31
0.0
210
0.0
220
1.0
230
0.0
  0
LINE
  5
3494
  8
0
  6
VERDECKT
 62
     1
 10
645.202993235213853
 20
-85.2409309373087751
 30
0.0
 11
627.7517397126491687
 21
-110.5272584084963938
 31
0.0
210
0.0
220
1.0
230
0.0
  0
LINE
  5
3495
  8
0
  6
VERDECKT
 62
     1
 10
626.8402530138920383
 20
-280.2409309373089172
 30
0.0
 11
625.0794022144981454
 21
-260.1143142028735724
 31
0.0
210
0.0
220
1.0
230
0.0
  0
LINE
  5
3496
  8
0
  6
VERDECKT
 62
     1
 10
836.518551415104298
 20
-280.2409309373089172
 30
0.0
 11
838.2794022144983046
 21
-260.1143142028735724
 31
0.0
210
0.0
220
1.0
230
0.0
  0
LINE
  5
3497
  8
0
  6
VERDECKT
 62
     1
 10
838.2794022144977362
 20
-119.1041578914180974
 30
0.0
 11
838.2794022144977362
 21
-260.1143142028735724
 31
0.0
210
0.0
220
1.0
230
0.0
  0
LINE
  5
3498
  8
0
  6
VERDECKT
 62
     1
 10
625.0794022144981454
 20
-119.1041578914180974
 30
0.0
 11
625.0794022144981454
 21
-260.1143142028735724
 31
0.0
210
0.0
220
1.0
230
0.0
  0
ARC
  5
3499
  8
0
  6
VERDECKT
 62
     1
 10
-640.179402214499305
 20
-119.1041578914183958
 30
0.0
 40
15.1000000000012609
210
0.0
220
0.0
230
-1.0
 50
0.0000000000016284
 51
34.6113357475113403
  0
ARC
  5
349A
  8
0
  6
VERDECKT
 62
     1
 10
-823.179402214497145
 20
-119.1041578914183958
 30
0.0
 40
15.1000000000012609
210
0.0
220
0.0
230
-1.0
 50
145.3886642524886099
 51
179.9999999999984084
  0
LINE
  5
349B
  8
0
  6
VERDECKT
 62
     1
 10
815.6794022144980545
 20
59.7590690626909904
 30
0.0
 11
816.6344052931879105
 21
57.7110583513338398
 31
0.0
210
0.0
220
1.0
230
0.0
  0
LINE
  5
349C
  8
0
  6
VERDECKT
 62
     1
 10
647.6794022144980545
 20
59.7590690626910614
 30
0.0
 11
646.7243991358084259
 21
57.7110583513338895
 31
0.0
210
0.0
220
1.0
230
0.0
  0
LINE
  5
349D
  8
0
  6
VERDECKT
 62
     1
 10
810.6191637700700312
 20
-74.0287862630976292
 30
0.0
 11
817.7201887304036063
 21
-85.2409309373089314
 31
0.0
210
0.0
220
1.0
230
0.0
  0
LINE
  5
349E
  8
0
  6
VERDECKT
 62
     1
 10
652.7396406589257367
 20
-74.0287862630975297
 30
0.0
 11
645.6386156985922753
 21
-85.2409309373088035
 31
0.0
210
0.0
220
1.0
230
0.0
  0
ARC
  5
349F
  8
0
  6
VERDECKT
 62
     1
 10
-642.1794022144964629
 20
-67.3406352482926991
 30
0.0
 40
12.5000000000014797
210
0.0
220
0.0
230
-1.0
 50
180.0000000000015916
 51
212.3474434994398905
  0
ARC
  5
34A0
  8
0
  6
VERDECKT
 62
     1
 10
-821.1794022144991914
 20
-67.3406352482928128
 30
0.0
 40
12.5000000000014602
210
0.0
220
0.0
230
-1.0
 50
327.6525565005600811
 51
359.9999999999984084
  0
LINE
  5
34A1
  8
0
  6
VERDECKT
 62
     1
 10
808.6794022144980545
 20
-27.7686788519132399
 30
0.0
 11
808.6794022144980545
 21
-67.3406352482931112
 31
0.0
210
0.0
220
1.0
230
0.0
  0
LINE
  5
34A2
  8
0
  6
VERDECKT
 62
     1
 10
654.6794022144981682
 20
-27.7686788519131404
 30
0.0
 11
654.6794022144981682
 21
-67.3406352482929833
 31
0.0
210
0.0
220
1.0
230
0.0
  0
ARC
  5
34A3
  8
0
  6
VERDECKT
 62
     1
 10
-642.1794022144964629
 20
-27.7686788519137409
 30
0.0
 40
12.5000000000015792
210
0.0
220
0.0
230
-1.0
 50
145.2280559680525016
 51
179.9999999999974136
  0
ARC
  5
34A4
  8
0
  6
VERDECKT
 62
     1
 10
-821.1794022144996461
 20
-27.7686788519138403
 30
0.0
 40
12.5000000000014797
210
0.0
220
0.0
230
-1.0
 50
0.0000000000024427
 51
34.7719440319474415
  0
ARC
  5
34A5
  8
0
  6
VERDECKT
 62
     1
 10
-665.1794022144983956
 20
-11.7999594292419001
 30
0.0
 40
15.5000000000002096
210
0.0
220
0.0
230
-1.0
 50
325.2280559680526153
 51
359.9999999999992042
  0
ARC
  5
34A6
  8
0
  6
VERDECKT
 62
     1
 10
-798.1794022144979408
 20
-11.7999594292420102
 30
0.0
 40
15.5000000000001101
210
0.0
220
0.0
230
-1.0
 50
180.0000000000007958
 51
214.7719440319474131
  0
LINE
  5
34A7
  8
0
  6
VERDECKT
 62
     1
 10
813.6794022144979408
 20
3.2590690626908541
 30
0.0
 11
813.6794022144979408
 21
-11.7999594292422696
 31
0.0
210
0.0
220
1.0
230
0.0
  0
LINE
  5
34A8
  8
0
  6
VERDECKT
 62
     1
 10
649.6794022144981682
 20
3.2590690626909682
 30
0.0
 11
649.6794022144981682
 21
-11.7999594292421595
 31
0.0
210
0.0
220
1.0
230
0.0
  0
ARC
  5
34A9
  8
0
  6
VERDECKT
 62
     1
 10
-629.1794022144962355
 20
3.2590690626905281
 30
0.0
 40
20.5000000000018083
210
0.0
220
0.0
230
-1.0
 50
152.4728163794480054
 51
179.9999999999984084
  0
ARC
  5
34AA
  8
0
  6
VERDECKT
 62
     1
 10
-834.1794022144996461
 20
3.2590690626904131
 30
0.0
 40
20.5000000000017089
210
0.0
220
0.0
230
-1.0
 50
0.0000000000016284
 51
27.5271836205519413
  0
ARC
  5
34AB
  8
0
  6
VERDECKT
 62
     1
 10
-676.1794022144923701
 20
27.7540690626894815
 30
0.0
 40
32.5000474056333601
210
0.0
220
0.0
230
-1.0
 50
332.472816379446499
 51
0.0978612346363589
  0
ARC
  5
34AC
  8
0
  6
VERDECKT
 62
     1
 10
-787.1794022145038525
 20
27.7540690626894104
 30
0.0
 40
32.5000474056333601
210
0.0
220
0.0
230
-1.0
 50
179.9021387653644126
 51
207.527183620553302
  0
LINE
  5
34AD
  8
0
  6
VERDECKT
 62
     1
 10
819.6794022144979408
 20
43.9759648447569589
 30
0.0
 11
819.6794022144979408
 21
27.8095791411886886
 31
0.0
210
0.0
220
1.0
230
0.0
  0
LINE
  5
34AE
  8
0
  6
VERDECKT
 62
     1
 10
643.6794022144980545
 20
43.9759648447570015
 30
0.0
 11
643.6794022144980545
 21
27.8095791411888094
 31
0.0
210
0.0
220
1.0
230
0.0
  0
ARC
  5
34AF
  8
0
  6
VERDECKT
 62
     1
 10
-676.1794022145018062
 20
43.975964844757101
 30
0.0
 40
32.500000000003638
210
0.0
220
0.0
230
-1.0
 50
0.0
 51
25.0000000000051585
  0
ARC
  5
34B0
  8
0
  6
VERDECKT
 62
     1
 10
-787.1794022144944165
 20
43.975964844757037
 30
0.0
 40
32.5000000000037517
210
0.0
220
0.0
230
-1.0
 50
154.9999999999947988
 51
180.0
  0
ENDBLK
  5
34B2
  8
0
  0
BLOCK
  8
0
  2
A$C301D4C8D
 70
     0
 10
0.0
 20
0.0
 30
0.0
  3
A$C301D4C8D
  1

  0
CIRCLE
  5
34B6
  8
0
  6
CONTINUOUS
 62
     3
 10
271.4033251682265018
 20
626.398881513031256
 30
0.0
 40
109.5
  0
CIRCLE
  5
34B7
  8
0
  6
CONTINUOUS
 62
     3
 10
271.4033251682265018
 20
626.398881513031256
 30
0.0
 40
84.0
  0
CIRCLE
  5
34B8
  8
0
  6
CONTINUOUS
 62
     3
 10
271.4033251682265018
 20
626.398881513031256
 30
0.0
 40
86.7584447974062272
  0
CIRCLE
  5
34B9
  8
0
  6
CONTINUOUS
 62
     3
 10
271.4033251682265018
 20
626.398881513031256
 30
0.0
 40
90.5000000000001279
  0
CIRCLE
  5
34BA
  8
0
  6
CONTINUOUS
 62
     3
 10
271.4033251682265018
 20
626.398881513031256
 30
0.0
 40
76.9999999999999289
  0
CIRCLE
  5
34BB
  8
0
  6
CONTINUOUS
 62
     3
 10
271.4033251682265018
 20
626.398881513031256
 30
0.0
 40
81.9999999999999716
  0
CIRCLE
  5
34BC
  8
0
  6
CONTINUOUS
 62
     3
 10
271.4033251682265018
 20
626.398881513031256
 30
0.0
 40
90.5000474056392363
  0
CIRCLE
  5
34BD
  8
0
  6
VERDECKT
 62
     1
 10
271.4033251682265018
 20
626.398881513031256
 30
0.0
 40
86.4764089792842015
  0
CIRCLE
  5
34BE
  8
0
  6
VERDECKT
 62
     1
 10
271.4033251682265018
 20
626.398881513031256
 30
0.0
 40
90.0
  0
CIRCLE
  5
34BF
  8
0
  6
VERDECKT
 62
     1
 10
271.4033251682265018
 20
626.398881513031256
 30
0.0
 40
107.750226729481696
  0
CIRCLE
  5
34C0
  8
0
  6
VERDECKT
 62
     1
 10
271.4033251682265018
 20
626.398881513031256
 30
0.0
 40
104.839149200606002
  0
CIRCLE
  5
34C1
  8
0
  6
VERDECKT
 62
     1
 10
271.4033251682265018
 20
626.398881513031256
 30
0.0
 40
106.5999999999999943
  0
CIRCLE
  5
34C2
  8
0
  6
VERDECKT
 62
     1
 10
271.4033251682265018
 20
626.398881513031256
 30
0.0
 40
84.4999999999999716
  0
CIRCLE
  5
34C3
  8
0
  6
VERDECKT
 62
     1
 10
271.4033251682265018
 20
626.398881513031256
 30
0.0
 40
79.5000000000000711
  0
CIRCLE
  5
34C4
  8
0
  6
VERDECKT
 62
     1
 10
271.4033251682263881
 20
626.398881513031256
 30
0.0
 40
89.0000000000000284
  0
CIRCLE
  5
34C5
  8
0
  6
VERDECKT
 62
     1
 10
271.4033251682263881
 20
626.398881513031256
 30
0.0
 40
86.0407865159056939
  0
CIRCLE
  5
34C6
  8
0
  6
VERDECKT
 62
     1
 10
271.4033251682265018
 20
626.398881513031256
 30
0.0
 40
88.0
  0
CIRCLE
  5
34C7
  8
0
  6
VERDECKT
 62
     1
 10
271.4033251682265018
 20
626.398881513031256
 30
0.0
 40
88.0000474056391511
  0
ENDBLK
  5
34C9
  8
0
  0
ENDSEC
  0
SECTION
  2
ENTITIES
  0
TEXT
  5
8F
  8
VOLL
 10
78.076754716981128
 20
31.025947764705851
 30
0.0
 40
1.8
  1

  7
GREEKS
  0
TEXT
  5
3C2
  8
TEXT
 62
     1
 10
371.1516896065722904
 20
62.216407863550991
 30
0.0
 40
7.0
  1

 41
0.8
  7
GREEKS
 72
     1
 11
371.1516896065722904
 21
62.216407863550991
 31
0.0
  0
INSERT
  5
35CD
  8
DEFPOINTS
  2
A$C61F47ABC
 10
-622.1794018168416187
 20
600.5799529035257365
 30
0.0
  0
INSERT
  5
35CE
  8
DEFPOINTS
  2
A$C301D4C8D
 10
-161.9033247705696965
 20
-516.8988823797072882
 30
0.0
  0
VIEWPORT
  5
3237
 67
     1
  8
0
 10
7.0305234699894381
 20
9.9268590234130532
 30
0.0
 40
39.5778005694894119
 41
20.4970783503027505
 68
     1
 69
     1
1001
ACAD
1000
MVIEW
1002
{
1070
    16
1010
0.0
1020
0.0
1030
0.0
1010
0.0
1020
0.0
1030
1.0
1040
0.0
1040
20.4970783503027505
1040
7.0305234699894381
1040
9.9268590234130532
1040
50.0
1040
0.0
1040
0.0
1070
     0
1070
  1500
1070
     1
1070
     1
1070
     0
1070
     0
1070
     0
1070
     0
1040
0.0
1040
0.0
1040
0.0
1040
10.0
1040
10.0
1040
10.0
1040
10.0
1070
     0
1002
{
1002
}
1002
}
  0
VIEWPORT
  5
323B
 67
     1
  8
DEFPOINTS
 10
7.0308552744281982
 20
9.9265674428831687
 30
0.0
 40
14.5160145880762599
 41
20.337450020429781
 68
     2
 69
     2
1001
ACAD
1000
MVIEW
1002
{
1070
    16
1010
871.8150960795359197
1020
319.5584304624952097
1030
-221.9088858061577128
1010
0.0
1020
0.0
1030
1.0
1040
0.0
1040
608.4799294582295488
1040
-658.9801695263918191
1040
-19.4717415688542417
1040
50.0
1040
0.0
1040
0.0
1070
     0
1070
  1500
1070
     1
1070
     0
1070
     0
1070
     0
1070
     0
1070
     0
1040
0.0
1040
0.0
1040
0.0
1040
1.0
1040
1.0
1040
10.0
1040
10.0
1070
     0
1002
{
1002
}
1002
}
  0
VIEWPORT
  5
323F
 67
     1
  8
DEFPOINTS
 10
12.1508671786159699
 20
15.8914160933109105
 30
0.0
 40
2.305308701734587
 41
3.843202193489986
 68
     3
 69
     3
1001
ACAD
1000
MVIEW
1002
{
1070
    16
1010
868.9627360235319884
1020
312.8262407528550852
1030
-212.6698486851445011
1010
0.0
1020
159.2198799757755978
1030
705.8327982104523244
1040
3.1415926535897918
1040
399.0802279388378224
1040
32.8299580287578507
1040
0.0
1040
50.0
1040
0.0
1040
0.0
1070
     0
1070
  1500
1070
     1
1070
     0
1070
     0
1070
     0
1070
     0
1070
     0
1040
0.0
1040
0.0
1040
0.0
1040
1.0
1040
1.0
1040
10.0
1040
10.0
1070
     0
1002
{
1002
}
1002
}
  0
ENDSEC
  0
EOF
