  0
SECTION
  2
HEADER
  9
$ACADVER
  1
AC1009
  9
$INSBASE
 10
0.0
 20
0.0
 30
0.0
  9
$EXTMIN
 10
-0.0395671451992712
 20
-0.0181260584133725
 30
-0.0000806992254638
  9
$EXTMAX
 10
161.7034773617787948
 20
477.2320874287187848
 30
0.036327337384364
  9
$LIMMIN
 10
0.0
 20
0.0
  9
$LIMMAX
 10
419.9999999999998863
 20
594.0
  9
$ORTHOMODE
 70
     1
  9
$REGENMODE
 70
     1
  9
$FILLMODE
 70
     1
  9
$QTEXTMODE
 70
     0
  9
$MIRRTEXT
 70
     1
  9
$DRAGMODE
 70
     2
  9
$LTSCALE
 40
20.0
  9
$OSMODE
 70
    39
  9
$ATTMODE
 70
     1
  9
$TEXTSIZE
 40
3.5
  9
$TRACEWID
 40
0.5
  9
$TEXTSTYLE
  7
STANDARD
  9
$CLAYER
  8
DEFPOINTS
  9
$CELTYPE
  6
BYLAYER
  9
$CECOLOR
 62
   256
  9
$DIMSCALE
 40
2.0
  9
$DIMASZ
 40
3.5
  9
$DIMEXO
 40
1.0
  9
$DIMDLI
 40
7.0
  9
$DIMRND
 40
0.0
  9
$DIMDLE
 40
0.0
  9
$DIMEXE
 40
1.0
  9
$DIMTP
 40
0.0
  9
$DIMTM
 40
0.0
  9
$DIMTXT
 40
3.5
  9
$DIMCEN
 40
1.5
  9
$DIMTSZ
 40
0.0
  9
$DIMTOL
 70
     0
  9
$DIMLIM
 70
     0
  9
$DIMTIH
 70
     0
  9
$DIMTOH
 70
     0
  9
$DIMSE1
 70
     0
  9
$DIMSE2
 70
     0
  9
$DIMTAD
 70
     1
  9
$DIMZIN
 70
     8
  9
$DIMBLK
  1

  9
$DIMASO
 70
     1
  9
$DIMSHO
 70
     0
  9
$DIMPOST
  1

  9
$DIMAPOST
  1

  9
$DIMALT
 70
     0
  9
$DIMALTD
 70
     2
  9
$DIMALTF
 40
25.3999999999999986
  9
$DIMLFAC
 40
1.0
  9
$DIMTOFL
 70
     1
  9
$DIMTVP
 40
0.0
  9
$DIMTIX
 70
     0
  9
$DIMSOXD
 70
     0
  9
$DIMSAH
 70
     0
  9
$DIMBLK1
  1

  9
$DIMBLK2
  1

  9
$DIMSTYLE
  2
STANDARD
  9
$DIMCLRD
 70
     0
  9
$DIMCLRE
 70
     0
  9
$DIMCLRT
 70
     1
  9
$DIMTFAC
 40
0.5142857142857143
  9
$DIMGAP
 40
1.5
  9
$LUNITS
 70
     2
  9
$LUPREC
 70
     2
  9
$SKETCHINC
 40
1.0
  9
$FILLETRAD
 40
0.0
  9
$AUNITS
 70
     0
  9
$AUPREC
 70
     0
  9
$MENU
  1
ACAD
  9
$ELEVATION
 40
0.0
  9
$PELEVATION
 40
0.0
  9
$THICKNESS
 40
0.0
  9
$LIMCHECK
 70
     0
  9
$BLIPMODE
 70
     0
  9
$CHAMFERA
 40
0.0
  9
$CHAMFERB
 40
0.0
  9
$SKPOLY
 70
     0
  9
$TDCREATE
 40
2455397.8646990740671754
  9
$TDUPDATE
 40
2458418.3450000011362135
  9
$TDINDWG
 40
0.2165796528
  9
$TDUSRTIMER
 40
0.2165796528
  9
$USRTIMER
 70
     1
  9
$ANGBASE
 50
0.0
  9
$ANGDIR
 70
     0
  9
$PDMODE
 70
     0
  9
$PDSIZE
 40
0.0
  9
$PLINEWID
 40
0.0
  9
$COORDS
 70
     1
  9
$SPLFRAME
 70
     0
  9
$SPLINETYPE
 70
     6
  9
$SPLINESEGS
 70
     8
  9
$ATTDIA
 70
     1
  9
$ATTREQ
 70
     1
  9
$HANDLING
 70
     1
  9
$HANDSEED
  5
32BE
  9
$SURFTAB1
 70
     6
  9
$SURFTAB2
 70
     6
  9
$SURFTYPE
 70
     6
  9
$SURFU
 70
     6
  9
$SURFV
 70
     6
  9
$UCSNAME
  2

  9
$UCSORG
 10
0.0
 20
0.0
 30
0.0
  9
$UCSXDIR
 10
1.0
 20
0.0
 30
0.0
  9
$UCSYDIR
 10
0.0
 20
1.0
 30
0.0
  9
$PUCSNAME
  2

  9
$PUCSORG
 10
0.0
 20
0.0
 30
0.0
  9
$PUCSXDIR
 10
1.0
 20
0.0
 30
0.0
  9
$PUCSYDIR
 10
0.0
 20
1.0
 30
0.0
  9
$USERI1
 70
     0
  9
$USERI2
 70
     0
  9
$USERI3
 70
     0
  9
$USERI4
 70
     0
  9
$USERI5
 70
     0
  9
$USERR1
 40
0.0
  9
$USERR2
 40
0.0
  9
$USERR3
 40
0.0
  9
$USERR4
 40
0.0
  9
$USERR5
 40
0.0
  9
$WORLDVIEW
 70
     1
  9
$SHADEDGE
 70
     3
  9
$SHADEDIF
 70
    70
  9
$TILEMODE
 70
     1
  9
$MAXACTVP
 70
    16
  9
$PLIMCHECK
 70
     0
  9
$PEXTMIN
 10
-0.2272099589466237
 20
-0.2198497467945941
 30
-0.0015258207003583
  9
$PEXTMAX
 10
16.7230323838825399
 20
23.5570291379887209
 30
0.0000000349246037
  9
$PLIMMIN
 10
-0.2500002402958907
 20
-0.2499999962453767
  9
$PLIMMAX
 10
10.7499995194082203
 20
8.2499997634587334
  9
$UNITMODE
 70
     0
  9
$VISRETAIN
 70
     0
  9
$PLINEGEN
 70
     0
  9
$PSLTSCALE
 70
     0
  0
ENDSEC
  0
SECTION
  2
TABLES
  0
TABLE
  2
VPORT
 70
     1
  0
VPORT
  2
*ACTIVE
 70
     0
 10
0.0
 20
0.0
 11
1.0
 21
1.0
 12
80.831955108289776
 22
238.6069806851527062
 13
0.0
 23
0.0
 14
1.0
 24
1.0
 15
10.0
 25
10.0
 16
-0.0000000000000012
 26
0.0
 36
5.5852494427615742
 17
0.0
 27
0.0
 37
0.0
 40
481.0631313046059176
 41
2.0800000000000001
 42
50.0
 43
0.0
 44
0.0
 50
0.0
 51
0.0
 71
     0
 72
  1500
 73
     1
 74
     0
 75
     0
 76
     0
 77
     0
 78
     0
  0
ENDTAB
  0
TABLE
  2
LTYPE
 70
     3
  0
LTYPE
  2
CONTINUOUS
 70
     0
  3
Solid line
 72
    65
 73
     0
 40
0.0
  0
LTYPE
  2
AUSGEZOGEN
 70
     0
  3
Ausgezogene Linie
 72
    65
 73
     0
 40
0.0
  0
LTYPE
  2
VERDECKT
 70
     0
  3
Verdeckt __ __ __ __ __ __ __ __ __ __ __ __ __
 72
    65
 73
     2
 40
0.375
 49
0.25
 49
-0.125
  0
ENDTAB
  0
TABLE
  2
LAYER
 70
     4
  0
LAYER
  2
0
 70
     0
 62
     7
  6
CONTINUOUS
  0
LAYER
  2
DEFPOINTS
 70
     0
 62
     7
  6
AUSGEZOGEN
  0
LAYER
  2
VOLL
 70
     0
 62
     1
  6
CONTINUOUS
  0
LAYER
  2
TEXT
 70
     0
 62
     7
  6
CONTINUOUS
  0
ENDTAB
  0
TABLE
  2
STYLE
 70
     3
  0
STYLE
  2
STANDARD
 70
     0
 40
0.0
 41
0.8
 50
0.0
 71
     0
 42
3.5
  3
simplex.shx
  4

  0
STYLE
  2
ANNOTATIVE
 70
     0
 40
0.0
 41
1.0
 50
0.0
 71
     0
 42
0.2
  3
txt
  4

  0
STYLE
  2
GREEKS
 70
     0
 40
0.0
 41
0.8
 50
0.0
 71
     0
 42
2.5
  3
SIMPLEX.shx
  4

  0
ENDTAB
  0
TABLE
  2
VIEW
 70
     0
  0
ENDTAB
  0
TABLE
  2
UCS
 70
     0
  0
ENDTAB
  0
TABLE
  2
APPID
 70
    13
  0
APPID
  2
ACAD
 70
     0
  0
APPID
  2
ACADANNOTATIVE
 70
     0
  0
APPID
  2
ACAD_NAV_VCDISPLAY
 70
     0
  0
APPID
  2
ACAD_PSEXT
 70
     0
  0
APPID
  2
ACAD_EXEMPT_FROM_CAD_STANDARDS
 70
     0
  0
APPID
  2
ACAD_MLEADERVER
 70
     0
  0
APPID
  2
ACAD_DSTYLE_DIMRADIAL_EXTENSION
 70
     0
  0
APPID
  2
GRADIENTCOLOR1ACI
 70
     0
  0
APPID
  2
GRADIENTCOLOR2ACI
 70
     0
  0
APPID
  2
ACAECLAYERSTANDARD
 70
     0
  0
APPID
  2
ACCMTRANSPARENCY
 70
     0
  0
APPID
  2
ACAD_OBJECT_CHANGE_GUID
 70
     0
  0
APPID
  2
ACADANNOMONITORALERTICONDI
 70
     0
  0
ENDTAB
  0
TABLE
  2
DIMSTYLE
 70
     2
  0
DIMSTYLE
  2
STANDARD
 70
     0
  3

  4

  5

  6

  7

 40
1.0
 41
0.18
 42
0.0625
 43
0.38
 44
0.18
 45
0.0
 46
0.0
 47
0.0
 48
0.0
140
0.18
141
0.09
142
0.0
143
25.3999999999999986
144
1.0
145
0.0
146
1.0
147
0.09
 71
     0
 72
     0
 73
     1
 74
     1
 75
     0
 76
     0
 77
     0
 78
     0
170
     0
171
     2
172
     0
173
     0
174
     0
175
     0
176
     0
177
     0
178
     0
  0
DIMSTYLE
  2
ANNOTATIVE
 70
     0
  3

  4

  5

  6

  7

 40
1.0
 41
0.18
 42
0.0625
 43
0.38
 44
0.18
 45
0.0
 46
0.0
 47
0.0
 48
0.0
140
0.18
141
0.09
142
0.0
143
25.3999999999999986
144
1.0
145
0.0
146
1.0
147
0.09
 71
     0
 72
     0
 73
     1
 74
     1
 75
     0
 76
     0
 77
     0
 78
     0
170
     0
171
     2
172
     0
173
     0
174
     0
175
     0
176
     0
177
     0
178
     0
  0
ENDTAB
  0
ENDSEC
  0
SECTION
  2
BLOCKS
  0
BLOCK
  8
0
  2
$MODEL_SPACE
 70
     0
 10
0.0
 20
0.0
 30
0.0
  3
$MODEL_SPACE
  1

  0
ENDBLK
  5
322A
  8
0
  0
BLOCK
 67
     1
  8
0
  2
$PAPER_SPACE
 70
     0
 10
0.0
 20
0.0
 30
0.0
  3
$PAPER_SPACE
  1

  0
ENDBLK
  5
3226
 67
     1
  8
0
  0
BLOCK
  8
0
  2
A$C1DE83356
 70
     0
 10
0.0
 20
0.0
 30
0.0
  3
A$C1DE83356
  1

  0
LINE
  5
3104
  8
0
  6
CONTINUOUS
 62
     3
 10
628.9681280441733406
 20
32.7838596281531593
 30
0.0
 11
768.9681280441733406
 21
32.7838596281531593
 31
0.0
210
0.0
220
1.0
230
0.0
  0
LINE
  5
3105
  8
0
  6
CONTINUOUS
 62
     3
 10
620.7804579970621717
 20
-112.2161403718467056
 30
0.0
 11
777.1557980912845096
 21
-112.2161403718467056
 31
0.0
210
0.0
220
1.0
230
0.0
  0
LINE
  5
3106
  8
0
  6
CONTINUOUS
 62
     3
 10
768.9681280441733406
 20
32.7838596281531593
 30
0.0
 11
775.5664531748019499
 21
18.8926488268297703
 31
0.0
210
0.0
220
1.0
230
0.0
  0
LINE
  5
3107
  8
0
  6
CONTINUOUS
 62
     3
 10
628.9681280441733406
 20
32.7838596281531593
 30
0.0
 11
622.3698029135447314
 21
18.8926488268297703
 31
0.0
210
0.0
220
1.0
230
0.0
  0
ARC
  5
3108
  8
0
  6
CONTINUOUS
 62
     3
 10
-649.4681280441709532
 20
6.0209443897814676
 30
0.0
 40
29.9999999999977192
210
0.0
220
0.0
230
-1.0
 50
359.9999999999992042
 51
25.4077181089500392
  0
ARC
  5
3109
  8
0
  6
CONTINUOUS
 62
     3
 10
-748.4681280441756144
 20
6.0209443897814676
 30
0.0
 40
29.9999999999977405
210
0.0
220
0.0
230
-1.0
 50
154.5922818910503054
 51
180.0000000000007958
  0
LINE
  5
310A
  8
0
  6
CONTINUOUS
 62
     3
 10
778.4681280441733406
 20
6.0209443897810493
 30
0.0
 11
778.4681280441733406
 21
-97.2161403718466772
 31
0.0
210
0.0
220
1.0
230
0.0
  0
LINE
  5
310B
  8
0
  6
CONTINUOUS
 62
     3
 10
619.4681280441733406
 20
6.0209443897810493
 30
0.0
 11
619.4681280441733406
 21
-97.2161403718466772
 31
0.0
210
0.0
220
1.0
230
0.0
  0
LINE
  5
310C
  8
0
  6
CONTINUOUS
 62
     3
 10
620.7804579970621717
 20
-112.2161403718467056
 30
0.0
 11
619.4681280441733406
 21
-97.2161403718466772
 31
0.0
210
0.0
220
1.0
230
0.0
  0
LINE
  5
310D
  8
0
  6
CONTINUOUS
 62
     3
 10
777.1557980912845096
 20
-112.2161403718467056
 30
0.0
 11
778.4681280441733406
 21
-97.2161403718466772
 31
0.0
210
0.0
220
1.0
230
0.0
  0
LINE
  5
310E
  8
0
  6
CONTINUOUS
 62
     3
 10
622.9681280441733406
 20
115.0748596281531064
 30
0.0
 11
774.9681280441733406
 21
115.0748596281531064
 31
0.0
210
0.0
220
1.0
230
0.0
  0
LINE
  5
310F
  8
0
  6
CONTINUOUS
 62
     3
 10
626.2096832467672129
 20
137.7838596281530954
 30
0.0
 11
771.7265728415793546
 21
137.7838596281530954
 31
0.0
210
0.0
220
1.0
230
0.0
  0
LINE
  5
3110
  8
0
  6
CONTINUOUS
 62
     3
 10
774.9681280441733406
 20
124.1814821836888001
 30
0.0
 11
774.9681280441733406
 21
115.0748596281531064
 31
0.0
210
0.0
220
1.0
230
0.0
  0
LINE
  5
3111
  8
0
  6
CONTINUOUS
 62
     3
 10
622.9681280441733406
 20
124.1814821836888001
 30
0.0
 11
622.9681280441733406
 21
115.0748596281531064
 31
0.0
210
0.0
220
1.0
230
0.0
  0
ARC
  5
3112
  8
0
  6
CONTINUOUS
 62
     3
 10
-652.9681280441751596
 20
115.0748596281535043
 30
0.0
 40
29.9997362596940285
210
0.0
220
0.0
230
-1.0
 50
334.992841663446427
 51
359.9999999999992042
  0
ARC
  5
3113
  8
0
  6
CONTINUOUS
 62
     3
 10
-744.968128044171408
 20
115.0748596281535043
 30
0.0
 40
29.9997362596940285
210
0.0
220
0.0
230
-1.0
 50
180.0000000000007958
 51
205.0071583365536014
  0
ARC
  5
3114
  8
0
  6
CONTINUOUS
 62
     3
 10
-609.4681280441780018
 20
94.783859628154147
 30
0.0
 40
17.9999999999953388
210
0.0
220
0.0
230
-1.0
 50
154.9928416634479049
 51
180.0000000000032117
  0
ARC
  5
3115
  8
0
  6
CONTINUOUS
 62
     3
 10
-788.4681280441686795
 20
94.783859628154147
 30
0.0
 40
17.9999999999953388
210
0.0
220
0.0
230
-1.0
 50
359.9999999999968168
 51
25.0071583365521413
  0
LINE
  5
3116
  8
0
  6
CONTINUOUS
 62
     3
 10
770.4681280441733406
 20
94.783859628153067
 30
0.0
 11
770.4681280441733406
 21
71.252579050824238
 31
0.0
210
0.0
220
1.0
230
0.0
  0
LINE
  5
3117
  8
0
  6
CONTINUOUS
 62
     3
 10
627.4681280441733406
 20
94.783859628153067
 30
0.0
 11
627.4681280441733406
 21
71.252579050824238
 31
0.0
210
0.0
220
1.0
230
0.0
  0
ARC
  5
3118
  8
0
  6
CONTINUOUS
 62
     3
 10
-645.4681280441728859
 20
71.2525790508241101
 30
0.0
 40
17.9999999999995488
210
0.0
220
0.0
230
-1.0
 50
325.2280559680500005
 51
0.0000000000004071
  0
ARC
  5
3119
  8
0
  6
CONTINUOUS
 62
     3
 10
-752.4681280441739091
 20
71.2525790508241101
 30
0.0
 40
17.9999999999995417
210
0.0
220
0.0
230
-1.0
 50
179.9999999999996021
 51
214.7719440319499995
  0
ARC
  5
311A
  8
0
  6
CONTINUOUS
 62
     3
 10
-622.4681280441731133
 20
55.2838596281528822
 30
0.0
 40
10.0000000000002203
210
0.0
220
0.0
230
-1.0
 50
145.2280559680536953
 51
179.9999999999988063
  0
ARC
  5
311B
  8
0
  6
CONTINUOUS
 62
     3
 10
-775.4681280441734543
 20
55.283859628152868
 30
0.0
 40
10.0000000000002292
210
0.0
220
0.0
230
-1.0
 50
0.0000000000012213
 51
34.7719440319462976
  0
LINE
  5
311C
  8
0
  6
CONTINUOUS
 62
     3
 10
765.4681280441733406
 20
55.2838596281531025
 30
0.0
 11
765.4681280441733406
 21
42.3099688566335814
 31
0.0
210
0.0
220
1.0
230
0.0
  0
LINE
  5
311D
  8
0
  6
CONTINUOUS
 62
     3
 10
632.4681280441733406
 20
55.2838596281531025
 30
0.0
 11
632.4681280441733406
 21
42.3099688566335814
 31
0.0
210
0.0
220
1.0
230
0.0
  0
ARC
  5
311E
  8
0
  6
CONTINUOUS
 62
     3
 10
-622.4681280441733406
 20
42.3099688566339722
 30
0.0
 40
10.0
210
0.0
220
0.0
230
-1.0
 50
180.0000000000019895
 51
197.3540246362630057
  0
ARC
  5
311F
  8
0
  6
CONTINUOUS
 62
     3
 10
-775.4681280441733406
 20
42.309968856633958
 30
0.0
 40
10.0
210
0.0
220
0.0
230
-1.0
 50
342.6459753637370227
 51
359.9999999999980105
  0
LINE
  5
3120
  8
0
  6
CONTINUOUS
 62
     3
 10
765.9233282638231231
 20
39.3272189252742308
 30
0.0
 11
767.9681280441734543
 21
32.7838596281532091
 31
0.0
210
0.0
220
1.0
230
0.0
  0
LINE
  5
3121
  8
0
  6
CONTINUOUS
 62
     3
 10
632.0129278245233309
 20
39.3272189252742308
 30
0.0
 11
629.968128044173227
 21
32.7838596281532091
 31
0.0
210
0.0
220
1.0
230
0.0
  0
LINE
  5
3122
  8
0
  6
CONTINUOUS
 62
     3
 10
771.7265728415793546
 20
137.7838596281530954
 30
0.0
 11
772.1573616552722115
 21
136.8600300359111088
 31
0.0
210
0.0
220
1.0
230
0.0
  0
LINE
  5
3123
  8
0
  6
CONTINUOUS
 62
     3
 10
626.2096832467672129
 20
137.7838596281530954
 30
0.0
 11
625.7788944330743561
 21
136.8600300359111088
 31
0.0
210
0.0
220
1.0
230
0.0
  0
ARC
  5
3124
  8
0
  6
CONTINUOUS
 62
     3
 10
-652.9681280441726585
 20
124.1814821836888996
 30
0.0
 40
29.9999999999995488
210
0.0
220
0.0
230
-1.0
 50
0.0
 51
25.0000000000029701
  0
ARC
  5
3125
  8
0
  6
CONTINUOUS
 62
     3
 10
-744.9681280441739091
 20
124.1814821836888996
 30
0.0
 40
29.9999999999995488
210
0.0
220
0.0
230
-1.0
 50
154.9999999999969873
 51
180.0
  0
LINE
  5
3126
  8
0
  6
VERDECKT
 62
     1
 10
623.2900075909204816
 20
-112.2161403718468051
 30
0.0
 11
621.9681280441733406
 21
-97.1069880145733038
 31
0.0
210
0.0
220
1.0
230
0.0
  0
LINE
  5
3127
  8
0
  6
VERDECKT
 62
     1
 10
774.6462484974259723
 20
-112.2161403718468051
 30
0.0
 11
775.9681280441733406
 21
-97.1069880145733038
 31
0.0
210
0.0
220
1.0
230
0.0
  0
LINE
  5
3128
  8
0
  6
VERDECKT
 62
     1
 10
775.9681280441733406
 20
6.0209443897810493
 30
0.0
 11
775.9681280441733406
 21
-97.1069880145733038
 31
0.0
210
0.0
220
1.0
230
0.0
  0
LINE
  5
3129
  8
0
  6
VERDECKT
 62
     1
 10
621.9681280441733406
 20
6.0209443897810493
 30
0.0
 11
621.9681280441733406
 21
-97.1069880145733038
 31
0.0
210
0.0
220
1.0
230
0.0
  0
ARC
  5
312A
  8
0
  6
VERDECKT
 62
     1
 10
-649.4681280441739091
 20
6.0209443897806931
 30
0.0
 40
27.5000000000006786
210
0.0
220
0.0
230
-1.0
 50
0.0000000000008142
 51
25.4077181089485791
  0
ARC
  5
312B
  8
0
  6
VERDECKT
 62
     1
 10
-748.4681280441725448
 20
6.0209443897806931
 30
0.0
 40
27.5000000000006786
210
0.0
220
0.0
230
-1.0
 50
154.5922818910514138
 51
179.9999999999992042
  0
LINE
  5
312C
  8
0
  6
VERDECKT
 62
     1
 10
766.2004293159875488
 20
32.7838596281532091
 30
0.0
 11
773.3082594139161756
 21
17.8200067904090211
 31
0.0
210
0.0
220
1.0
230
0.0
  0
LINE
  5
312D
  8
0
  6
VERDECKT
 62
     1
 10
631.7358267723590188
 20
32.7838596281532091
 30
0.0
 11
624.6279966744305057
 21
17.8200067904090211
 31
0.0
210
0.0
220
1.0
230
0.0
  0
LINE
  5
312E
  8
0
  6
VERDECKT
 62
     1
 10
763.5371283187355402
 20
38.5815314424341409
 30
0.0
 11
765.3489007606982568
 21
32.7838596281532091
 31
0.0
210
0.0
220
1.0
230
0.0
  0
LINE
  5
312F
  8
0
  6
VERDECKT
 62
     1
 10
634.3991277696110274
 20
38.5815314424341409
 30
0.0
 11
632.5873553276481971
 21
32.7838596281532091
 31
0.0
210
0.0
220
1.0
230
0.0
  0
ARC
  5
3130
  8
0
  6
VERDECKT
 62
     1
 10
-622.4681280441750459
 20
42.3099688566337804
 30
0.0
 40
12.4999999999981792
210
0.0
220
0.0
230
-1.0
 50
180.0000000000007958
 51
197.3540246362651942
  0
ARC
  5
3131
  8
0
  6
VERDECKT
 62
     1
 10
-775.468128044171408
 20
42.3099688566337804
 30
0.0
 40
12.4999999999980709
210
0.0
220
0.0
230
-1.0
 50
342.6459753637344079
 51
359.9999999999992042
  0
LINE
  5
3132
  8
0
  6
VERDECKT
 62
     1
 10
762.9681280441733406
 20
55.2838596281531025
 30
0.0
 11
762.9681280441733406
 21
42.3099688566335814
 31
0.0
210
0.0
220
1.0
230
0.0
  0
LINE
  5
3133
  8
0
  6
VERDECKT
 62
     1
 10
634.9681280441733406
 20
55.2838596281531025
 30
0.0
 11
634.9681280441733406
 21
42.3099688566335814
 31
0.0
210
0.0
220
1.0
230
0.0
  0
ARC
  5
3134
  8
0
  6
VERDECKT
 62
     1
 10
-622.4681280441747049
 20
55.2838596281534365
 30
0.0
 40
12.4999999999986393
210
0.0
220
0.0
230
-1.0
 50
145.2280559680511089
 51
180.0000000000015916
  0
ARC
  5
3135
  8
0
  6
VERDECKT
 62
     1
 10
-775.468128044171749
 20
55.2838596281534222
 30
0.0
 40
12.4999999999986304
210
0.0
220
0.0
230
-1.0
 50
0.0
 51
34.771944031950369
  0
ARC
  5
3136
  8
0
  6
VERDECKT
 62
     1
 10
-645.4681280441722038
 20
71.2525790508239538
 30
0.0
 40
15.4999999999988507
210
0.0
220
0.0
230
-1.0
 50
325.2280559680488068
 51
0.0000000000012213
  0
ARC
  5
3137
  8
0
  6
VERDECKT
 62
     1
 10
-752.4681280441747049
 20
71.2525790508239396
 30
0.0
 40
15.4999999999987494
210
0.0
220
0.0
230
-1.0
 50
179.9999999999988063
 51
214.7719440319515058
  0
LINE
  5
3138
  8
0
  6
VERDECKT
 62
     1
 10
767.9681280441733406
 20
94.783859628153067
 30
0.0
 11
767.9681280441733406
 21
71.2525790508242949
 31
0.0
210
0.0
220
1.0
230
0.0
  0
LINE
  5
3139
  8
0
  6
VERDECKT
 62
     1
 10
629.9681280441733406
 20
94.783859628153067
 30
0.0
 11
629.9681280441733406
 21
71.2525790508242949
 31
0.0
210
0.0
220
1.0
230
0.0
  0
ARC
  5
313A
  8
0
  6
VERDECKT
 62
     1
 10
-609.4681280441760691
 20
94.7838596281538486
 30
0.0
 40
20.4999999999970406
210
0.0
220
0.0
230
-1.0
 50
155.2128276928106914
 51
180.0000000000019895
  0
ARC
  5
313B
  8
0
  6
VERDECKT
 62
     1
 10
-788.4681280441704985
 20
94.7838596281537775
 30
0.0
 40
20.4999999999971614
210
0.0
220
0.0
230
-1.0
 50
359.9999999999980105
 51
24.7871723071892305
  0
ARC
  5
313C
  8
0
  6
VERDECKT
 62
     1
 10
-652.968128044173568
 20
115.0748596281532059
 30
0.0
 40
27.5000000000003517
210
0.0
220
0.0
230
-1.0
 50
334.8288522569342831
 51
359.9999999999996021
  0
ARC
  5
313D
  8
0
  6
VERDECKT
 62
     1
 10
-744.9681280441731133
 20
115.0748596281532059
 30
0.0
 40
27.5000000000003411
210
0.0
220
0.0
230
-1.0
 50
180.0
 51
205.1711477430658022
  0
LINE
  5
313E
  8
0
  6
VERDECKT
 62
     1
 10
772.4681280441733406
 20
124.1814821836888001
 30
0.0
 11
772.4681280441733406
 21
115.0748596281531064
 31
0.0
210
0.0
220
1.0
230
0.0
  0
LINE
  5
313F
  8
0
  6
VERDECKT
 62
     1
 10
625.4681280441733406
 20
124.1814821836888001
 30
0.0
 11
625.4681280441733406
 21
115.0748596281531064
 31
0.0
210
0.0
220
1.0
230
0.0
  0
ARC
  5
3140
  8
0
  6
VERDECKT
 62
     1
 10
-652.9681280441755007
 20
124.1814821836881038
 30
0.0
 40
27.50000000000216
210
0.0
220
0.0
230
-1.0
 50
0.0
 51
24.9999999999971401
  0
ARC
  5
3141
  8
0
  6
VERDECKT
 62
     1
 10
-744.9681280441709532
 20
124.1814821836881038
 30
0.0
 40
27.5000000000021707
210
0.0
220
0.0
230
-1.0
 50
155.0000000000015916
 51
179.9999999999984084
  0
LINE
  5
3142
  8
0
  6
VERDECKT
 62
     1
 10
768.9681280441733406
 20
137.7838596281530954
 30
0.0
 11
769.8915921876812263
 21
135.8034843815574106
 31
0.0
210
0.0
220
1.0
230
0.0
  0
LINE
  5
3143
  8
0
  6
VERDECKT
 62
     1
 10
628.9681280441733406
 20
137.7838596281530954
 30
0.0
 11
628.0446639006653413
 21
135.8034843815574106
 31
0.0
210
0.0
220
1.0
230
0.0
  0
ENDBLK
  5
3145
  8
0
  0
BLOCK
  8
0
  2
A$C7B8E602F
 70
     0
 10
0.0
 20
0.0
 30
0.0
  3
A$C7B8E602F
  1

  0
CIRCLE
  5
3149
  8
0
  6
CONTINUOUS
 62
     3
 10
652.8044482979938721
 20
444.0499202505121161
 30
0.0
 40
79.5
  0
CIRCLE
  5
314A
  8
0
  6
CONTINUOUS
 62
     3
 10
652.8044482979938721
 20
444.0499202505121161
 30
0.0
 40
76.0
  0
CIRCLE
  5
314B
  8
0
  6
CONTINUOUS
 62
     3
 10
652.8044482979938721
 20
444.0499202505121161
 30
0.0
 40
64.0
  0
CIRCLE
  5
314C
  8
0
  6
CONTINUOUS
 62
     3
 10
652.8044482979938721
 20
444.0499202505121161
 30
0.0
 40
69.0
  0
CIRCLE
  5
314D
  8
0
  6
CONTINUOUS
 62
     3
 10
652.8044482979938721
 20
444.0499202505121161
 30
0.0
 40
70.0
  0
CIRCLE
  5
314E
  8
0
  6
CONTINUOUS
 62
     3
 10
652.8044482979938721
 20
444.0499202505121161
 30
0.0
 40
72.7584447974060993
  0
CIRCLE
  5
314F
  8
0
  6
VERDECKT
 62
     1
 10
652.8044482979938721
 20
444.0499202505121161
 30
0.0
 40
75.6781204532526033
  0
CIRCLE
  5
3150
  8
0
  6
VERDECKT
 62
     1
 10
652.8044482979938721
 20
444.0499202505121161
 30
0.0
 40
77.0
  0
CIRCLE
  5
3151
  8
0
  6
VERDECKT
 62
     1
 10
652.8044482979938721
 20
444.0499202505121161
 30
0.0
 40
67.2323012718144355
  0
CIRCLE
  5
3152
  8
0
  6
VERDECKT
 62
     1
 10
652.8044482979938721
 20
444.0499202505121161
 30
0.0
 40
78.1876700471111832
  0
CIRCLE
  5
3153
  8
0
  6
VERDECKT
 62
     1
 10
652.8044482979938721
 20
444.0499202505121161
 30
0.0
 40
75.9997362596921135
  0
CIRCLE
  5
3154
  8
0
  6
VERDECKT
 62
     1
 10
652.8044482979938721
 20
444.0499202505121161
 30
0.0
 40
71.5
  0
CIRCLE
  5
3155
  8
0
  6
VERDECKT
 62
     1
 10
652.8044482979938721
 20
444.0499202505121161
 30
0.0
 40
66.5
  0
CIRCLE
  5
3156
  8
0
  6
VERDECKT
 62
     1
 10
652.8044482979938721
 20
444.0499202505121161
 30
0.0
 40
66.3807727165249162
  0
CIRCLE
  5
3157
  8
0
  6
VERDECKT
 62
     1
 10
652.8044482979938721
 20
444.0499202505121161
 30
0.0
 40
73.5
  0
ENDBLK
  5
3159
  8
0
  0
ENDSEC
  0
SECTION
  2
ENTITIES
  0
TEXT
  5
8F
  8
VOLL
 10
78.076754716981128
 20
31.025947764705851
 30
0.0
 40
1.8
  1

  7
GREEKS
  0
TEXT
  5
3C2
  8
TEXT
 62
     1
 10
371.1516896065722904
 20
62.216407863550991
 30
0.0
 40
7.0
  1

 41
0.8
  7
GREEKS
 72
     1
 11
371.1516896065722904
 21
62.216407863550991
 31
0.0
  0
TEXT
  5
29A1
  8
VOLL
 10
585.574680094084556
 20
387.1518777943553005
 30
0.0
 40
1.8
  1

  7
GREEKS
  0
INSERT
  5
325F
  8
DEFPOINTS
  2
A$C1DE83356
 10
-619.4681282486376404
 20
339.4308382931797041
 30
0.0
  0
INSERT
  5
3260
  8
DEFPOINTS
  2
A$C7B8E602F
 10
-573.3044485024583992
 20
-364.5499209418069881
 30
0.0
  0
VIEWPORT
  5
2D4C
 67
     1
  8
0
 10
8.6452959723946492
 20
11.8710779981806294
 30
0.0
 40
47.8473290412476118
 41
24.3684604081254506
 68
     1
 69
     1
1001
ACAD
1000
MVIEW
1002
{
1070
    16
1010
0.0
1020
0.0
1030
0.0
1010
0.0
1020
0.0
1030
1.0
1040
0.0
1040
24.3684604081254506
1040
8.6452959723946492
1040
11.8710779981806294
1040
50.0
1040
0.0
1040
0.0
1070
     0
1070
  1500
1070
     1
1070
     1
1070
     0
1070
     0
1070
     0
1070
     0
1040
0.0
1040
0.0
1040
0.0
1040
10.0
1040
10.0
1040
10.0
1040
10.0
1070
     0
1002
{
1002
}
1002
}
  0
VIEWPORT
  5
2D50
 67
     1
  8
DEFPOINTS
 10
8.2476812075014916
 20
11.6687821291076403
 30
0.0
 40
16.9496663536443783
 41
23.7750408855067406
 68
     2
 69
     2
1001
ACAD
1000
MVIEW
1002
{
1070
    16
1010
668.5162368601011167
1020
346.2070793443406842
1030
-268.6799080895930274
1010
0.0
1020
0.0
1030
1.0
1040
0.0
1040
608.442924183040077
1040
-456.7864679408460802
1040
-46.66059913471058
1040
50.0
1040
0.0
1040
0.0
1070
     0
1070
  1500
1070
     1
1070
     0
1070
     0
1070
     0
1070
     0
1070
     0
1040
0.0
1040
0.0
1040
0.0
1040
1.0
1040
1.0
1040
10.0
1040
10.0
1070
     0
1002
{
1002
}
1002
}
  0
VIEWPORT
  5
2DC5
 67
     1
  8
DEFPOINTS
 10
13.5302913570853196
 20
9.9310348963755182
 30
0.0
 40
3.9649417082582512
 41
6.0528127584894591
 68
     3
 69
     3
1001
ACAD
1000
MVIEW
1002
{
1070
    16
1010
780.7040037946859456
1020
298.0209886080875776
1030
-250.7890962210391876
1010
0.0
1020
109.3996148379878974
1030
460.6601206242223725
1040
3.1415926535897918
1040
302.4473459281210239
1040
0.0
1040
0.0
1040
50.0
1040
0.0
1040
0.0
1070
     0
1070
  1500
1070
     1
1070
     0
1070
     0
1070
     0
1070
     0
1070
     0
1040
0.0
1040
0.0
1040
0.0
1040
1.0
1040
1.0
1040
10.0
1040
10.0
1070
     0
1002
{
1002
}
1002
}
  0
ENDSEC
  0
EOF
