  0
SECTION
  2
HEADER
  9
$ACADVER
  1
AC1009
  9
$INSBASE
 10
0.0
 20
0.0
 30
0.0
  9
$EXTMIN
 10
-0.0388159507956516
 20
-0.0181260584133725
 30
-0.0055437974064034
  9
$EXTMAX
 10
91.0885795295744032
 20
320.2937632714093183
 30
0.0188908708560121
  9
$LIMMIN
 10
0.0
 20
0.0
  9
$LIMMAX
 10
419.9999999999998863
 20
594.0
  9
$ORTHOMODE
 70
     1
  9
$REGENMODE
 70
     1
  9
$FILLMODE
 70
     1
  9
$QTEXTMODE
 70
     0
  9
$MIRRTEXT
 70
     1
  9
$DRAGMODE
 70
     2
  9
$LTSCALE
 40
20.0
  9
$OSMODE
 70
    39
  9
$ATTMODE
 70
     1
  9
$TEXTSIZE
 40
3.5
  9
$TRACEWID
 40
0.5
  9
$TEXTSTYLE
  7
STANDARD
  9
$CLAYER
  8
DEFPOINTS
  9
$CELTYPE
  6
BYLAYER
  9
$CECOLOR
 62
   256
  9
$DIMSCALE
 40
2.0
  9
$DIMASZ
 40
3.5
  9
$DIMEXO
 40
1.0
  9
$DIMDLI
 40
7.0
  9
$DIMRND
 40
0.0
  9
$DIMDLE
 40
0.0
  9
$DIMEXE
 40
1.0
  9
$DIMTP
 40
0.0
  9
$DIMTM
 40
0.0
  9
$DIMTXT
 40
3.5
  9
$DIMCEN
 40
1.5
  9
$DIMTSZ
 40
0.0
  9
$DIMTOL
 70
     0
  9
$DIMLIM
 70
     0
  9
$DIMTIH
 70
     0
  9
$DIMTOH
 70
     0
  9
$DIMSE1
 70
     0
  9
$DIMSE2
 70
     0
  9
$DIMTAD
 70
     1
  9
$DIMZIN
 70
     8
  9
$DIMBLK
  1

  9
$DIMASO
 70
     1
  9
$DIMSHO
 70
     0
  9
$DIMPOST
  1

  9
$DIMAPOST
  1

  9
$DIMALT
 70
     0
  9
$DIMALTD
 70
     2
  9
$DIMALTF
 40
25.3999999999999986
  9
$DIMLFAC
 40
1.0
  9
$DIMTOFL
 70
     1
  9
$DIMTVP
 40
0.0
  9
$DIMTIX
 70
     0
  9
$DIMSOXD
 70
     0
  9
$DIMSAH
 70
     0
  9
$DIMBLK1
  1

  9
$DIMBLK2
  1

  9
$DIMSTYLE
  2
STANDARD
  9
$DIMCLRD
 70
     0
  9
$DIMCLRE
 70
     0
  9
$DIMCLRT
 70
     1
  9
$DIMTFAC
 40
0.5142857142857143
  9
$DIMGAP
 40
1.5
  9
$LUNITS
 70
     2
  9
$LUPREC
 70
     2
  9
$SKETCHINC
 40
1.0
  9
$FILLETRAD
 40
0.0
  9
$AUNITS
 70
     0
  9
$AUPREC
 70
     0
  9
$MENU
  1
ACAD
  9
$ELEVATION
 40
0.0
  9
$PELEVATION
 40
0.0
  9
$THICKNESS
 40
0.0
  9
$LIMCHECK
 70
     0
  9
$BLIPMODE
 70
     0
  9
$CHAMFERA
 40
0.0
  9
$CHAMFERB
 40
0.0
  9
$SKPOLY
 70
     0
  9
$TDCREATE
 40
2455397.8646990740671754
  9
$TDUPDATE
 40
2458418.3440856481902301
  9
$TDINDWG
 40
0.1284168056
  9
$TDUSRTIMER
 40
0.1284168056
  9
$USRTIMER
 70
     1
  9
$ANGBASE
 50
0.0
  9
$ANGDIR
 70
     0
  9
$PDMODE
 70
     0
  9
$PDSIZE
 40
0.0
  9
$PLINEWID
 40
0.0
  9
$COORDS
 70
     1
  9
$SPLFRAME
 70
     0
  9
$SPLINETYPE
 70
     6
  9
$SPLINESEGS
 70
     8
  9
$ATTDIA
 70
     1
  9
$ATTREQ
 70
     1
  9
$HANDLING
 70
     1
  9
$HANDSEED
  5
24E4
  9
$SURFTAB1
 70
     6
  9
$SURFTAB2
 70
     6
  9
$SURFTYPE
 70
     6
  9
$SURFU
 70
     6
  9
$SURFV
 70
     6
  9
$UCSNAME
  2

  9
$UCSORG
 10
0.0
 20
0.0
 30
0.0
  9
$UCSXDIR
 10
1.0
 20
0.0
 30
0.0
  9
$UCSYDIR
 10
0.0
 20
1.0
 30
0.0
  9
$PUCSNAME
  2

  9
$PUCSORG
 10
0.0
 20
0.0
 30
0.0
  9
$PUCSXDIR
 10
1.0
 20
0.0
 30
0.0
  9
$PUCSYDIR
 10
0.0
 20
1.0
 30
0.0
  9
$USERI1
 70
     0
  9
$USERI2
 70
     0
  9
$USERI3
 70
     0
  9
$USERI4
 70
     0
  9
$USERI5
 70
     0
  9
$USERR1
 40
0.0
  9
$USERR2
 40
0.0
  9
$USERR3
 40
0.0
  9
$USERR4
 40
0.0
  9
$USERR5
 40
0.0
  9
$WORLDVIEW
 70
     1
  9
$SHADEDGE
 70
     3
  9
$SHADEDIF
 70
    70
  9
$TILEMODE
 70
     1
  9
$MAXACTVP
 70
    16
  9
$PLIMCHECK
 70
     0
  9
$PEXTMIN
 10
-0.2517321001884838
 20
-0.2073419705218811
 30
-0.0000000349181948
  9
$PEXTMAX
 10
16.5089343875045387
 20
23.4425260878948087
 30
0.0000000814935746
  9
$PLIMMIN
 10
-0.2500002402958907
 20
-0.2499999962453767
  9
$PLIMMAX
 10
10.7499995194082203
 20
8.2499997634587334
  9
$UNITMODE
 70
     0
  9
$VISRETAIN
 70
     0
  9
$PLINEGEN
 70
     0
  9
$PSLTSCALE
 70
     0
  0
ENDSEC
  0
SECTION
  2
TABLES
  0
TABLE
  2
VPORT
 70
     1
  0
VPORT
  2
*ACTIVE
 70
     0
 10
0.0
 20
0.0
 11
1.0
 21
1.0
 12
45.5248817893893829
 22
160.1378186064978877
 13
0.0
 23
0.0
 14
1.0
 24
1.0
 15
10.0
 25
10.0
 16
-0.0000000000000012
 26
0.0
 36
5.5852494427615742
 17
0.0
 27
0.0
 37
0.0
 40
322.8709723337893251
 41
2.0800000000000001
 42
50.0
 43
0.0
 44
0.0
 50
0.0
 51
0.0
 71
     0
 72
  1500
 73
     1
 74
     0
 75
     0
 76
     0
 77
     0
 78
     0
  0
ENDTAB
  0
TABLE
  2
LTYPE
 70
     3
  0
LTYPE
  2
CONTINUOUS
 70
     0
  3
Solid line
 72
    65
 73
     0
 40
0.0
  0
LTYPE
  2
AUSGEZOGEN
 70
     0
  3
Ausgezogene Linie
 72
    65
 73
     0
 40
0.0
  0
LTYPE
  2
VERDECKT
 70
     0
  3
Verdeckt __ __ __ __ __ __ __ __ __ __ __ __ __
 72
    65
 73
     2
 40
0.375
 49
0.25
 49
-0.125
  0
ENDTAB
  0
TABLE
  2
LAYER
 70
     4
  0
LAYER
  2
0
 70
     0
 62
     7
  6
CONTINUOUS
  0
LAYER
  2
DEFPOINTS
 70
     0
 62
     7
  6
AUSGEZOGEN
  0
LAYER
  2
VOLL
 70
     0
 62
     1
  6
CONTINUOUS
  0
LAYER
  2
TEXT
 70
     0
 62
     7
  6
CONTINUOUS
  0
ENDTAB
  0
TABLE
  2
STYLE
 70
     3
  0
STYLE
  2
STANDARD
 70
     0
 40
0.0
 41
0.8
 50
0.0
 71
     0
 42
3.5
  3
simplex.shx
  4

  0
STYLE
  2
ANNOTATIVE
 70
     0
 40
0.0
 41
1.0
 50
0.0
 71
     0
 42
0.2
  3
txt
  4

  0
STYLE
  2
GREEKS
 70
     0
 40
0.0
 41
0.8
 50
0.0
 71
     0
 42
2.5
  3
SIMPLEX.shx
  4

  0
ENDTAB
  0
TABLE
  2
VIEW
 70
     0
  0
ENDTAB
  0
TABLE
  2
UCS
 70
     0
  0
ENDTAB
  0
TABLE
  2
APPID
 70
    11
  0
APPID
  2
ACAD
 70
     0
  0
APPID
  2
ACADANNOTATIVE
 70
     0
  0
APPID
  2
ACAD_NAV_VCDISPLAY
 70
     0
  0
APPID
  2
ACAD_PSEXT
 70
     0
  0
APPID
  2
ACAECLAYERSTANDARD
 70
     0
  0
APPID
  2
ACCMTRANSPARENCY
 70
     0
  0
APPID
  2
ACAD_EXEMPT_FROM_CAD_STANDARDS
 70
     0
  0
APPID
  2
ACAD_MLEADERVER
 70
     0
  0
APPID
  2
ACAD_DSTYLE_DIMRADIAL_EXTENSION
 70
     0
  0
APPID
  2
ACAD_OBJECT_CHANGE_GUID
 70
     0
  0
APPID
  2
ACADANNOMONITORALERTICONDI
 70
     0
  0
ENDTAB
  0
TABLE
  2
DIMSTYLE
 70
     2
  0
DIMSTYLE
  2
STANDARD
 70
     0
  3

  4

  5

  6

  7

 40
1.0
 41
0.18
 42
0.0625
 43
0.38
 44
0.18
 45
0.0
 46
0.0
 47
0.0
 48
0.0
140
0.18
141
0.09
142
0.0
143
25.3999999999999986
144
1.0
145
0.0
146
1.0
147
0.09
 71
     0
 72
     0
 73
     1
 74
     1
 75
     0
 76
     0
 77
     0
 78
     0
170
     0
171
     2
172
     0
173
     0
174
     0
175
     0
176
     0
177
     0
178
     0
  0
DIMSTYLE
  2
ANNOTATIVE
 70
     0
  3

  4

  5

  6

  7

 40
1.0
 41
0.18
 42
0.0625
 43
0.38
 44
0.18
 45
0.0
 46
0.0
 47
0.0
 48
0.0
140
0.18
141
0.09
142
0.0
143
25.3999999999999986
144
1.0
145
0.0
146
1.0
147
0.09
 71
     0
 72
     0
 73
     1
 74
     1
 75
     0
 76
     0
 77
     0
 78
     0
170
     0
171
     2
172
     0
173
     0
174
     0
175
     0
176
     0
177
     0
178
     0
  0
ENDTAB
  0
ENDSEC
  0
SECTION
  2
BLOCKS
  0
BLOCK
  8
0
  2
$MODEL_SPACE
 70
     0
 10
0.0
 20
0.0
 30
0.0
  3
$MODEL_SPACE
  1

  0
ENDBLK
  5
2452
  8
0
  0
BLOCK
 67
     1
  8
0
  2
$PAPER_SPACE
 70
     0
 10
0.0
 20
0.0
 30
0.0
  3
$PAPER_SPACE
  1

  0
ENDBLK
  5
244E
 67
     1
  8
0
  0
BLOCK
  8
0
  2
A$C72AC0ED0
 70
     0
 10
0.0
 20
0.0
 30
0.0
  3
A$C72AC0ED0
  1

  0
LINE
  5
232E
  8
0
  6
CONTINUOUS
 62
     3
 10
669.6964869319383524
 20
-57.6471419607908899
 30
0.0
 11
756.9467136614197216
 21
-57.6471419607908899
 31
0.0
210
0.0
220
1.0
230
0.0
  0
LINE
  5
232F
  8
0
  6
CONTINUOUS
 62
     3
 10
673.3216002966790938
 20
57.3528580392091598
 30
0.0
 11
753.3216002966792075
 21
57.3528580392091598
 31
0.0
210
0.0
220
1.0
230
0.0
  0
LINE
  5
2330
  8
0
  6
CONTINUOUS
 62
     3
 10
669.6964869319383524
 20
-57.6471419607908899
 30
0.0
 11
668.8216002966790938
 21
-47.6471419607906483
 31
0.0
210
0.0
220
1.0
230
0.0
  0
LINE
  5
2331
  8
0
  6
CONTINUOUS
 62
     3
 10
756.9467136614197216
 20
-57.6471419607908899
 30
0.0
 11
757.8216002966792075
 21
-47.6471419607906483
 31
0.0
210
0.0
220
1.0
230
0.0
  0
LINE
  5
2332
  8
0
  6
CONTINUOUS
 62
     3
 10
753.3216002966792075
 20
57.3528580392091598
 30
0.0
 11
755.6196379260568392
 21
52.2461077517033701
 31
0.0
210
0.0
220
1.0
230
0.0
  0
LINE
  5
2333
  8
0
  6
CONTINUOUS
 62
     3
 10
673.3216002966790938
 20
57.3528580392091598
 30
0.0
 11
671.0235626673013485
 21
52.2461077517033701
 31
0.0
210
0.0
220
1.0
230
0.0
  0
ARC
  5
2334
  8
0
  6
CONTINUOUS
 62
     3
 10
-693.8216002966812539
 20
41.9869908184829228
 30
0.0
 40
25.0000000000020499
210
0.0
220
0.0
230
-1.0
 50
0.0
 51
24.2277453179526105
  0
ARC
  5
2335
  8
0
  6
CONTINUOUS
 62
     3
 10
-732.8216002966771612
 20
41.9869908184829228
 30
0.0
 40
25.0000000000020393
210
0.0
220
0.0
230
-1.0
 50
155.7722546820465936
 51
179.9999999999992042
  0
LINE
  5
2336
  8
0
  6
CONTINUOUS
 62
     3
 10
757.8216002966792075
 20
41.9869908184832923
 30
0.0
 11
757.8216002966792075
 21
-47.6471419607906483
 31
0.0
210
0.0
220
1.0
230
0.0
  0
LINE
  5
2337
  8
0
  6
CONTINUOUS
 62
     3
 10
668.8216002966790938
 20
41.9869908184832923
 30
0.0
 11
668.8216002966790938
 21
-47.6471419607906483
 31
0.0
210
0.0
220
1.0
230
0.0
  0
LINE
  5
2338
  8
0
  6
CONTINUOUS
 62
     3
 10
673.5562029684039089
 20
132.3528580392089964
 30
0.0
 11
753.0869976249546198
 21
132.3528580392089964
 31
0.0
210
0.0
220
1.0
230
0.0
  0
ARC
  5
2339
  8
0
  6
CONTINUOUS
 62
     3
 10
-696.2216002966813448
 20
117.0528580392119977
 30
0.0
 40
25.0000932431290614
210
0.0
220
0.0
230
-1.0
 50
338.8168456069587933
 51
0.1564859551404263
  0
ARC
  5
233A
  8
0
  6
CONTINUOUS
 62
     3
 10
-730.4216002966763881
 20
117.0528580392119977
 30
0.0
 40
25.0000932431291787
210
0.0
220
0.0
230
-1.0
 50
179.843514044859603
 51
201.1831543930412067
  0
ARC
  5
233B
  8
0
  6
CONTINUOUS
 62
     3
 10
-661.7216002966808901
 20
103.6828580392092931
 30
0.0
 40
11.9999999999982805
210
0.0
220
0.0
230
-1.0
 50
158.8168456069653871
 51
180.0000000000007958
  0
ARC
  5
233C
  8
0
  6
CONTINUOUS
 62
     3
 10
-764.921600296677525
 20
103.6828580392092931
 30
0.0
 40
11.9999999999982805
210
0.0
220
0.0
230
-1.0
 50
359.9999999999984084
 51
21.1831543930345987
  0
LINE
  5
233D
  8
0
  6
CONTINUOUS
 62
     3
 10
752.9216002966790029
 20
103.6828580392090942
 30
0.0
 11
752.9216002966790029
 21
82.7415844566258727
 31
0.0
210
0.0
220
1.0
230
0.0
  0
LINE
  5
233E
  8
0
  6
CONTINUOUS
 62
     3
 10
673.7216002966792985
 20
103.6828580392090942
 30
0.0
 11
673.7216002966792985
 21
82.7415844566258727
 31
0.0
210
0.0
220
1.0
230
0.0
  0
ARC
  5
233F
  8
0
  6
CONTINUOUS
 62
     3
 10
-685.7216002966797532
 20
82.7415844566261711
 30
0.0
 40
12.0000000000005702
210
0.0
220
0.0
230
-1.0
 50
327.6719358778394167
 51
359.9999999999984084
  0
ARC
  5
2340
  8
0
  6
CONTINUOUS
 62
     3
 10
-740.9216002966785481
 20
82.7415844566261711
 30
0.0
 40
12.0000000000005702
210
0.0
220
0.0
230
-1.0
 50
180.0000000000015916
 51
212.3280641221606118
  0
ARC
  5
2341
  8
0
  6
CONTINUOUS
 62
     3
 10
-668.8216002966781843
 20
72.046258374640388
 30
0.0
 40
8.0000000000009113
210
0.0
220
0.0
230
-1.0
 50
147.6719358778393882
 51
180.0000000000015916
  0
ARC
  5
2342
  8
0
  6
CONTINUOUS
 62
     3
 10
-757.821600296680117
 20
72.046258374640388
 30
0.0
 40
8.0000000000009095
210
0.0
220
0.0
230
-1.0
 50
0.0
 51
32.3280641221617131
  0
LINE
  5
2343
  8
0
  6
CONTINUOUS
 62
     3
 10
749.8216002966792075
 20
72.046258374640189
 30
0.0
 11
749.8216002966792075
 21
64.2414018592074001
 31
0.0
210
0.0
220
1.0
230
0.0
  0
LINE
  5
2344
  8
0
  6
CONTINUOUS
 62
     3
 10
676.8216002966790938
 20
72.046258374640189
 30
0.0
 11
676.8216002966790938
 21
64.2414018592074001
 31
0.0
210
0.0
220
1.0
230
0.0
  0
ARC
  5
2345
  8
0
  6
CONTINUOUS
 62
     3
 10
-668.8216002966790938
 20
64.2414018592076701
 30
0.0
 40
8.0
210
0.0
220
0.0
230
-1.0
 50
180.0000000000015916
 51
206.5650511770813011
  0
ARC
  5
2346
  8
0
  6
CONTINUOUS
 62
     3
 10
-757.8216002966794349
 20
64.2414018592076701
 30
0.0
 40
8.0000000000001048
210
0.0
220
0.0
230
-1.0
 50
333.4349488229191252
 51
359.9999999999984084
  0
LINE
  5
2347
  8
0
  6
CONTINUOUS
 62
     3
 10
750.666182768679846
 20
60.6636930952076128
 30
0.0
 11
752.3216002966794349
 21
57.3528580392091314
 31
0.0
210
0.0
220
1.0
230
0.0
  0
LINE
  5
2348
  8
0
  6
CONTINUOUS
 62
     3
 10
675.9770178246784553
 20
60.6636930952076128
 30
0.0
 11
674.3216002966787528
 21
57.3528580392091314
 31
0.0
210
0.0
220
1.0
230
0.0
  0
ARC
  5
2349
  8
0
  6
CONTINUOUS
 62
     3
 10
-696.221600296678389
 20
121.8039356320904005
 30
0.0
 40
24.9999999999994316
210
0.0
220
0.0
230
-1.0
 50
359.9999999999992042
 51
24.9581963123160513
  0
ARC
  5
234A
  8
0
  6
CONTINUOUS
 62
     3
 10
-730.4216002966795713
 20
121.8039356320904005
 30
0.0
 40
24.9999999999994316
210
0.0
220
0.0
230
-1.0
 50
155.0418036876837959
 51
180.0000000000007958
  0
LINE
  5
234B
  8
0
  6
CONTINUOUS
 62
     3
 10
755.4216002966792303
 20
121.8039356320902016
 30
0.0
 11
755.4216002966792303
 21
117.1211380877468997
 31
0.0
210
0.0
220
1.0
230
0.0
  0
LINE
  5
234C
  8
0
  6
CONTINUOUS
 62
     3
 10
671.2216002966790711
 20
121.8039356320902016
 30
0.0
 11
671.2216002966790711
 21
117.1211380877468997
 31
0.0
210
0.0
220
1.0
230
0.0
  0
LINE
  5
234D
  8
0
  6
VERDECKT
 62
     1
 10
671.3025986720077753
 20
-57.6471419607908899
 30
0.0
 11
670.4216002966792303
 21
-47.577284452136567
 31
0.0
210
0.0
220
1.0
230
0.0
  0
LINE
  5
234E
  8
0
  6
VERDECKT
 62
     1
 10
755.340601921350526
 20
-57.6471419607908899
 30
0.0
 11
756.2216002966789574
 21
-47.577284452136567
 31
0.0
210
0.0
220
1.0
230
0.0
  0
LINE
  5
234F
  8
0
  6
VERDECKT
 62
     1
 10
756.2216002966789574
 20
41.9869908184832923
 30
0.0
 11
756.2216002966789574
 21
-47.577284452136567
 31
0.0
210
0.0
220
1.0
230
0.0
  0
LINE
  5
2350
  8
0
  6
VERDECKT
 62
     1
 10
670.4216002966792303
 20
41.9869908184832923
 30
0.0
 11
670.4216002966792303
 21
-47.577284452136567
 31
0.0
210
0.0
220
1.0
230
0.0
  0
ARC
  5
2351
  8
0
  6
VERDECKT
 62
     1
 10
-693.8216002966781843
 20
41.9869908184836831
 30
0.0
 40
23.3999999999991815
210
0.0
220
0.0
230
-1.0
 50
359.9999999999992042
 51
24.2277453179544295
  0
ARC
  5
2352
  8
0
  6
VERDECKT
 62
     1
 10
-732.821600296679776
 20
41.9869908184836831
 30
0.0
 40
23.3999999999991815
210
0.0
220
0.0
230
-1.0
 50
155.7722546820455989
 51
180.0000000000007958
  0
LINE
  5
2353
  8
0
  6
VERDECKT
 62
     1
 10
751.5670633207222409
 20
57.3528580392091101
 30
0.0
 11
754.1605635177766089
 21
51.5895242679772821
 31
0.0
210
0.0
220
1.0
230
0.0
  0
LINE
  5
2354
  8
0
  6
VERDECKT
 62
     1
 10
675.0761372726359468
 20
57.3528580392091101
 30
0.0
 11
672.4826370755816924
 21
51.5895242679772821
 31
0.0
210
0.0
220
1.0
230
0.0
  0
LINE
  5
2355
  8
0
  6
VERDECKT
 62
     1
 10
749.2350992630803148
 20
59.94815134240703
 30
0.0
 11
750.5327459146797082
 21
57.3528580392092024
 31
0.0
210
0.0
220
1.0
230
0.0
  0
LINE
  5
2356
  8
0
  6
VERDECKT
 62
     1
 10
677.4081013302779866
 20
59.94815134240703
 30
0.0
 11
676.1104546786784795
 21
57.3528580392092024
 31
0.0
210
0.0
220
1.0
230
0.0
  0
ARC
  5
2357
  8
0
  6
VERDECKT
 62
     1
 10
-668.821600296679776
 20
64.2414018592072864
 30
0.0
 40
9.5999999999992234
210
0.0
220
0.0
230
-1.0
 50
179.9999999999992042
 51
206.5650511770849107
  0
ARC
  5
2358
  8
0
  6
VERDECKT
 62
     1
 10
-757.8216002966784117
 20
64.2414018592072722
 30
0.0
 40
9.5999999999992234
210
0.0
220
0.0
230
-1.0
 50
333.4349488229150893
 51
0.0000000000008142
  0
LINE
  5
2359
  8
0
  6
VERDECKT
 62
     1
 10
748.2216002966789574
 20
72.0462583746400185
 30
0.0
 11
748.2216002966789574
 21
64.2414018592074001
 31
0.0
210
0.0
220
1.0
230
0.0
  0
LINE
  5
235A
  8
0
  6
VERDECKT
 62
     1
 10
678.4216002966792303
 20
72.0462583746400185
 30
0.0
 11
678.4216002966792303
 21
64.2414018592074001
 31
0.0
210
0.0
220
1.0
230
0.0
  0
ARC
  5
235B
  8
0
  6
VERDECKT
 62
     1
 10
-668.8216002966769338
 20
72.0462583746398479
 30
0.0
 40
9.6000000000020798
210
0.0
220
0.0
230
-1.0
 50
147.6719358778404967
 51
179.9999999999992042
  0
ARC
  5
235C
  8
0
  6
VERDECKT
 62
     1
 10
-757.8216002966812539
 20
72.0462583746398479
 30
0.0
 40
9.6000000000020673
210
0.0
220
0.0
230
-1.0
 50
0.0000000000008142
 51
32.3280641221594465
  0
ARC
  5
235D
  8
0
  6
VERDECKT
 62
     1
 10
-685.7216002966788437
 20
82.741584456625759
 30
0.0
 40
10.3999999999997499
210
0.0
220
0.0
230
-1.0
 50
327.6719358778386209
 51
0.0
  0
ARC
  5
235E
  8
0
  6
VERDECKT
 62
     1
 10
-740.921600296679344
 20
82.741584456625759
 30
0.0
 40
10.3999999999997499
210
0.0
220
0.0
230
-1.0
 50
180.0
 51
212.3280641221608107
  0
LINE
  5
235F
  8
0
  6
VERDECKT
 62
     1
 10
751.3216002966792075
 20
103.6828580392090942
 30
0.0
 11
751.3216002966792075
 21
82.7415844566258016
 31
0.0
210
0.0
220
1.0
230
0.0
  0
LINE
  5
2360
  8
0
  6
VERDECKT
 62
     1
 10
675.3216002966792075
 20
103.6828580392090942
 30
0.0
 11
675.3216002966792075
 21
82.7415844566258016
 31
0.0
210
0.0
220
1.0
230
0.0
  0
ARC
  5
2361
  8
0
  6
VERDECKT
 62
     1
 10
-661.7216002966791848
 20
103.6828580392088952
 30
0.0
 40
13.6000000000001204
210
0.0
220
0.0
230
-1.0
 50
158.8168456069653871
 51
179.9999999999992042
  0
ARC
  5
2362
  8
0
  6
VERDECKT
 62
     1
 10
-764.921600296679344
 20
103.6828580392088952
 30
0.0
 40
13.6000000000001204
210
0.0
220
0.0
230
-1.0
 50
0.0000000000008142
 51
21.1831543930338384
  0
ARC
  5
2363
  8
0
  6
VERDECKT
 62
     1
 10
-696.2216002966871429
 20
117.0528580392103066
 30
0.0
 40
23.4000932431335684
210
0.0
220
0.0
230
-1.0
 50
338.816845606967604
 51
0.1617474302948114
  0
ARC
  5
2364
  8
0
  6
VERDECKT
 62
     1
 10
-730.4216002966713859
 20
117.0528580392103066
 30
0.0
 40
23.4000932431335613
210
0.0
220
0.0
230
-1.0
 50
179.8382525697051904
 51
201.183154393032396
  0
LINE
  5
2365
  8
0
  6
VERDECKT
 62
     1
 10
753.8216002966795486
 20
121.8039356320905
 30
0.0
 11
753.8216002966795486
 21
117.1189170047331061
 31
0.0
210
0.0
220
1.0
230
0.0
  0
LINE
  5
2366
  8
0
  6
VERDECKT
 62
     1
 10
672.8216002966785254
 20
121.8039356320905
 30
0.0
 11
672.8216002966785254
 21
117.1189170047331061
 31
0.0
210
0.0
220
1.0
230
0.0
  0
ARC
  5
2367
  8
0
  6
VERDECKT
 62
     1
 10
-696.2216002966778206
 20
121.8039356320908979
 30
0.0
 40
23.3999999999986095
210
0.0
220
0.0
230
-1.0
 50
0.0
 51
26.7955779312320495
  0
ARC
  5
2368
  8
0
  6
VERDECKT
 62
     1
 10
-730.4216002966802535
 20
121.8039356320908979
 30
0.0
 40
23.3999999999986095
210
0.0
220
0.0
230
-1.0
 50
153.2044220687685936
 51
180.0000000000007958
  0
ENDBLK
  5
236A
  8
0
  0
BLOCK
  8
0
  2
A$C7AC177C5
 70
     0
 10
0.0
 20
0.0
 30
0.0
  3
A$C7AC177C5
  1

  0
CIRCLE
  5
236E
  8
0
  6
CONTINUOUS
 62
     3
 10
509.2642474483301953
 20
562.1568178041161445
 30
0.0
 40
44.5
  0
CIRCLE
  5
236F
  8
0
  6
CONTINUOUS
 62
     3
 10
509.2642474483301953
 20
562.1568178041161445
 30
0.0
 40
34.8999999999999773
  0
CIRCLE
  5
2370
  8
0
  6
CONTINUOUS
 62
     3
 10
509.2642474483301953
 20
562.1568178041161445
 30
0.0
 40
37.9873223762310772
  0
CIRCLE
  5
2371
  8
0
  6
CONTINUOUS
 62
     3
 10
509.2642474483301953
 20
562.1568178041161445
 30
0.0
 40
39.7653973282752986
  0
CIRCLE
  5
2372
  8
0
  6
CONTINUOUS
 62
     3
 10
509.2642474483301953
 20
562.1568178041161445
 30
0.0
 40
42.1000000000000085
  0
CIRCLE
  5
2373
  8
0
  6
CONTINUOUS
 62
     3
 10
509.2642474483301953
 20
562.1568178041161445
 30
0.0
 40
42.1000932431266719
  0
CIRCLE
  5
2374
  8
0
  6
VERDECKT
 62
     1
 10
509.2642474483301953
 20
562.1568178041161445
 30
0.0
 40
43.6251133647407272
  0
CIRCLE
  5
2375
  8
0
  6
VERDECKT
 62
     1
 10
509.2642474483301953
 20
562.1568178041161445
 30
0.0
 40
42.0190016246713185
  0
CIRCLE
  5
2376
  8
0
  6
VERDECKT
 62
     1
 10
509.2642474483301953
 20
562.1568178041161445
 30
0.0
 40
42.8999999999999773
  0
CIRCLE
  5
2377
  8
0
  6
VERDECKT
 62
     1
 10
509.2642474483301953
 20
562.1568178041161445
 30
0.0
 40
38.2454630240432607
  0
CIRCLE
  5
2378
  8
0
  6
VERDECKT
 62
     1
 10
509.2642474483301953
 20
562.1568178041161445
 30
0.0
 40
40.0
  0
CIRCLE
  5
2379
  8
0
  6
VERDECKT
 62
     1
 10
509.2642474483301953
 20
562.1568178041161445
 30
0.0
 40
39.6000000000000227
  0
CIRCLE
  5
237A
  8
0
  6
VERDECKT
 62
     1
 10
509.2642474483301953
 20
562.1568178041161445
 30
0.0
 40
36.5
  0
CIRCLE
  5
237B
  8
0
  6
VERDECKT
 62
     1
 10
509.2642474483301953
 20
562.1568178041161445
 30
0.0
 40
39.0000000000000995
  0
CIRCLE
  5
237C
  8
0
  6
VERDECKT
 62
     1
 10
509.2642474483301953
 20
562.1568178041161445
 30
0.0
 40
37.211145618000387
  0
CIRCLE
  5
237D
  8
0
  6
VERDECKT
 62
     1
 10
509.2642474483301953
 20
562.1568178041161445
 30
0.0
 40
38.0
  0
CIRCLE
  5
237E
  8
0
  6
VERDECKT
 62
     1
 10
509.2642474483301953
 20
562.1568178041161445
 30
0.0
 40
40.4999999999998934
  0
CIRCLE
  5
237F
  8
0
  6
VERDECKT
 62
     1
 10
509.2642474483301953
 20
562.1568178041161445
 30
0.0
 40
40.5000932431257468
  0
ENDBLK
  5
2381
  8
0
  0
ENDSEC
  0
SECTION
  2
ENTITIES
  0
TEXT
  5
8F
  8
VOLL
 10
78.076754716981128
 20
31.025947764705851
 30
0.0
 40
1.8
  1

  7
GREEKS
  0
TEXT
  5
3C2
  8
TEXT
 62
     1
 10
371.1516896065722904
 20
62.216407863550991
 30
0.0
 40
7.0
  1

 41
0.8
  7
GREEKS
 72
     1
 11
371.1516896065722904
 21
62.216407863550991
 31
0.0
  0
TEXT
  5
1866
  8
VOLL
 10
581.8733634051851595
 20
415.8149290135680189
 30
0.0
 40
1.8
  1

  7
GREEKS
  0
INSERT
  5
2485
  8
DEFPOINTS
  2
A$C72AC0ED0
 10
-668.8215990104428101
 20
187.9221126064421128
 30
0.0
  0
INSERT
  5
2486
  8
DEFPOINTS
  2
A$C7AC177C5
 10
-464.7642461620940253
 20
-517.6568176426313812
 30
0.0
  0
VIEWPORT
  5
1FF1
 67
     1
  8
0
 10
8.1286011046364486
 20
11.8633671592308296
 30
0.0
 40
47.7826201973556195
 41
24.33550444314195
 68
     1
 69
     1
1001
ACAD
1000
MVIEW
1002
{
1070
    16
1010
0.0
1020
0.0
1030
0.0
1010
0.0
1020
0.0
1030
1.0
1040
0.0
1040
24.33550444314195
1040
8.1286011046364486
1040
11.8633671592308296
1040
50.0
1040
0.0
1040
0.0
1070
     0
1070
  1500
1070
     1
1070
     1
1070
     0
1070
     0
1070
     0
1070
     0
1040
0.0
1040
0.0
1040
0.0
1040
10.0
1040
10.0
1040
10.0
1040
10.0
1070
     0
1002
{
1002
}
1002
}
  0
VIEWPORT
  5
1FF5
 67
     1
  8
DEFPOINTS
 10
8.1286235240761826
 20
11.6172831533410008
 30
0.0
 40
16.7585473208738414
 41
23.6486236583439116
 68
     2
 69
     2
1001
ACAD
1000
MVIEW
1002
{
1070
    16
1010
754.4792725786089704
1020
355.167880754994826
1030
-48.7338953032258289
1010
0.0
1020
0.0
1030
1.0
1040
0.0
1040
610.4970913722919477
1040
-540.413752140050633
1040
-51.6919667896867807
1040
50.0
1040
0.0
1040
0.0
1070
     0
1070
  1500
1070
     1
1070
     0
1070
     0
1070
     0
1070
     0
1070
     0
1040
0.0
1040
0.0
1040
0.0
1040
1.0
1040
1.0
1040
10.0
1040
10.0
1070
     0
1002
{
1002
}
1002
}
  0
VIEWPORT
  5
1FF9
 67
     1
  8
DEFPOINTS
 10
12.4580006112053994
 20
11.6009718034637199
 30
0.0
 40
2.4638840731633991
 41
4.7038037568035804
 68
     3
 69
     3
1001
ACAD
1000
MVIEW
1002
{
1070
    16
1010
809.5974052097956246
1020
364.931674879257173
1030
-44.7285245952239308
1010
0.0
1020
85.614274333812034
1030
328.4340979605626103
1040
3.1415926535897918
1040
217.2005321152419981
1040
13.8268799902355504
1040
0.0
1040
50.0
1040
0.0
1040
0.0
1070
     0
1070
  1500
1070
     1
1070
     0
1070
     0
1070
     0
1070
     0
1070
     0
1040
0.0
1040
0.0
1040
0.0
1040
1.0
1040
1.0
1040
10.0
1040
10.0
1070
     0
1002
{
1002
}
1002
}
  0
ENDSEC
  0
EOF
