  0
SECTION
  2
HEADER
  9
$ACADVER
  1
AC1009
  9
$INSBASE
 10
0.0
 20
0.0
 30
0.0
  9
$EXTMIN
 10
-0.0425205357341838
 20
-0.0181260584133725
 30
-0.0227886722889252
  9
$EXTMAX
 10
103.3965727925409936
 20
380.3409129995163767
 30
0.006228465302911
  9
$LIMMIN
 10
0.0
 20
0.0
  9
$LIMMAX
 10
419.9999999999998863
 20
594.0
  9
$ORTHOMODE
 70
     1
  9
$REGENMODE
 70
     1
  9
$FILLMODE
 70
     1
  9
$QTEXTMODE
 70
     0
  9
$MIRRTEXT
 70
     1
  9
$DRAGMODE
 70
     2
  9
$LTSCALE
 40
20.0
  9
$OSMODE
 70
    39
  9
$ATTMODE
 70
     1
  9
$TEXTSIZE
 40
3.5
  9
$TRACEWID
 40
0.5
  9
$TEXTSTYLE
  7
STANDARD
  9
$CLAYER
  8
DEFPOINTS
  9
$CELTYPE
  6
BYLAYER
  9
$CECOLOR
 62
   256
  9
$DIMSCALE
 40
2.0
  9
$DIMASZ
 40
3.5
  9
$DIMEXO
 40
1.0
  9
$DIMDLI
 40
7.0
  9
$DIMRND
 40
0.0
  9
$DIMDLE
 40
0.0
  9
$DIMEXE
 40
1.0
  9
$DIMTP
 40
0.0
  9
$DIMTM
 40
0.0
  9
$DIMTXT
 40
3.5
  9
$DIMCEN
 40
1.5
  9
$DIMTSZ
 40
0.0
  9
$DIMTOL
 70
     0
  9
$DIMLIM
 70
     0
  9
$DIMTIH
 70
     0
  9
$DIMTOH
 70
     0
  9
$DIMSE1
 70
     0
  9
$DIMSE2
 70
     0
  9
$DIMTAD
 70
     1
  9
$DIMZIN
 70
     8
  9
$DIMBLK
  1

  9
$DIMASO
 70
     1
  9
$DIMSHO
 70
     0
  9
$DIMPOST
  1

  9
$DIMAPOST
  1

  9
$DIMALT
 70
     0
  9
$DIMALTD
 70
     2
  9
$DIMALTF
 40
25.3999999999999986
  9
$DIMLFAC
 40
1.0
  9
$DIMTOFL
 70
     1
  9
$DIMTVP
 40
0.0
  9
$DIMTIX
 70
     0
  9
$DIMSOXD
 70
     0
  9
$DIMSAH
 70
     0
  9
$DIMBLK1
  1

  9
$DIMBLK2
  1

  9
$DIMSTYLE
  2
STANDARD
  9
$DIMCLRD
 70
     0
  9
$DIMCLRE
 70
     0
  9
$DIMCLRT
 70
     1
  9
$DIMTFAC
 40
0.5142857142857143
  9
$DIMGAP
 40
1.5
  9
$LUNITS
 70
     2
  9
$LUPREC
 70
     2
  9
$SKETCHINC
 40
1.0
  9
$FILLETRAD
 40
0.0
  9
$AUNITS
 70
     0
  9
$AUPREC
 70
     0
  9
$MENU
  1
ACAD
  9
$ELEVATION
 40
0.0
  9
$PELEVATION
 40
0.0
  9
$THICKNESS
 40
0.0
  9
$LIMCHECK
 70
     0
  9
$BLIPMODE
 70
     0
  9
$CHAMFERA
 40
0.0
  9
$CHAMFERB
 40
0.0
  9
$SKPOLY
 70
     0
  9
$TDCREATE
 40
2455397.8646990740671754
  9
$TDUPDATE
 40
2458418.3436689819209278
  9
$TDINDWG
 40
0.1643898264
  9
$TDUSRTIMER
 40
0.1643898264
  9
$USRTIMER
 70
     1
  9
$ANGBASE
 50
0.0
  9
$ANGDIR
 70
     0
  9
$PDMODE
 70
     0
  9
$PDSIZE
 40
0.0
  9
$PLINEWID
 40
0.0
  9
$COORDS
 70
     1
  9
$SPLFRAME
 70
     0
  9
$SPLINETYPE
 70
     6
  9
$SPLINESEGS
 70
     8
  9
$ATTDIA
 70
     1
  9
$ATTREQ
 70
     1
  9
$HANDLING
 70
     1
  9
$HANDSEED
  5
2678
  9
$SURFTAB1
 70
     6
  9
$SURFTAB2
 70
     6
  9
$SURFTYPE
 70
     6
  9
$SURFU
 70
     6
  9
$SURFV
 70
     6
  9
$UCSNAME
  2

  9
$UCSORG
 10
0.0
 20
0.0
 30
0.0
  9
$UCSXDIR
 10
1.0
 20
0.0
 30
0.0
  9
$UCSYDIR
 10
0.0
 20
1.0
 30
0.0
  9
$PUCSNAME
  2

  9
$PUCSORG
 10
0.0
 20
0.0
 30
0.0
  9
$PUCSXDIR
 10
1.0
 20
0.0
 30
0.0
  9
$PUCSYDIR
 10
0.0
 20
1.0
 30
0.0
  9
$USERI1
 70
     0
  9
$USERI2
 70
     0
  9
$USERI3
 70
     0
  9
$USERI4
 70
     0
  9
$USERI5
 70
     0
  9
$USERR1
 40
0.0
  9
$USERR2
 40
0.0
  9
$USERR3
 40
0.0
  9
$USERR4
 40
0.0
  9
$USERR5
 40
0.0
  9
$WORLDVIEW
 70
     1
  9
$SHADEDGE
 70
     3
  9
$SHADEDIF
 70
    70
  9
$TILEMODE
 70
     1
  9
$MAXACTVP
 70
    16
  9
$PLIMCHECK
 70
     0
  9
$PEXTMIN
 10
-0.2393244080964862
 20
-0.2554855339327275
 30
-0.0000000000112498
  9
$PEXTMAX
 10
16.0201585901429695
 20
22.009533498444501
 30
0.0000000000002956
  9
$PLIMMIN
 10
-0.2500002402958907
 20
-0.2499999962453767
  9
$PLIMMAX
 10
10.7499995194082203
 20
8.2499997634587334
  9
$UNITMODE
 70
     0
  9
$VISRETAIN
 70
     0
  9
$PLINEGEN
 70
     0
  9
$PSLTSCALE
 70
     0
  0
ENDSEC
  0
SECTION
  2
TABLES
  0
TABLE
  2
VPORT
 70
     1
  0
VPORT
  2
*ACTIVE
 70
     0
 10
0.0
 20
0.0
 11
1.0
 21
1.0
 12
51.6770261284034405
 22
190.1613934705515021
 13
0.0
 23
0.0
 14
1.0
 24
1.0
 15
10.0
 25
10.0
 16
-0.0000000000000012
 26
0.0
 36
5.5852494427615751
 17
0.0
 27
0.0
 37
0.0
 40
383.3978596096574734
 41
2.0800000000000001
 42
50.0
 43
0.0
 44
0.0
 50
0.0
 51
0.0
 71
     0
 72
  1500
 73
     1
 74
     0
 75
     0
 76
     0
 77
     0
 78
     0
  0
ENDTAB
  0
TABLE
  2
LTYPE
 70
     3
  0
LTYPE
  2
CONTINUOUS
 70
     0
  3
Solid line
 72
    65
 73
     0
 40
0.0
  0
LTYPE
  2
AUSGEZOGEN
 70
     0
  3
Ausgezogene Linie
 72
    65
 73
     0
 40
0.0
  0
LTYPE
  2
VERDECKT
 70
     0
  3
Verdeckt __ __ __ __ __ __ __ __ __ __ __ __ __
 72
    65
 73
     2
 40
0.375
 49
0.25
 49
-0.125
  0
ENDTAB
  0
TABLE
  2
LAYER
 70
     4
  0
LAYER
  2
0
 70
     0
 62
     7
  6
CONTINUOUS
  0
LAYER
  2
DEFPOINTS
 70
     0
 62
     7
  6
AUSGEZOGEN
  0
LAYER
  2
VOLL
 70
     0
 62
     1
  6
CONTINUOUS
  0
LAYER
  2
TEXT
 70
     0
 62
     7
  6
CONTINUOUS
  0
ENDTAB
  0
TABLE
  2
STYLE
 70
     3
  0
STYLE
  2
STANDARD
 70
     0
 40
0.0
 41
0.8
 50
0.0
 71
     0
 42
3.5
  3
simplex.shx
  4

  0
STYLE
  2
ANNOTATIVE
 70
     0
 40
0.0
 41
1.0
 50
0.0
 71
     0
 42
0.2
  3
txt
  4

  0
STYLE
  2
GREEKS
 70
     0
 40
0.0
 41
0.8
 50
0.0
 71
     0
 42
2.5
  3
SIMPLEX.shx
  4

  0
ENDTAB
  0
TABLE
  2
VIEW
 70
     0
  0
ENDTAB
  0
TABLE
  2
UCS
 70
     0
  0
ENDTAB
  0
TABLE
  2
APPID
 70
    11
  0
APPID
  2
ACAD
 70
     0
  0
APPID
  2
ACADANNOTATIVE
 70
     0
  0
APPID
  2
ACAD_NAV_VCDISPLAY
 70
     0
  0
APPID
  2
ACAD_PSEXT
 70
     0
  0
APPID
  2
ACAD_EXEMPT_FROM_CAD_STANDARDS
 70
     0
  0
APPID
  2
ACAD_MLEADERVER
 70
     0
  0
APPID
  2
ACAD_DSTYLE_DIMRADIAL_EXTENSION
 70
     0
  0
APPID
  2
ACAECLAYERSTANDARD
 70
     0
  0
APPID
  2
ACCMTRANSPARENCY
 70
     0
  0
APPID
  2
ACAD_OBJECT_CHANGE_GUID
 70
     0
  0
APPID
  2
ACADANNOMONITORALERTICONDI
 70
     0
  0
ENDTAB
  0
TABLE
  2
DIMSTYLE
 70
     2
  0
DIMSTYLE
  2
STANDARD
 70
     0
  3

  4

  5

  6

  7

 40
1.0
 41
0.18
 42
0.0625
 43
0.38
 44
0.18
 45
0.0
 46
0.0
 47
0.0
 48
0.0
140
0.18
141
0.09
142
0.0
143
25.3999999999999986
144
1.0
145
0.0
146
1.0
147
0.09
 71
     0
 72
     0
 73
     1
 74
     1
 75
     0
 76
     0
 77
     0
 78
     0
170
     0
171
     2
172
     0
173
     0
174
     0
175
     0
176
     0
177
     0
178
     0
  0
DIMSTYLE
  2
ANNOTATIVE
 70
     0
  3

  4

  5

  6

  7

 40
1.0
 41
0.18
 42
0.0625
 43
0.38
 44
0.18
 45
0.0
 46
0.0
 47
0.0
 48
0.0
140
0.18
141
0.09
142
0.0
143
25.3999999999999986
144
1.0
145
0.0
146
1.0
147
0.09
 71
     0
 72
     0
 73
     1
 74
     1
 75
     0
 76
     0
 77
     0
 78
     0
170
     0
171
     2
172
     0
173
     0
174
     0
175
     0
176
     0
177
     0
178
     0
  0
ENDTAB
  0
ENDSEC
  0
SECTION
  2
BLOCKS
  0
BLOCK
  8
0
  2
$MODEL_SPACE
 70
     0
 10
0.0
 20
0.0
 30
0.0
  3
$MODEL_SPACE
  1

  0
ENDBLK
  5
25E6
  8
0
  0
BLOCK
 67
     1
  8
0
  2
$PAPER_SPACE
 70
     0
 10
0.0
 20
0.0
 30
0.0
  3
$PAPER_SPACE
  1

  0
ENDBLK
  5
25E2
 67
     1
  8
0
  0
BLOCK
  8
0
  2
A$C795471C8
 70
     0
 10
0.0
 20
0.0
 30
0.0
  3
A$C795471C8
  1

  0
LINE
  5
24C0
  8
0
  6
CONTINUOUS
 62
     3
 10
801.0028882467858011
 20
-18.7676142062163613
 30
0.0
 11
701.6275481525633495
 21
-18.7676142062163613
 31
0.0
210
0.0
220
1.0
230
0.0
  0
LINE
  5
24C1
  8
0
  6
CONTINUOUS
 62
     3
 10
802.3152181996746322
 20
-8.6360164999413769
 30
0.0
 11
700.3152181996746322
 21
-8.6360164999413769
 31
0.0
210
0.0
220
1.0
230
0.0
  0
LINE
  5
24C2
  8
0
  6
CONTINUOUS
 62
     3
 10
791.3152181996746322
 20
121.2323857937836067
 30
0.0
 11
711.3152181996746322
 21
121.2323857937836067
 31
0.0
210
0.0
220
1.0
230
0.0
  0
LINE
  5
24C3
  8
0
  6
CONTINUOUS
 62
     3
 10
701.6275481525633495
 20
-18.7676142062163613
 30
0.0
 11
700.3152181996746322
 21
-8.6360164999413769
 31
0.0
210
0.0
220
1.0
230
0.0
  0
LINE
  5
24C4
  8
0
  6
CONTINUOUS
 62
     3
 10
801.0028882467858011
 20
-18.7676142062163613
 30
0.0
 11
802.3152181996746322
 21
-8.6360164999413769
 31
0.0
210
0.0
220
1.0
230
0.0
  0
LINE
  5
24C5
  8
0
  6
CONTINUOUS
 62
     3
 10
700.3152181996746322
 20
-8.6360164999413769
 30
0.0
 11
700.3152181996746322
 21
98.150104607209073
 31
0.0
210
0.0
220
1.0
230
0.0
  0
LINE
  5
24C6
  8
0
  6
CONTINUOUS
 62
     3
 10
802.3152181996746322
 20
-8.6360164999413769
 30
0.0
 11
802.3152181996746322
 21
98.150104607209073
 31
0.0
210
0.0
220
1.0
230
0.0
  0
ARC
  5
24C7
  8
0
  6
CONTINUOUS
 62
     3
 10
-790.3152181996744048
 20
98.1501046072091441
 30
0.0
 40
12.0000000000002203
210
0.0
220
0.0
230
-1.0
 50
151.1892062570273936
 51
180.0
  0
ARC
  5
24C8
  8
0
  6
CONTINUOUS
 62
     3
 10
-712.3152181996747458
 20
98.1501046072091441
 30
0.0
 40
12.0000000000002292
210
0.0
220
0.0
230
-1.0
 50
0.0
 51
28.8107937429724501
  0
LINE
  5
24C9
  8
0
  6
CONTINUOUS
 62
     3
 10
791.3152181996746322
 20
121.2323857937836067
 30
0.0
 11
800.8298091037943323
 21
103.933129604474999
 31
0.0
210
0.0
220
1.0
230
0.0
  0
LINE
  5
24CA
  8
0
  6
CONTINUOUS
 62
     3
 10
711.3152181996746322
 20
121.2323857937836067
 30
0.0
 11
701.8006272955548184
 21
103.933129604474999
 31
0.0
210
0.0
220
1.0
230
0.0
  0
LINE
  5
24CB
  8
0
  6
CONTINUOUS
 62
     3
 10
711.5498208713993336
 20
196.2323857937834077
 30
0.0
 11
791.0806155279499308
 21
196.2323857937834077
 31
0.0
210
0.0
220
1.0
230
0.0
  0
ARC
  5
24CC
  8
0
  6
CONTINUOUS
 62
     3
 10
-734.2152181996769968
 20
180.9323857937864091
 30
0.0
 40
25.0000932431290614
210
0.0
220
0.0
230
-1.0
 50
338.8168456069591912
 51
0.1564859551404263
  0
ARC
  5
24CD
  8
0
  6
CONTINUOUS
 62
     3
 10
-768.4152181996721538
 20
180.9323857937864943
 30
0.0
 40
25.0000932431291787
210
0.0
220
0.0
230
-1.0
 50
179.843514044859603
 51
201.1831543930408088
  0
ARC
  5
24CE
  8
0
  6
CONTINUOUS
 62
     3
 10
-699.7152181996763147
 20
167.5623857937837897
 30
0.0
 40
11.9999999999982805
210
0.0
220
0.0
230
-1.0
 50
158.8168456069653871
 51
180.0000000000007958
  0
ARC
  5
24CF
  8
0
  6
CONTINUOUS
 62
     3
 10
-802.9152181996729496
 20
167.5623857937837897
 30
0.0
 40
11.9999999999982805
210
0.0
220
0.0
230
-1.0
 50
359.9999999999984084
 51
21.1831543930345987
  0
LINE
  5
24D0
  8
0
  6
CONTINUOUS
 62
     3
 10
790.9152181996746549
 20
167.5623857937835908
 30
0.0
 11
790.9152181996746549
 21
146.6211122112003125
 31
0.0
210
0.0
220
1.0
230
0.0
  0
LINE
  5
24D1
  8
0
  6
CONTINUOUS
 62
     3
 10
711.7152181996747231
 20
167.5623857937835908
 30
0.0
 11
711.7152181996747231
 21
146.6211122112003125
 31
0.0
210
0.0
220
1.0
230
0.0
  0
ARC
  5
24D2
  8
0
  6
CONTINUOUS
 62
     3
 10
-723.7152181996749505
 20
146.6211122112007104
 30
0.0
 40
12.0000000000005702
210
0.0
220
0.0
230
-1.0
 50
327.6719358778394167
 51
359.9999999999984084
  0
ARC
  5
24D3
  8
0
  6
CONTINUOUS
 62
     3
 10
-778.9152181996737454
 20
146.6211122112007104
 30
0.0
 40
12.0000000000005702
210
0.0
220
0.0
230
-1.0
 50
180.0000000000015916
 51
212.3280641221606118
  0
ARC
  5
24D4
  8
0
  6
CONTINUOUS
 62
     3
 10
-706.8152181996737227
 20
135.9257861292147993
 30
0.0
 40
8.0000000000009095
210
0.0
220
0.0
230
-1.0
 50
147.6719358778393882
 51
180.0000000000015916
  0
ARC
  5
24D5
  8
0
  6
CONTINUOUS
 62
     3
 10
-795.8152181996755417
 20
135.9257861292147993
 30
0.0
 40
8.0000000000009095
210
0.0
220
0.0
230
-1.0
 50
0.0
 51
32.3280641221617131
  0
LINE
  5
24D6
  8
0
  6
CONTINUOUS
 62
     3
 10
787.8152181996746322
 20
135.9257861292146004
 30
0.0
 11
787.8152181996746322
 21
128.1209296137818114
 31
0.0
210
0.0
220
1.0
230
0.0
  0
LINE
  5
24D7
  8
0
  6
CONTINUOUS
 62
     3
 10
714.8152181996746322
 20
135.9257861292146004
 30
0.0
 11
714.8152181996746322
 21
128.1209296137818114
 31
0.0
210
0.0
220
1.0
230
0.0
  0
ARC
  5
24D8
  8
0
  6
CONTINUOUS
 62
     3
 10
-706.8152181996745185
 20
128.1209296137820104
 30
0.0
 40
8.0000000000001137
210
0.0
220
0.0
230
-1.0
 50
180.0000000000015916
 51
206.5650511770809032
  0
ARC
  5
24D9
  8
0
  6
CONTINUOUS
 62
     3
 10
-795.8152181996747458
 20
128.1209296137820104
 30
0.0
 40
8.0000000000001084
210
0.0
220
0.0
230
-1.0
 50
333.4349488229191252
 51
359.9999999999984084
  0
LINE
  5
24DA
  8
0
  6
CONTINUOUS
 62
     3
 10
788.6598006716754981
 20
124.5432208497821023
 30
0.0
 11
790.3152181996747458
 21
121.2323857937836067
 31
0.0
210
0.0
220
1.0
230
0.0
  0
LINE
  5
24DB
  8
0
  6
CONTINUOUS
 62
     3
 10
713.9706357276736526
 20
124.5432208497821023
 30
0.0
 11
712.3152181996744048
 21
121.2323857937836067
 31
0.0
210
0.0
220
1.0
230
0.0
  0
ARC
  5
24DC
  8
0
  6
CONTINUOUS
 62
     3
 10
-734.2152181996739273
 20
185.6834633866648971
 30
0.0
 40
24.9999999999994316
210
0.0
220
0.0
230
-1.0
 50
359.9999999999992042
 51
24.9581963123160513
  0
ARC
  5
24DD
  8
0
  6
CONTINUOUS
 62
     3
 10
-768.415218199674996
 20
185.6834633866648971
 30
0.0
 40
24.9999999999994316
210
0.0
220
0.0
230
-1.0
 50
155.0418036876837959
 51
180.0000000000007958
  0
LINE
  5
24DE
  8
0
  6
CONTINUOUS
 62
     3
 10
793.4152181996746549
 20
185.6834633866646982
 30
0.0
 11
793.4152181996746549
 21
181.0006658423214105
 31
0.0
210
0.0
220
1.0
230
0.0
  0
LINE
  5
24DF
  8
0
  6
CONTINUOUS
 62
     3
 10
709.2152181996747231
 20
185.6834633866646982
 30
0.0
 11
709.2152181996747231
 21
181.0006658423214105
 31
0.0
210
0.0
220
1.0
230
0.0
  0
LINE
  5
24E0
  8
0
  6
VERDECKT
 62
     1
 10
800.3152181996746322
 20
-8.5070268532520572
 30
0.0
 11
702.3152181996746322
 21
-8.5070268532520572
 31
0.0
210
0.0
220
1.0
230
0.0
  0
LINE
  5
24E1
  8
0
  6
VERDECKT
 62
     1
 10
789.0326757575719512
 20
121.2323857937836067
 30
0.0
 11
799.0773772864411058
 21
102.9692921049307017
 31
0.0
210
0.0
220
1.0
230
0.0
  0
LINE
  5
24E2
  8
0
  6
VERDECKT
 62
     1
 10
713.5977606417771995
 20
121.2323857937836067
 30
0.0
 11
703.5530591129079312
 21
102.9692921049307017
 31
0.0
210
0.0
220
1.0
230
0.0
  0
ARC
  5
24E3
  8
0
  6
VERDECKT
 62
     1
 10
-790.3152181996755417
 20
98.1501046072093573
 30
0.0
 40
9.9999999999989786
210
0.0
220
0.0
230
-1.0
 50
151.1892062570252904
 51
180.0000000000015916
  0
ARC
  5
24E4
  8
0
  6
VERDECKT
 62
     1
 10
-712.315218199673609
 20
98.1501046072093573
 30
0.0
 40
9.9999999999989768
210
0.0
220
0.0
230
-1.0
 50
0.0
 51
28.8107937429764789
  0
LINE
  5
24E5
  8
0
  6
VERDECKT
 62
     1
 10
702.3152181996746322
 20
-8.5070268532520572
 30
0.0
 11
702.3152181996746322
 21
98.150104607209073
 31
0.0
210
0.0
220
1.0
230
0.0
  0
LINE
  5
24E6
  8
0
  6
VERDECKT
 62
     1
 10
800.3152181996746322
 20
-8.5070268532520572
 30
0.0
 11
800.3152181996746322
 21
98.150104607209073
 31
0.0
210
0.0
220
1.0
230
0.0
  0
LINE
  5
24E7
  8
0
  6
VERDECKT
 62
     1
 10
703.6442559790948508
 20
-18.7676142062163613
 30
0.0
 11
702.3152181996746322
 21
-8.5070268532520572
 31
0.0
210
0.0
220
1.0
230
0.0
  0
LINE
  5
24E8
  8
0
  6
VERDECKT
 62
     1
 10
798.9861804202545272
 20
-18.7676142062163613
 30
0.0
 11
800.3152181996746322
 21
-8.5070268532520572
 31
0.0
210
0.0
220
1.0
230
0.0
  0
LINE
  5
24E9
  8
0
  6
VERDECKT
 62
     1
 10
787.2287171660758531
 20
123.8276790969814982
 30
0.0
 11
788.5263638176747918
 21
121.2323857937836067
 31
0.0
210
0.0
220
1.0
230
0.0
  0
LINE
  5
24EA
  8
0
  6
VERDECKT
 62
     1
 10
715.4017192332734112
 20
123.8276790969814982
 30
0.0
 11
714.1040725816741315
 21
121.2323857937836067
 31
0.0
210
0.0
220
1.0
230
0.0
  0
ARC
  5
24EB
  8
0
  6
VERDECKT
 62
     1
 10
-706.815218199675428
 20
128.1209296137816125
 30
0.0
 40
9.5999999999992234
210
0.0
220
0.0
230
-1.0
 50
179.9999999999992042
 51
206.5650511770845128
  0
ARC
  5
24EC
  8
0
  6
VERDECKT
 62
     1
 10
-795.8152181996737227
 20
128.1209296137816125
 30
0.0
 40
9.5999999999992234
210
0.0
220
0.0
230
-1.0
 50
333.4349488229153167
 51
0.0000000000008142
  0
LINE
  5
24ED
  8
0
  6
VERDECKT
 62
     1
 10
786.2152181996747231
 20
135.9257861292144867
 30
0.0
 11
786.2152181996747231
 21
128.1209296137818114
 31
0.0
210
0.0
220
1.0
230
0.0
  0
LINE
  5
24EE
  8
0
  6
VERDECKT
 62
     1
 10
716.4152181996746549
 20
135.9257861292144867
 30
0.0
 11
716.4152181996746549
 21
128.1209296137818114
 31
0.0
210
0.0
220
1.0
230
0.0
  0
ARC
  5
24EF
  8
0
  6
VERDECKT
 62
     1
 10
-706.8152181996723584
 20
135.9257861292142024
 30
0.0
 40
9.6000000000021792
210
0.0
220
0.0
230
-1.0
 50
147.6719358778404967
 51
179.9999999999992042
  0
ARC
  5
24F0
  8
0
  6
VERDECKT
 62
     1
 10
-795.8152181996766785
 20
135.9257861292142024
 30
0.0
 40
9.6000000000020673
210
0.0
220
0.0
230
-1.0
 50
0.0000000000008142
 51
32.3280641221594465
  0
ARC
  5
24F1
  8
0
  6
VERDECKT
 62
     1
 10
-723.7152181996742684
 20
146.6211122112001988
 30
0.0
 40
10.3999999999997499
210
0.0
220
0.0
230
-1.0
 50
327.6719358778386209
 51
0.0
  0
ARC
  5
24F2
  8
0
  6
VERDECKT
 62
     1
 10
-778.9152181996746549
 20
146.6211122112001988
 30
0.0
 40
10.3999999999997499
210
0.0
220
0.0
230
-1.0
 50
180.0
 51
212.3280641221612086
  0
LINE
  5
24F3
  8
0
  6
VERDECKT
 62
     1
 10
789.3152181996746322
 20
167.5623857937835908
 30
0.0
 11
789.3152181996746322
 21
146.6211122112003125
 31
0.0
210
0.0
220
1.0
230
0.0
  0
LINE
  5
24F4
  8
0
  6
VERDECKT
 62
     1
 10
713.3152181996746322
 20
167.5623857937835908
 30
0.0
 11
713.3152181996746322
 21
146.6211122112003125
 31
0.0
210
0.0
220
1.0
230
0.0
  0
ARC
  5
24F5
  8
0
  6
VERDECKT
 62
     1
 10
-699.7152181996744957
 20
167.5623857937833918
 30
0.0
 40
13.6000000000001204
210
0.0
220
0.0
230
-1.0
 50
158.8168456069653871
 51
179.9999999999992042
  0
ARC
  5
24F6
  8
0
  6
VERDECKT
 62
     1
 10
-802.9152181996747686
 20
167.5623857937833918
 30
0.0
 40
13.6000000000001204
210
0.0
220
0.0
230
-1.0
 50
0.0000000000008142
 51
21.1831543930338384
  0
ARC
  5
24F7
  8
0
  6
VERDECKT
 62
     1
 10
-734.2152181996824538
 20
180.932385793784789
 30
0.0
 40
23.4000932431335684
210
0.0
220
0.0
230
-1.0
 50
338.8168456069672061
 51
0.1617474302948114
  0
ARC
  5
24F8
  8
0
  6
VERDECKT
 62
     1
 10
-768.4152181996669242
 20
180.932385793784789
 30
0.0
 40
23.4000932431335613
210
0.0
220
0.0
230
-1.0
 50
179.8382525697051904
 51
201.1831543930327939
  0
LINE
  5
24F9
  8
0
  6
VERDECKT
 62
     1
 10
791.8152181996750869
 20
185.6834633866650108
 30
0.0
 11
791.8152181996750869
 21
180.998444759307489
 31
0.0
210
0.0
220
1.0
230
0.0
  0
LINE
  5
24FA
  8
0
  6
VERDECKT
 62
     1
 10
710.81521819967395
 20
185.6834633866650108
 30
0.0
 11
710.81521819967395
 21
180.998444759307489
 31
0.0
210
0.0
220
1.0
230
0.0
  0
ARC
  5
24FB
  8
0
  6
VERDECKT
 62
     1
 10
-734.2152181996732452
 20
185.6834633866654087
 30
0.0
 40
23.3999999999986095
210
0.0
220
0.0
230
-1.0
 50
359.9999999999992042
 51
26.7955779312313283
  0
ARC
  5
24FC
  8
0
  6
VERDECKT
 62
     1
 10
-768.4152181996759055
 20
185.6834633866654087
 30
0.0
 40
23.3999999999986095
210
0.0
220
0.0
230
-1.0
 50
153.2044220687685936
 51
180.0000000000007958
  0
ENDBLK
  5
24FE
  8
0
  0
BLOCK
  8
0
  2
A$C3D561809
 70
     0
 10
0.0
 20
0.0
 30
0.0
  3
A$C3D561809
  1

  0
CIRCLE
  5
2502
  8
0
  6
CONTINUOUS
 62
     3
 10
614.2847736933820215
 20
529.3345376350697506
 30
0.0
 40
51.0
  0
CIRCLE
  5
2503
  8
0
  6
CONTINUOUS
 62
     3
 10
614.2847736933820215
 20
529.3345376350697506
 30
0.0
 40
34.8999999999999773
  0
CIRCLE
  5
2504
  8
0
  6
CONTINUOUS
 62
     3
 10
614.2847736933820215
 20
529.3345376350700917
 30
0.0
 40
37.9873223762310772
  0
CIRCLE
  5
2505
  8
0
  6
CONTINUOUS
 62
     3
 10
614.2847736933820215
 20
529.3345376350700917
 30
0.0
 40
39.7653973282752986
  0
CIRCLE
  5
2506
  8
0
  6
CONTINUOUS
 62
     3
 10
614.2847736933820215
 20
529.3345376350700917
 30
0.0
 40
42.1000000000000085
  0
CIRCLE
  5
2507
  8
0
  6
CONTINUOUS
 62
     3
 10
614.2847736933820215
 20
529.3345376350700917
 30
0.0
 40
42.1000932431266719
  0
CIRCLE
  5
2508
  8
0
  6
VERDECKT
 62
     1
 10
614.2847736933820215
 20
529.3345376350697506
 30
0.0
 40
49.687670047111169
  0
CIRCLE
  5
2509
  8
0
  6
VERDECKT
 62
     1
 10
614.2847736933820215
 20
529.3345376350697506
 30
0.0
 40
40.0
  0
CIRCLE
  5
250A
  8
0
  6
VERDECKT
 62
     1
 10
614.2847736933820215
 20
529.3345376350697506
 30
0.0
 40
37.7174575578974327
  0
CIRCLE
  5
250B
  8
0
  6
VERDECKT
 62
     1
 10
614.2847736933820215
 20
529.3345376350697506
 30
0.0
 40
49.0
  0
CIRCLE
  5
250C
  8
0
  6
VERDECKT
 62
     1
 10
614.2847736933820215
 20
529.3345376350697506
 30
0.0
 40
47.6709622205796819
  0
CIRCLE
  5
250D
  8
0
  6
VERDECKT
 62
     1
 10
614.2847736933820215
 20
529.3345376350697506
 30
0.0
 40
39.6000000000000227
  0
CIRCLE
  5
250E
  8
0
  6
VERDECKT
 62
     1
 10
614.2847736933820215
 20
529.3345376350697506
 30
0.0
 40
36.5
  0
CIRCLE
  5
250F
  8
0
  6
VERDECKT
 62
     1
 10
614.2847736933820215
 20
529.3345376350697506
 30
0.0
 40
39.0000000000000995
  0
CIRCLE
  5
2510
  8
0
  6
VERDECKT
 62
     1
 10
614.2847736933820215
 20
529.3345376350697506
 30
0.0
 40
37.211145618000387
  0
CIRCLE
  5
2511
  8
0
  6
VERDECKT
 62
     1
 10
614.2847736933820215
 20
529.3345376350697506
 30
0.0
 40
38.0
  0
CIRCLE
  5
2512
  8
0
  6
VERDECKT
 62
     1
 10
614.2847736933820215
 20
529.3345376350700917
 30
0.0
 40
40.4999999999998934
  0
CIRCLE
  5
2513
  8
0
  6
VERDECKT
 62
     1
 10
614.2847736933820215
 20
529.3345376350700917
 30
0.0
 40
40.5000932431257468
  0
ENDBLK
  5
2515
  8
0
  0
ENDSEC
  0
SECTION
  2
ENTITIES
  0
TEXT
  5
8F
  8
VOLL
 10
78.076754716981128
 20
31.025947764705851
 30
0.0
 40
1.8
  1

  7
GREEKS
  0
TEXT
  5
3C2
  8
TEXT
 62
     1
 10
371.1516896065722904
 20
62.216407863550991
 30
0.0
 40
7.0
  1

 41
0.8
  7
GREEKS
 72
     1
 11
371.1516896065722904
 21
62.216407863550991
 31
0.0
  0
TEXT
  5
1C73
  8
VOLL
 10
547.478384882479304
 20
413.6813274217788035
 30
0.0
 40
1.8
  1

  7
GREEKS
  0
INSERT
  5
2619
  8
DEFPOINTS
  2
A$C795471C8
 10
-700.3152183933341348
 20
184.1068435211477095
 30
0.0
  0
INSERT
  5
261A
  8
DEFPOINTS
  2
A$C3D561809
 10
-563.2847738870416379
 20
-478.3345372376671776
 30
0.0
  0
VIEWPORT
  5
206D
 67
     1
  8
0
 10
8.2565012757118375
 20
10.8778732864486596
 30
0.0
 40
44.0625053287979824
 41
22.4408642677211603
 68
     1
 69
     1
1001
ACAD
1000
MVIEW
1002
{
1070
    16
1010
0.0
1020
0.0
1030
0.0
1010
0.0
1020
0.0
1030
1.0
1040
0.0
1040
22.4408642677211603
1040
8.2565012757118375
1040
10.8778732864486596
1040
50.0
1040
0.0
1040
0.0
1070
     0
1070
  1500
1070
     1
1070
     1
1070
     0
1070
     0
1070
     0
1070
     0
1040
0.0
1040
0.0
1040
0.0
1040
10.0
1040
10.0
1040
10.0
1040
10.0
1070
     0
1002
{
1002
}
1002
}
  0
VIEWPORT
  5
2071
 67
     1
  8
DEFPOINTS
 10
7.8905206278410729
 20
10.8777562083467991
 30
0.0
 40
16.2587792396600186
 41
22.2632468402972314
 68
     2
 69
     2
1001
ACAD
1000
MVIEW
1002
{
1070
    16
1010
849.3308540257362438
1020
352.1513000156630824
1030
-1.891061437284139
1010
0.0
1020
0.0
1030
1.0
1040
0.0
1040
606.1926312271607458
1040
-631.684858214091264
1040
-52.6778057117931482
1040
50.0
1040
0.0
1040
0.0
1070
     0
1070
  1500
1070
     1
1070
     0
1070
     0
1070
     0
1070
     0
1070
     0
1040
0.0
1040
0.0
1040
0.0
1040
1.0
1040
1.0
1040
10.0
1040
10.0
1070
     0
1002
{
1002
}
1002
}
  0
VIEWPORT
  5
2188
 67
     1
  8
DEFPOINTS
 10
12.3166787893244596
 20
11.0625459183276096
 30
0.0
 40
3.0111447996298311
 41
5.3757558826339666
 68
     3
 69
     3
1001
ACAD
1000
MVIEW
1002
{
1070
    16
1010
866.3148936393762369
1020
370.2925444801625758
1030
2.441177849420042
1010
0.0
1020
90.6402919735513848
1030
389.2942686147700897
1040
3.1415926535897918
1040
242.0913404569492968
1040
0.0
1040
0.0
1040
50.0
1040
0.0
1040
0.0
1070
     0
1070
  1500
1070
     1
1070
     0
1070
     0
1070
     0
1070
     0
1070
     0
1040
0.0
1040
0.0
1040
0.0
1040
1.0
1040
1.0
1040
10.0
1040
10.0
1070
     0
1002
{
1002
}
1002
}
  0
ENDSEC
  0
EOF
