  0
SECTION
  2
HEADER
  9
$ACADVER
  1
AC1009
  9
$INSBASE
 10
0.0
 20
0.0
 30
0.0
  9
$EXTMIN
 10
-0.0405302727276649
 20
-0.0181260584133725
 30
-0.0251084202518541
  9
$EXTMAX
 10
102.9142157328920035
 20
405.492737979968922
 30
0.0058266423766327
  9
$LIMMIN
 10
0.0
 20
0.0
  9
$LIMMAX
 10
419.9999999999998863
 20
594.0
  9
$ORTHOMODE
 70
     1
  9
$REGENMODE
 70
     1
  9
$FILLMODE
 70
     1
  9
$QTEXTMODE
 70
     0
  9
$MIRRTEXT
 70
     1
  9
$DRAGMODE
 70
     2
  9
$LTSCALE
 40
20.0
  9
$OSMODE
 70
    39
  9
$ATTMODE
 70
     1
  9
$TEXTSIZE
 40
3.5
  9
$TRACEWID
 40
0.5
  9
$TEXTSTYLE
  7
STANDARD
  9
$CLAYER
  8
DEFPOINTS
  9
$CELTYPE
  6
BYLAYER
  9
$CECOLOR
 62
   256
  9
$DIMSCALE
 40
2.0
  9
$DIMASZ
 40
3.5
  9
$DIMEXO
 40
1.0
  9
$DIMDLI
 40
7.0
  9
$DIMRND
 40
0.0
  9
$DIMDLE
 40
0.0
  9
$DIMEXE
 40
1.0
  9
$DIMTP
 40
0.0
  9
$DIMTM
 40
0.0
  9
$DIMTXT
 40
3.5
  9
$DIMCEN
 40
1.5
  9
$DIMTSZ
 40
0.0
  9
$DIMTOL
 70
     0
  9
$DIMLIM
 70
     0
  9
$DIMTIH
 70
     0
  9
$DIMTOH
 70
     0
  9
$DIMSE1
 70
     0
  9
$DIMSE2
 70
     0
  9
$DIMTAD
 70
     1
  9
$DIMZIN
 70
     8
  9
$DIMBLK
  1

  9
$DIMASO
 70
     1
  9
$DIMSHO
 70
     0
  9
$DIMPOST
  1

  9
$DIMAPOST
  1

  9
$DIMALT
 70
     0
  9
$DIMALTD
 70
     2
  9
$DIMALTF
 40
25.3999999999999986
  9
$DIMLFAC
 40
1.0
  9
$DIMTOFL
 70
     1
  9
$DIMTVP
 40
0.0
  9
$DIMTIX
 70
     0
  9
$DIMSOXD
 70
     0
  9
$DIMSAH
 70
     0
  9
$DIMBLK1
  1

  9
$DIMBLK2
  1

  9
$DIMSTYLE
  2
STANDARD
  9
$DIMCLRD
 70
     0
  9
$DIMCLRE
 70
     0
  9
$DIMCLRT
 70
     1
  9
$DIMTFAC
 40
0.5142857142857143
  9
$DIMGAP
 40
1.5
  9
$LUNITS
 70
     2
  9
$LUPREC
 70
     2
  9
$SKETCHINC
 40
1.0
  9
$FILLETRAD
 40
0.0
  9
$AUNITS
 70
     0
  9
$AUPREC
 70
     0
  9
$MENU
  1
ACAD
  9
$ELEVATION
 40
0.0
  9
$PELEVATION
 40
0.0
  9
$THICKNESS
 40
0.0
  9
$LIMCHECK
 70
     0
  9
$BLIPMODE
 70
     0
  9
$CHAMFERA
 40
0.0
  9
$CHAMFERB
 40
0.0
  9
$SKPOLY
 70
     0
  9
$TDCREATE
 40
2455397.8646990740671754
  9
$TDUPDATE
 40
2458418.3432407411746681
  9
$TDINDWG
 40
0.0854604167
  9
$TDUSRTIMER
 40
0.0854604167
  9
$USRTIMER
 70
     1
  9
$ANGBASE
 50
0.0
  9
$ANGDIR
 70
     0
  9
$PDMODE
 70
     0
  9
$PDSIZE
 40
0.0
  9
$PLINEWID
 40
0.0
  9
$COORDS
 70
     1
  9
$SPLFRAME
 70
     0
  9
$SPLINETYPE
 70
     6
  9
$SPLINESEGS
 70
     8
  9
$ATTDIA
 70
     1
  9
$ATTREQ
 70
     1
  9
$HANDLING
 70
     1
  9
$HANDSEED
  5
1A72
  9
$SURFTAB1
 70
     6
  9
$SURFTAB2
 70
     6
  9
$SURFTYPE
 70
     6
  9
$SURFU
 70
     6
  9
$SURFV
 70
     6
  9
$UCSNAME
  2

  9
$UCSORG
 10
0.0
 20
0.0
 30
0.0
  9
$UCSXDIR
 10
1.0
 20
0.0
 30
0.0
  9
$UCSYDIR
 10
0.0
 20
1.0
 30
0.0
  9
$PUCSNAME
  2

  9
$PUCSORG
 10
0.0
 20
0.0
 30
0.0
  9
$PUCSXDIR
 10
1.0
 20
0.0
 30
0.0
  9
$PUCSYDIR
 10
0.0
 20
1.0
 30
0.0
  9
$USERI1
 70
     0
  9
$USERI2
 70
     0
  9
$USERI3
 70
     0
  9
$USERI4
 70
     0
  9
$USERI5
 70
     0
  9
$USERR1
 40
0.0
  9
$USERR2
 40
0.0
  9
$USERR3
 40
0.0
  9
$USERR4
 40
0.0
  9
$USERR5
 40
0.0
  9
$WORLDVIEW
 70
     1
  9
$SHADEDGE
 70
     3
  9
$SHADEDIF
 70
    70
  9
$TILEMODE
 70
     1
  9
$MAXACTVP
 70
    16
  9
$PLIMCHECK
 70
     0
  9
$PEXTMIN
 10
-0.2282763710474072
 20
-0.2436886813335306
 30
-0.0000000000112498
  9
$PEXTMAX
 10
15.92758903940795
 20
22.7275496984198497
 30
0.0000000000002956
  9
$PLIMMIN
 10
-0.2500002402958907
 20
-0.2499999962453767
  9
$PLIMMAX
 10
10.7499995194082203
 20
8.2499997634587334
  9
$UNITMODE
 70
     0
  9
$VISRETAIN
 70
     0
  9
$PLINEGEN
 70
     0
  9
$PSLTSCALE
 70
     0
  0
ENDSEC
  0
SECTION
  2
TABLES
  0
TABLE
  2
VPORT
 70
     1
  0
VPORT
  2
*ACTIVE
 70
     0
 10
0.0
 20
0.0
 11
1.0
 21
1.0
 12
51.4368427300821622
 22
202.7373059607778032
 13
0.0
 23
0.0
 14
1.0
 24
1.0
 15
10.0
 25
10.0
 16
-0.0000000000000012
 26
0.0
 36
5.5852494427615751
 17
0.0
 27
0.0
 37
0.0
 40
408.750631261059084
 41
2.0800000000000001
 42
50.0
 43
0.0
 44
0.0
 50
0.0
 51
0.0
 71
     0
 72
  1500
 73
     1
 74
     0
 75
     0
 76
     0
 77
     0
 78
     0
  0
ENDTAB
  0
TABLE
  2
LTYPE
 70
     3
  0
LTYPE
  2
CONTINUOUS
 70
     0
  3
Solid line
 72
    65
 73
     0
 40
0.0
  0
LTYPE
  2
AUSGEZOGEN
 70
     0
  3
Ausgezogene Linie
 72
    65
 73
     0
 40
0.0
  0
LTYPE
  2
VERDECKT
 70
     0
  3
Verdeckt __ __ __ __ __ __ __ __ __ __ __ __ __
 72
    65
 73
     2
 40
0.375
 49
0.25
 49
-0.125
  0
ENDTAB
  0
TABLE
  2
LAYER
 70
     4
  0
LAYER
  2
0
 70
     0
 62
     7
  6
CONTINUOUS
  0
LAYER
  2
DEFPOINTS
 70
     0
 62
     7
  6
AUSGEZOGEN
  0
LAYER
  2
VOLL
 70
     0
 62
     1
  6
CONTINUOUS
  0
LAYER
  2
TEXT
 70
     0
 62
     7
  6
CONTINUOUS
  0
ENDTAB
  0
TABLE
  2
STYLE
 70
     3
  0
STYLE
  2
STANDARD
 70
     0
 40
0.0
 41
0.8
 50
0.0
 71
     0
 42
3.5
  3
simplex.shx
  4

  0
STYLE
  2
ANNOTATIVE
 70
     0
 40
0.0
 41
1.0
 50
0.0
 71
     0
 42
0.2
  3
txt
  4

  0
STYLE
  2
GREEKS
 70
     0
 40
0.0
 41
0.8
 50
0.0
 71
     0
 42
2.5
  3
SIMPLEX.shx
  4

  0
ENDTAB
  0
TABLE
  2
VIEW
 70
     0
  0
ENDTAB
  0
TABLE
  2
UCS
 70
     0
  0
ENDTAB
  0
TABLE
  2
APPID
 70
    12
  0
APPID
  2
ACAD
 70
     0
  0
APPID
  2
ACADANNOTATIVE
 70
     0
  0
APPID
  2
ACAD_NAV_VCDISPLAY
 70
     0
  0
APPID
  2
ACAECLAYERSTANDARD
 70
     0
  0
APPID
  2
ACCMTRANSPARENCY
 70
     0
  0
APPID
  2
ACAD_STEPID
 70
     0
  0
APPID
  2
ACAD_ASSOCPERSSUBENTMANAGER
 70
     0
  0
APPID
  2
ACAD_MLEADERVER
 70
     0
  0
APPID
  2
ACAD_OBJECT_CHANGE_GUID
 70
     0
  0
APPID
  2
ACAD_PSEXT
 70
     0
  0
APPID
  2
ACAD_EXEMPT_FROM_CAD_STANDARDS
 70
     0
  0
APPID
  2
ACADANNOMONITORALERTICONDI
 70
     0
  0
ENDTAB
  0
TABLE
  2
DIMSTYLE
 70
     2
  0
DIMSTYLE
  2
STANDARD
 70
     0
  3

  4

  5

  6

  7

 40
1.0
 41
0.18
 42
0.0625
 43
0.38
 44
0.18
 45
0.0
 46
0.0
 47
0.0
 48
0.0
140
0.18
141
0.09
142
0.0
143
25.3999999999999986
144
1.0
145
0.0
146
1.0
147
0.09
 71
     0
 72
     0
 73
     1
 74
     1
 75
     0
 76
     0
 77
     0
 78
     0
170
     0
171
     2
172
     0
173
     0
174
     0
175
     0
176
     0
177
     0
178
     0
  0
DIMSTYLE
  2
ANNOTATIVE
 70
     0
  3

  4

  5

  6

  7

 40
1.0
 41
0.18
 42
0.0625
 43
0.38
 44
0.18
 45
0.0
 46
0.0
 47
0.0
 48
0.0
140
0.18
141
0.09
142
0.0
143
25.3999999999999986
144
1.0
145
0.0
146
1.0
147
0.09
 71
     0
 72
     0
 73
     1
 74
     1
 75
     0
 76
     0
 77
     0
 78
     0
170
     0
171
     2
172
     0
173
     0
174
     0
175
     0
176
     0
177
     0
178
     0
  0
ENDTAB
  0
ENDSEC
  0
SECTION
  2
BLOCKS
  0
BLOCK
  8
0
  2
$MODEL_SPACE
 70
     0
 10
0.0
 20
0.0
 30
0.0
  3
$MODEL_SPACE
  1

  0
ENDBLK
  5
19DF
  8
0
  0
BLOCK
 67
     1
  8
0
  2
$PAPER_SPACE
 70
     0
 10
0.0
 20
0.0
 30
0.0
  3
$PAPER_SPACE
  1

  0
ENDBLK
  5
19DB
 67
     1
  8
0
  0
BLOCK
  8
0
  2
A$C120470F2
 70
     0
 10
0.0
 20
0.0
 30
0.0
  3
A$C120470F2
  1

  0
LINE
  5
18B7
  8
0
  6
CONTINUOUS
 62
     3
 10
645.4881248515430343
 20
-7.1190706823844589
 30
0.0
 11
747.4881248515430343
 21
-7.1190706823844589
 31
0.0
210
0.0
220
1.0
230
0.0
  0
LINE
  5
18B8
  8
0
  6
CONTINUOUS
 62
     3
 10
646.8004548044317517
 20
-15.6375164299948306
 30
0.0
 11
746.1757948986542033
 21
-15.6375164299948306
 31
0.0
210
0.0
220
1.0
230
0.0
  0
LINE
  5
18B9
  8
0
  6
CONTINUOUS
 62
     3
 10
656.4881248515430343
 20
129.3624835700051108
 30
0.0
 11
736.4881248515430343
 21
129.3624835700051108
 31
0.0
210
0.0
220
1.0
230
0.0
  0
ARC
  5
18BA
  8
0
  6
CONTINUOUS
 62
     3
 10
-657.4881248515415564
 20
101.2802023834311029
 30
0.0
 40
11.9999999999986304
210
0.0
220
0.0
230
-1.0
 50
0.0
 51
23.2407562175337183
  0
ARC
  5
18BB
  8
0
  6
CONTINUOUS
 62
     3
 10
-735.4881248515445122
 20
101.2802023834311029
 30
0.0
 40
11.9999999999986393
210
0.0
220
0.0
230
-1.0
 50
156.7592437824685021
 51
180.0000000000015916
  0
LINE
  5
18BC
  8
0
  6
CONTINUOUS
 62
     3
 10
747.4881248515430343
 20
101.280202383430705
 30
0.0
 11
747.4881248515430343
 21
-7.1190706823844589
 31
0.0
210
0.0
220
1.0
230
0.0
  0
LINE
  5
18BD
  8
0
  6
CONTINUOUS
 62
     3
 10
645.4881248515430343
 20
101.280202383430705
 30
0.0
 11
645.4881248515430343
 21
-7.1190706823844589
 31
0.0
210
0.0
220
1.0
230
0.0
  0
LINE
  5
18BE
  8
0
  6
CONTINUOUS
 62
     3
 10
646.8004548044317517
 20
-15.6375164299948306
 30
0.0
 11
645.4881248515430343
 21
-7.1190706823844589
 31
0.0
210
0.0
220
1.0
230
0.0
  0
LINE
  5
18BF
  8
0
  6
CONTINUOUS
 62
     3
 10
746.1757948986542033
 20
-15.6375164299948306
 30
0.0
 11
747.4881248515430343
 21
-7.1190706823844589
 31
0.0
210
0.0
220
1.0
230
0.0
  0
LINE
  5
18C0
  8
0
  6
CONTINUOUS
 62
     3
 10
736.4881248515430343
 20
129.3624835700051108
 30
0.0
 11
746.5143834591817722
 21
106.0153498064234014
 31
0.0
210
0.0
220
1.0
230
0.0
  0
LINE
  5
18C1
  8
0
  6
CONTINUOUS
 62
     3
 10
656.4881248515430343
 20
129.3624835700051108
 30
0.0
 11
646.4618662439040691
 21
106.0153498064234014
 31
0.0
210
0.0
220
1.0
230
0.0
  0
LINE
  5
18C2
  8
0
  6
CONTINUOUS
 62
     3
 10
666.8810800023516094
 20
207.362483570005196
 30
0.0
 11
726.0951697007341181
 21
207.362483570005196
 31
0.0
210
0.0
220
1.0
230
0.0
  0
LINE
  5
18C3
  8
0
  6
CONTINUOUS
 62
     3
 10
726.0951697007341181
 20
207.362483570005196
 30
0.0
 11
726.1611266987576983
 21
207.221038331288014
 31
0.0
210
0.0
220
1.0
230
0.0
  0
LINE
  5
18C4
  8
0
  6
CONTINUOUS
 62
     3
 10
666.8810800023516094
 20
207.362483570005196
 30
0.0
 11
666.815123004328143
 21
207.221038331288014
 31
0.0
210
0.0
220
1.0
230
0.0
  0
ARC
  5
18C5
  8
0
  6
CONTINUOUS
 62
     3
 10
-684.4881248515425796
 20
198.9799822273444079
 30
0.0
 40
19.4999999999996483
210
0.0
220
0.0
230
-1.0
 50
0.0
 51
25.0000000000007816
  0
ARC
  5
18C6
  8
0
  6
CONTINUOUS
 62
     3
 10
-708.4881248515434891
 20
198.9799822273444079
 30
0.0
 40
19.4999999999996483
210
0.0
220
0.0
230
-1.0
 50
154.9999999999992042
 51
180.0
  0
LINE
  5
18C7
  8
0
  6
CONTINUOUS
 62
     3
 10
727.9881248515429206
 20
198.9799822273442942
 30
0.0
 11
727.9881248515429206
 21
194.5645192720353123
 31
0.0
210
0.0
220
1.0
230
0.0
  0
LINE
  5
18C8
  8
0
  6
CONTINUOUS
 62
     3
 10
664.9881248515428069
 20
198.9799822273442942
 30
0.0
 11
664.9881248515428069
 21
194.5645192720353123
 31
0.0
210
0.0
220
1.0
230
0.0
  0
ARC
  5
18C9
  8
0
  6
CONTINUOUS
 62
     3
 10
-689.988124851535872
 20
194.5244835700040937
 30
0.0
 40
25.0000320571212491
210
0.0
220
0.0
230
-1.0
 50
340.5369005553080797
 51
0.0917549918117725
  0
ARC
  5
18CA
  8
0
  6
CONTINUOUS
 62
     3
 10
-702.9881248515501966
 20
194.5244835700040937
 30
0.0
 40
25.0000320571212491
210
0.0
220
0.0
230
-1.0
 50
179.908245008188203
 51
199.4630994446918066
  0
ARC
  5
18CB
  8
0
  6
CONTINUOUS
 62
     3
 10
-656.9881248515468997
 20
182.8624835700057076
 30
0.0
 40
9.9999999999959517
210
0.0
220
0.0
230
-1.0
 50
160.536900555306886
 51
179.8548516170995129
  0
ARC
  5
18CC
  8
0
  6
CONTINUOUS
 62
     3
 10
-735.9881248515390553
 20
182.8624835700057076
 30
0.0
 40
9.999999999995957
210
0.0
220
0.0
230
-1.0
 50
0.1451483829004874
 51
19.4630994446931211
  0
LINE
  5
18CD
  8
0
  6
CONTINUOUS
 62
     3
 10
667.0069534633639705
 20
175.4427719159392041
 30
0.0
 11
666.9880927630802034
 21
182.8878167147645115
 31
0.0
210
0.0
220
1.0
230
0.0
  0
LINE
  5
18CE
  8
0
  6
CONTINUOUS
 62
     3
 10
725.9692962397218707
 20
175.4427719159392041
 30
0.0
 11
725.9881569400057515
 21
182.8878167147645115
 31
0.0
210
0.0
220
1.0
230
0.0
  0
ARC
  5
18CF
  8
0
  6
CONTINUOUS
 62
     3
 10
-678.9881248515496281
 20
174.7708104832028084
 30
0.0
 40
12.0000000000067004
210
0.0
220
0.0
230
-1.0
 50
328.211669382959883
 51
3.2100585984990571
  0
ARC
  5
18D0
  8
0
  6
CONTINUOUS
 62
     3
 10
-713.9881248515364405
 20
174.7708104832028084
 30
0.0
 40
12.0000000000067004
210
0.0
220
0.0
230
-1.0
 50
176.7899414015008972
 51
211.7883306170400033
  0
ARC
  5
18D1
  8
0
  6
CONTINUOUS
 62
     3
 10
-661.98812485153951
 20
164.2351567303481943
 30
0.0
 40
8.0000000000028297
210
0.0
220
0.0
230
-1.0
 50
148.2116693829576946
 51
180.0
  0
ARC
  5
18D2
  8
0
  6
CONTINUOUS
 62
     3
 10
-730.9881248515463312
 20
164.2351567303481943
 30
0.0
 40
8.0000000000028422
210
0.0
220
0.0
230
-1.0
 50
0.0
 51
31.7883306170422983
  0
LINE
  5
18D3
  8
0
  6
CONTINUOUS
 62
     3
 10
722.988124851543148
 20
164.2351567303481943
 30
0.0
 11
722.988124851543148
 21
147.2588830514557969
 31
0.0
210
0.0
220
1.0
230
0.0
  0
LINE
  5
18D4
  8
0
  6
CONTINUOUS
 62
     3
 10
669.9881248515424659
 20
164.2351567303481943
 30
0.0
 11
669.9881248515424659
 21
147.2588830514557969
 31
0.0
210
0.0
220
1.0
230
0.0
  0
ARC
  5
18D5
  8
0
  6
CONTINUOUS
 62
     3
 10
-661.9881248515430343
 20
147.258883051455598
 30
0.0
 40
7.99999999999977
210
0.0
220
0.0
230
-1.0
 50
179.9999999999992042
 51
219.8055710922641026
  0
ARC
  5
18D6
  8
0
  6
CONTINUOUS
 62
     3
 10
-730.9881248515429206
 20
147.258883051455598
 30
0.0
 40
7.9999999999996803
210
0.0
220
0.0
230
-1.0
 50
320.1944289077358121
 51
0.0000000000008142
  0
LINE
  5
18D7
  8
0
  6
CONTINUOUS
 62
     3
 10
724.8423546147637353
 20
142.1374078541400081
 30
0.0
 11
735.4881248515430343
 21
129.362483570005196
 31
0.0
210
0.0
220
1.0
230
0.0
  0
LINE
  5
18D8
  8
0
  6
CONTINUOUS
 62
     3
 10
668.1338950883219923
 20
142.1374078541400081
 30
0.0
 11
657.4881248515430343
 21
129.362483570005196
 31
0.0
210
0.0
220
1.0
230
0.0
  0
LINE
  5
18D9
  8
0
  6
VERDECKT
 62
     1
 10
647.4881248515430343
 20
-6.9659166404352391
 30
0.0
 11
745.4881248515430343
 21
-6.9659166404352391
 31
0.0
210
0.0
220
1.0
230
0.0
  0
LINE
  5
18DA
  8
0
  6
VERDECKT
 62
     1
 10
648.8240493242080902
 20
-15.6375164299948306
 30
0.0
 11
647.4881248515430343
 21
-6.9659166404352391
 31
0.0
210
0.0
220
1.0
230
0.0
  0
LINE
  5
18DB
  8
0
  6
VERDECKT
 62
     1
 10
744.1522003788777511
 20
-15.6375164299948306
 30
0.0
 11
745.4881248515430343
 21
-6.9659166404352391
 31
0.0
210
0.0
220
1.0
230
0.0
  0
LINE
  5
18DC
  8
0
  6
VERDECKT
 62
     1
 10
745.4881248515430343
 20
101.280202383430705
 30
0.0
 11
745.4881248515430343
 21
-6.9659166404352391
 31
0.0
210
0.0
220
1.0
230
0.0
  0
LINE
  5
18DD
  8
0
  6
VERDECKT
 62
     1
 10
647.4881248515430343
 20
101.280202383430705
 30
0.0
 11
647.4881248515430343
 21
-6.9659166404352391
 31
0.0
210
0.0
220
1.0
230
0.0
  0
ARC
  5
18DE
  8
0
  6
VERDECKT
 62
     1
 10
-657.4881248515445122
 20
101.2802023834304066
 30
0.0
 40
10.0000000000013607
210
0.0
220
0.0
230
-1.0
 50
0.0000000000016284
 51
23.2363941236034783
  0
ARC
  5
18DF
  8
0
  6
VERDECKT
 62
     1
 10
-735.4881248515415564
 20
101.2802023834304066
 30
0.0
 40
10.0000000000013607
210
0.0
220
0.0
230
-1.0
 50
156.7636058763964968
 51
179.9999999999984084
  0
LINE
  5
18E0
  8
0
  6
VERDECKT
 62
     1
 10
734.3136790004580234
 20
129.3624835700049971
 30
0.0
 11
744.6769740817051115
 21
105.2254590069409943
 31
0.0
210
0.0
220
1.0
230
0.0
  0
LINE
  5
18E1
  8
0
  6
VERDECKT
 62
     1
 10
658.6625707026280452
 20
129.3624835700049971
 30
0.0
 11
648.2992756213809571
 21
105.2254590069409943
 31
0.0
210
0.0
220
1.0
230
0.0
  0
LINE
  5
18E2
  8
0
  6
VERDECKT
 62
     1
 10
723.6900226953681567
 20
141.1771312546433137
 30
0.0
 11
733.5355624325662802
 21
129.3624835700051108
 31
0.0
210
0.0
220
1.0
230
0.0
  0
LINE
  5
18E3
  8
0
  6
VERDECKT
 62
     1
 10
669.2862270077179119
 20
141.1771312546433137
 30
0.0
 11
659.4406872705193337
 21
129.3624835700051108
 31
0.0
210
0.0
220
1.0
230
0.0
  0
ARC
  5
18E4
  8
0
  6
VERDECKT
 62
     1
 10
-661.988124851543148
 20
147.2588830514557117
 30
0.0
 40
9.4999999999995435
210
0.0
220
0.0
230
-1.0
 50
179.9999999999992042
 51
219.80557109226649
  0
ARC
  5
18E5
  8
0
  6
VERDECKT
 62
     1
 10
-730.9881248515428069
 20
147.258883051455598
 30
0.0
 40
9.499999999999547
210
0.0
220
0.0
230
-1.0
 50
320.1944289077334815
 51
0.0000000000008142
  0
LINE
  5
18E6
  8
0
  6
VERDECKT
 62
     1
 10
721.4881248515429206
 20
164.2351567303483932
 30
0.0
 11
721.4881248515429206
 21
147.2588830514557969
 31
0.0
210
0.0
220
1.0
230
0.0
  0
LINE
  5
18E7
  8
0
  6
VERDECKT
 62
     1
 10
671.4881248515425796
 20
164.2351567303483932
 30
0.0
 11
671.4881248515425796
 21
147.2588830514557969
 31
0.0
210
0.0
220
1.0
230
0.0
  0
ARC
  5
18E8
  8
0
  6
VERDECKT
 62
     1
 10
-661.9881248515439438
 20
164.2351567303485922
 30
0.0
 40
9.4999999999988738
210
0.0
220
0.0
230
-1.0
 50
148.2116693829445921
 51
180.0000000000007958
  0
ARC
  5
18E9
  8
0
  6
VERDECKT
 62
     1
 10
-730.9881248515420111
 20
164.2351567303485922
 30
0.0
 40
9.4999999999988631
210
0.0
220
0.0
230
-1.0
 50
0.0
 51
31.7883306170576603
  0
ARC
  5
18EA
  8
0
  6
VERDECKT
 62
     1
 10
-678.9881248515387142
 20
174.7708104831999094
 30
0.0
 40
10.4999999999959197
210
0.0
220
0.0
230
-1.0
 50
328.2116693829440237
 51
0.0000000000065138
  0
ARC
  5
18EB
  8
0
  6
VERDECKT
 62
     1
 10
-713.9881248515473544
 20
174.7708104831999094
 30
0.0
 40
10.4999999999959108
210
0.0
220
0.0
230
-1.0
 50
179.9999999999934062
 51
211.78833061705609
  0
LINE
  5
18EC
  8
0
  6
VERDECKT
 62
     1
 10
724.4881248515429206
 20
182.862483570005196
 30
0.0
 11
724.4881248515429206
 21
174.7708104832011031
 31
0.0
210
0.0
220
1.0
230
0.0
  0
LINE
  5
18ED
  8
0
  6
VERDECKT
 62
     1
 10
668.4881248515428069
 20
182.862483570005196
 30
0.0
 11
668.4881248515428069
 21
174.7708104832011031
 31
0.0
210
0.0
220
1.0
230
0.0
  0
ARC
  5
18EE
  8
0
  6
VERDECKT
 62
     1
 10
-656.9881248515439438
 20
182.862483570005196
 30
0.0
 40
11.4999999999986304
210
0.0
220
0.0
230
-1.0
 50
160.5369005553096997
 51
180.0
  0
ARC
  5
18EF
  8
0
  6
VERDECKT
 62
     1
 10
-735.9881248515415564
 20
182.862483570005196
 30
0.0
 40
11.4999999999985203
210
0.0
220
0.0
230
-1.0
 50
359.9999999999992042
 51
19.4630994446902683
  0
ARC
  5
18F0
  8
0
  6
VERDECKT
 62
     1
 10
-689.9881589512195887
 20
194.5244956206244922
 30
0.0
 40
23.5000682234854992
210
0.0
220
0.0
230
-1.0
 50
340.5369005553105239
 51
359.9023590785637907
  0
ARC
  5
18F1
  8
0
  6
VERDECKT
 62
     1
 10
-702.9880907518663662
 20
194.5244956206244922
 30
0.0
 40
23.5000682234854992
210
0.0
220
0.0
230
-1.0
 50
180.0976409214360956
 51
199.4630994446895045
  0
LINE
  5
18F2
  8
0
  6
VERDECKT
 62
     1
 10
726.488124851543148
 20
198.9799822273442942
 30
0.0
 11
726.488124851543148
 21
194.4844478679972042
 31
0.0
210
0.0
220
1.0
230
0.0
  0
LINE
  5
18F3
  8
0
  6
VERDECKT
 62
     1
 10
666.4881248515428069
 20
198.9799822273442942
 30
0.0
 11
666.4881248515428069
 21
194.4844478679972042
 31
0.0
210
0.0
220
1.0
230
0.0
  0
ARC
  5
18F4
  8
0
  6
VERDECKT
 62
     1
 10
-684.4881248515425796
 20
198.9799822273442942
 30
0.0
 40
17.9999999999998792
210
0.0
220
0.0
230
-1.0
 50
0.0
 51
27.7551793916152896
  0
ARC
  5
18F5
  8
0
  6
VERDECKT
 62
     1
 10
-708.488124851543148
 20
198.9799822273442942
 30
0.0
 40
18.0
210
0.0
220
0.0
230
-1.0
 50
152.244820608384714
 51
180.0
  0
ENDBLK
  5
18F7
  8
0
  0
BLOCK
  8
0
  2
A$C5B11678F
 70
     0
 10
0.0
 20
0.0
 30
0.0
  3
A$C5B11678F
  1

  0
CIRCLE
  5
18FB
  8
0
  6
CONTINUOUS
 62
     3
 10
642.173100716692602
 20
651.6090842028256702
 30
0.0
 40
51.0
  0
CIRCLE
  5
18FC
  8
0
  6
CONTINUOUS
 62
     3
 10
642.173100716692602
 20
651.6090842028256702
 30
0.0
 40
40.0
  0
CIRCLE
  5
18FD
  8
0
  6
CONTINUOUS
 62
     3
 10
642.173100716692602
 20
651.6090842028256702
 30
0.0
 40
29.6070448491914284
  0
CIRCLE
  5
18FE
  8
0
  6
CONTINUOUS
 62
     3
 10
642.173100716692602
 20
651.6090842028256702
 30
0.0
 40
31.5000000000002309
  0
CIRCLE
  5
18FF
  8
0
  6
CONTINUOUS
 62
     3
 10
642.173100716692602
 20
651.6090842028256702
 30
0.0
 40
39.0
  0
CIRCLE
  5
1900
  8
0
  6
CONTINUOUS
 62
     3
 10
642.173100716692602
 20
651.6090842028256702
 30
0.0
 40
25.0000000000002309
  0
CIRCLE
  5
1901
  8
0
  6
CONTINUOUS
 62
     3
 10
642.173100716692602
 20
651.6090842028256702
 30
0.0
 40
27.9290197827831399
  0
CIRCLE
  5
1902
  8
0
  6
CONTINUOUS
 62
     3
 10
642.173100716692602
 20
651.6090842028256702
 30
0.0
 40
31.5000320571284185
  0
CIRCLE
  5
1903
  8
0
  6
VERDECKT
 62
     1
 10
642.173100716692602
 20
651.6090842028256702
 30
0.0
 40
49.687670047111169
  0
CIRCLE
  5
1904
  8
0
  6
VERDECKT
 62
     1
 10
642.173100716692602
 20
651.6090842028256702
 30
0.0
 40
47.6640755273349299
  0
CIRCLE
  5
1905
  8
0
  6
VERDECKT
 62
     1
 10
642.173100716692602
 20
651.6090842028256702
 30
0.0
 40
49.0
  0
CIRCLE
  5
1906
  8
0
  6
VERDECKT
 62
     1
 10
642.173100716692602
 20
651.6090842028256702
 30
0.0
 40
37.8255541489147618
  0
CIRCLE
  5
1907
  8
0
  6
VERDECKT
 62
     1
 10
642.173100716692602
 20
651.6090842028256702
 30
0.0
 40
29.4811713881789501
  0
CIRCLE
  5
1908
  8
0
  6
VERDECKT
 62
     1
 10
642.173100716692602
 20
651.6090842028256702
 30
0.0
 40
26.5000000000006786
  0
CIRCLE
  5
1909
  8
0
  6
VERDECKT
 62
     1
 10
642.173100716692602
 20
651.6090842028256702
 30
0.0
 40
37.0474375810234804
  0
CIRCLE
  5
190A
  8
0
  6
VERDECKT
 62
     1
 10
642.173100716692602
 20
651.6090842028256702
 30
0.0
 40
28.0000000000002309
  0
CIRCLE
  5
190B
  8
0
  6
VERDECKT
 62
     1
 10
642.173100716692602
 20
651.6090842028256702
 30
0.0
 40
30.0000000000002309
  0
CIRCLE
  5
190C
  8
0
  6
VERDECKT
 62
     1
 10
642.173100716692602
 20
651.6090842028256702
 30
0.0
 40
29.5000000000001208
  0
ENDBLK
  5
190E
  8
0
  0
ENDSEC
  0
SECTION
  2
ENTITIES
  0
TEXT
  5
8F
  8
VOLL
 10
78.076754716981128
 20
31.025947764705851
 30
0.0
 40
1.8
  1

  7
GREEKS
  0
TEXT
  5
3C2
  8
TEXT
 62
     1
 10
371.1516896065722904
 20
62.216407863550991
 30
0.0
 40
7.0
  1

 41
0.8
  7
GREEKS
 72
     1
 11
371.1516896065722904
 21
62.216407863550991
 31
0.0
  0
INSERT
  5
1A13
  8
DEFPOINTS
  2
A$C120470F2
 10
-645.4881262519977554
 20
198.1157558642090919
 30
0.0
  0
INSERT
  5
1A14
  8
DEFPOINTS
  2
A$C5B11678F
 10
-591.1731021171467546
 20
-600.6090842888257839
 30
0.0
  0
VIEWPORT
  5
153D
 67
     1
  8
0
 10
7.8499456558485683
 20
11.2423762128677307
 30
0.0
 40
45.4606216244434265
 41
23.1529195125817502
 68
     1
 69
     1
1001
ACAD
1000
MVIEW
1002
{
1070
    16
1010
0.0
1020
0.0
1030
0.0
1010
0.0
1020
0.0
1030
1.0
1040
0.0
1040
23.1529195125817502
1040
7.8499456558485683
1040
11.2423762128677307
1040
50.0
1040
0.0
1040
0.0
1070
     0
1070
  1500
1070
     1
1070
     1
1070
     0
1070
     0
1070
     0
1070
     0
1040
0.0
1040
0.0
1040
0.0
1040
10.0
1040
10.0
1040
10.0
1040
10.0
1070
     0
1002
{
1002
}
1002
}
  0
VIEWPORT
  5
1542
 67
     1
  8
DEFPOINTS
 10
7.8501336162676649
 20
11.24250085136911
 30
0.0
 40
16.1545998818025716
 41
22.9693168374016601
 68
     2
 69
     2
1001
ACAD
1000
MVIEW
1002
{
1070
    16
1010
0.0
1020
0.0
1030
0.0
1010
0.0
1020
0.0
1030
1.0
1040
0.0
1040
618.5129856286796439
1040
211.8834240131027968
1040
303.0883486193824865
1040
50.0
1040
0.0
1040
0.0
1070
     0
1070
  1500
1070
     1
1070
     0
1070
     0
1070
     0
1070
     0
1070
     0
1040
0.0
1040
0.0
1040
0.0
1040
1.0
1040
1.0
1040
10.0
1040
10.0
1070
     0
1002
{
1002
}
1002
}
  0
VIEWPORT
  5
1546
 67
     1
  8
DEFPOINTS
 10
12.8106173710967806
 20
10.7988232557584407
 30
0.0
 40
3.6799061109798838
 41
5.3957567169679521
 68
     3
 69
     3
1001
ACAD
1000
MVIEW
1002
{
1070
    16
1010
859.9718601068458383
1020
367.5602291530873913
1030
7.039850876380485
1010
1.306203247816482
1020
103.2064187659996009
1030
325.6061018736833717
1040
3.1158518892983911
1040
260.746942996573182
1040
0.0
1040
0.0
1040
50.0
1040
0.0
1040
0.0
1070
     0
1070
  1500
1070
     1
1070
     0
1070
     0
1070
     0
1070
     0
1070
     0
1040
0.0
1040
0.0
1040
0.0
1040
1.0
1040
1.0
1040
10.0
1040
10.0
1070
     0
1002
{
1002
}
1002
}
  0
ENDSEC
  0
EOF
