  0
SECTION
  2
HEADER
  9
$ACADVER
  1
AC1009
  9
$INSBASE
 10
0.0
 20
0.0
 30
0.0
  9
$EXTMIN
 10
-0.0214037756786638
 20
-0.0090630292066862
 30
-0.0197298921368656
  9
$EXTMAX
 10
73.6132016174124146
 20
307.7042548543590783
 30
0.0037443182944799
  9
$LIMMIN
 10
0.0
 20
0.0
  9
$LIMMAX
 10
210.0
 20
297.0
  9
$ORTHOMODE
 70
     1
  9
$REGENMODE
 70
     1
  9
$FILLMODE
 70
     1
  9
$QTEXTMODE
 70
     0
  9
$MIRRTEXT
 70
     1
  9
$DRAGMODE
 70
     2
  9
$LTSCALE
 40
10.0
  9
$OSMODE
 70
    39
  9
$ATTMODE
 70
     1
  9
$TEXTSIZE
 40
3.5
  9
$TRACEWID
 40
0.5
  9
$TEXTSTYLE
  7
STANDARD
  9
$CLAYER
  8
DEFPOINTS
  9
$CELTYPE
  6
BYLAYER
  9
$CECOLOR
 62
   256
  9
$DIMSCALE
 40
1.0
  9
$DIMASZ
 40
3.5
  9
$DIMEXO
 40
1.0
  9
$DIMDLI
 40
7.0
  9
$DIMRND
 40
0.0
  9
$DIMDLE
 40
0.0
  9
$DIMEXE
 40
1.0
  9
$DIMTP
 40
0.0
  9
$DIMTM
 40
0.0
  9
$DIMTXT
 40
3.5
  9
$DIMCEN
 40
1.5
  9
$DIMTSZ
 40
0.0
  9
$DIMTOL
 70
     0
  9
$DIMLIM
 70
     0
  9
$DIMTIH
 70
     0
  9
$DIMTOH
 70
     0
  9
$DIMSE1
 70
     0
  9
$DIMSE2
 70
     0
  9
$DIMTAD
 70
     1
  9
$DIMZIN
 70
     8
  9
$DIMBLK
  1

  9
$DIMASO
 70
     1
  9
$DIMSHO
 70
     0
  9
$DIMPOST
  1

  9
$DIMAPOST
  1

  9
$DIMALT
 70
     0
  9
$DIMALTD
 70
     2
  9
$DIMALTF
 40
25.3999999999999986
  9
$DIMLFAC
 40
1.0
  9
$DIMTOFL
 70
     1
  9
$DIMTVP
 40
0.0
  9
$DIMTIX
 70
     0
  9
$DIMSOXD
 70
     0
  9
$DIMSAH
 70
     0
  9
$DIMBLK1
  1

  9
$DIMBLK2
  1

  9
$DIMSTYLE
  2
STANDARD
  9
$DIMCLRD
 70
     0
  9
$DIMCLRE
 70
     0
  9
$DIMCLRT
 70
     1
  9
$DIMTFAC
 40
0.5142857142857143
  9
$DIMGAP
 40
1.5
  9
$LUNITS
 70
     2
  9
$LUPREC
 70
     2
  9
$SKETCHINC
 40
1.0
  9
$FILLETRAD
 40
0.0
  9
$AUNITS
 70
     0
  9
$AUPREC
 70
     0
  9
$MENU
  1
ACAD
  9
$ELEVATION
 40
0.0
  9
$PELEVATION
 40
0.0
  9
$THICKNESS
 40
0.0
  9
$LIMCHECK
 70
     0
  9
$BLIPMODE
 70
     0
  9
$CHAMFERA
 40
0.0
  9
$CHAMFERB
 40
0.0
  9
$SKPOLY
 70
     0
  9
$TDCREATE
 40
2455397.8646990740671754
  9
$TDUPDATE
 40
2458418.3552662041038275
  9
$TDINDWG
 40
0.1270627662
  9
$TDUSRTIMER
 40
0.1270627662
  9
$USRTIMER
 70
     1
  9
$ANGBASE
 50
0.0
  9
$ANGDIR
 70
     0
  9
$PDMODE
 70
     0
  9
$PDSIZE
 40
0.0
  9
$PLINEWID
 40
0.0
  9
$COORDS
 70
     1
  9
$SPLFRAME
 70
     0
  9
$SPLINETYPE
 70
     6
  9
$SPLINESEGS
 70
     8
  9
$ATTDIA
 70
     1
  9
$ATTREQ
 70
     1
  9
$HANDLING
 70
     1
  9
$HANDSEED
  5
15A4
  9
$SURFTAB1
 70
     6
  9
$SURFTAB2
 70
     6
  9
$SURFTYPE
 70
     6
  9
$SURFU
 70
     6
  9
$SURFV
 70
     6
  9
$UCSNAME
  2

  9
$UCSORG
 10
0.0
 20
0.0
 30
0.0
  9
$UCSXDIR
 10
1.0
 20
0.0
 30
0.0
  9
$UCSYDIR
 10
0.0
 20
1.0
 30
0.0
  9
$PUCSNAME
  2

  9
$PUCSORG
 10
0.0
 20
0.0
 30
0.0
  9
$PUCSXDIR
 10
1.0
 20
0.0
 30
0.0
  9
$PUCSYDIR
 10
0.0
 20
1.0
 30
0.0
  9
$USERI1
 70
     0
  9
$USERI2
 70
     0
  9
$USERI3
 70
     0
  9
$USERI4
 70
     0
  9
$USERI5
 70
     0
  9
$USERR1
 40
0.0
  9
$USERR2
 40
0.0
  9
$USERR3
 40
0.0
  9
$USERR4
 40
0.0
  9
$USERR5
 40
0.0
  9
$WORLDVIEW
 70
     1
  9
$SHADEDGE
 70
     3
  9
$SHADEDIF
 70
    70
  9
$TILEMODE
 70
     1
  9
$MAXACTVP
 70
    16
  9
$PLIMCHECK
 70
     0
  9
$PEXTMIN
 10
-0.2394258740828974
 20
-0.2311627222648802
 30
-0.0000000349181948
  9
$PEXTMAX
 10
10.6731257673125306
 20
14.6241565574262005
 30
0.0000000814935746
  9
$PLIMMIN
 10
-0.2500002402958907
 20
-0.2499999962453767
  9
$PLIMMAX
 10
10.7499995194082203
 20
8.2499997634587334
  9
$UNITMODE
 70
     0
  9
$VISRETAIN
 70
     0
  9
$PLINEGEN
 70
     0
  9
$PSLTSCALE
 70
     0
  0
ENDSEC
  0
SECTION
  2
TABLES
  0
TABLE
  2
VPORT
 70
     1
  0
VPORT
  2
*ACTIVE
 70
     0
 10
0.0
 20
0.0
 11
1.0
 21
1.0
 12
36.7958989208668825
 22
153.847595912576196
 13
0.0
 23
0.0
 14
1.0
 24
1.0
 15
10.0
 25
10.0
 16
-0.0000000000000012
 26
0.0
 36
5.5852494427615742
 17
0.0
 27
0.0
 37
0.0
 40
310.171746521783291
 41
2.0800000000000001
 42
50.0
 43
0.0
 44
0.0
 50
0.0
 51
0.0
 71
     0
 72
  1500
 73
     1
 74
     0
 75
     0
 76
     0
 77
     0
 78
     0
  0
ENDTAB
  0
TABLE
  2
LTYPE
 70
     3
  0
LTYPE
  2
CONTINUOUS
 70
     0
  3
Solid line
 72
    65
 73
     0
 40
0.0
  0
LTYPE
  2
AUSGEZOGEN
 70
     0
  3
Ausgezogene Linie
 72
    65
 73
     0
 40
0.0
  0
LTYPE
  2
VERDECKT
 70
     0
  3
Verdeckt __ __ __ __ __ __ __ __ __ __ __ __ __
 72
    65
 73
     2
 40
0.375
 49
0.25
 49
-0.125
  0
ENDTAB
  0
TABLE
  2
LAYER
 70
     3
  0
LAYER
  2
0
 70
     0
 62
     7
  6
CONTINUOUS
  0
LAYER
  2
DEFPOINTS
 70
     0
 62
     7
  6
AUSGEZOGEN
  0
LAYER
  2
VOLL
 70
     0
 62
     1
  6
CONTINUOUS
  0
ENDTAB
  0
TABLE
  2
STYLE
 70
     3
  0
STYLE
  2
STANDARD
 70
     0
 40
0.0
 41
0.8
 50
0.0
 71
     0
 42
3.5
  3
simplex.shx
  4

  0
STYLE
  2
ANNOTATIVE
 70
     0
 40
0.0
 41
1.0
 50
0.0
 71
     0
 42
0.2
  3
txt
  4

  0
STYLE
  2
GREEKS
 70
     0
 40
0.0
 41
0.8
 50
0.0
 71
     0
 42
2.5
  3
SIMPLEX.shx
  4

  0
ENDTAB
  0
TABLE
  2
VIEW
 70
     0
  0
ENDTAB
  0
TABLE
  2
UCS
 70
     0
  0
ENDTAB
  0
TABLE
  2
APPID
 70
    11
  0
APPID
  2
ACAD
 70
     0
  0
APPID
  2
ACADANNOTATIVE
 70
     0
  0
APPID
  2
ACAD_NAV_VCDISPLAY
 70
     0
  0
APPID
  2
ACAD_PSEXT
 70
     0
  0
APPID
  2
ACAD_EXEMPT_FROM_CAD_STANDARDS
 70
     0
  0
APPID
  2
ACAD_MLEADERVER
 70
     0
  0
APPID
  2
ACAD_DSTYLE_DIMRADIAL_EXTENSION
 70
     0
  0
APPID
  2
ACAECLAYERSTANDARD
 70
     0
  0
APPID
  2
ACCMTRANSPARENCY
 70
     0
  0
APPID
  2
ACAD_OBJECT_CHANGE_GUID
 70
     0
  0
APPID
  2
ACADANNOMONITORALERTICONDI
 70
     0
  0
ENDTAB
  0
TABLE
  2
DIMSTYLE
 70
     2
  0
DIMSTYLE
  2
STANDARD
 70
     0
  3

  4

  5

  6

  7

 40
1.0
 41
0.18
 42
0.0625
 43
0.38
 44
0.18
 45
0.0
 46
0.0
 47
0.0
 48
0.0
140
0.18
141
0.09
142
0.0
143
25.3999999999999986
144
1.0
145
0.0
146
1.0
147
0.09
 71
     0
 72
     0
 73
     1
 74
     1
 75
     0
 76
     0
 77
     0
 78
     0
170
     0
171
     2
172
     0
173
     0
174
     0
175
     0
176
     0
177
     0
178
     0
  0
DIMSTYLE
  2
ANNOTATIVE
 70
     0
  3

  4

  5

  6

  7

 40
1.0
 41
0.18
 42
0.0625
 43
0.38
 44
0.18
 45
0.0
 46
0.0
 47
0.0
 48
0.0
140
0.18
141
0.09
142
0.0
143
25.3999999999999986
144
1.0
145
0.0
146
1.0
147
0.09
 71
     0
 72
     0
 73
     1
 74
     1
 75
     0
 76
     0
 77
     0
 78
     0
170
     0
171
     2
172
     0
173
     0
174
     0
175
     0
176
     0
177
     0
178
     0
  0
ENDTAB
  0
ENDSEC
  0
SECTION
  2
BLOCKS
  0
BLOCK
  8
0
  2
$MODEL_SPACE
 70
     0
 10
0.0
 20
0.0
 30
0.0
  3
$MODEL_SPACE
  1

  0
ENDBLK
  5
1515
  8
0
  0
BLOCK
 67
     1
  8
0
  2
$PAPER_SPACE
 70
     0
 10
0.0
 20
0.0
 30
0.0
  3
$PAPER_SPACE
  1

  0
ENDBLK
  5
1511
 67
     1
  8
0
  0
BLOCK
  8
0
  2
A$C782734CF
 70
     0
 10
0.0
 20
0.0
 30
0.0
  3
A$C782734CF
  1

  0
LINE
  5
13F0
  8
0
  6
CONTINUOUS
 62
     3
 10
331.5432697901388224
 20
319.9979156915716203
 30
0.0
 11
394.5432697901388792
 21
319.9979156915716203
 31
0.0
210
0.0
220
1.0
230
0.0
  0
LINE
  5
13F1
  8
0
  6
CONTINUOUS
 62
     3
 10
326.5432697901388224
 20
205.2401804203213089
 30
0.0
 11
399.5432697901388224
 21
205.2401804203213089
 31
0.0
210
0.0
220
1.0
230
0.0
  0
LINE
  5
13F2
  8
0
  6
CONTINUOUS
 62
     3
 10
327.4181564253980241
 20
199.9979156915715919
 30
0.0
 11
398.6683831548796206
 21
199.9979156915715919
 31
0.0
210
0.0
220
1.0
230
0.0
  0
LINE
  5
13F3
  8
0
  6
CONTINUOUS
 62
     3
 10
394.5432697901388792
 20
319.9979156915716203
 30
0.0
 11
398.9274693667450151
 21
301.8453169617532126
 31
0.0
210
0.0
220
1.0
230
0.0
  0
LINE
  5
13F4
  8
0
  6
CONTINUOUS
 62
     3
 10
331.5432697901388224
 20
319.9979156915716203
 30
0.0
 11
327.1590702135326865
 21
301.8453169617532126
 31
0.0
210
0.0
220
1.0
230
0.0
  0
ARC
  5
13F5
  8
0
  6
CONTINUOUS
 62
     3
 10
-338.5432697901388224
 20
298.0505837695508831
 30
0.0
 40
12.0
210
0.0
220
0.0
230
-1.0
 50
0.0000000000008142
 51
18.4349488229227809
  0
ARC
  5
13F6
  8
0
  6
CONTINUOUS
 62
     3
 10
-387.5432697901388224
 20
298.0505837695508831
 30
0.0
 40
12.0000000000000107
210
0.0
220
0.0
230
-1.0
 50
161.5650511770772084
 51
179.9999999999992042
  0
LINE
  5
13F7
  8
0
  6
CONTINUOUS
 62
     3
 10
399.5432697901388224
 20
298.050583769551281
 30
0.0
 11
399.5432697901388224
 21
205.2401804203213089
 31
0.0
210
0.0
220
1.0
230
0.0
  0
LINE
  5
13F8
  8
0
  6
CONTINUOUS
 62
     3
 10
326.5432697901388224
 20
298.050583769551281
 30
0.0
 11
326.5432697901388224
 21
205.2401804203213089
 31
0.0
210
0.0
220
1.0
230
0.0
  0
LINE
  5
13F9
  8
0
  6
CONTINUOUS
 62
     3
 10
327.418156425398081
 20
199.9979156915715919
 30
0.0
 11
326.5432697901388224
 21
205.2401804203213089
 31
0.0
210
0.0
220
1.0
230
0.0
  0
LINE
  5
13FA
  8
0
  6
CONTINUOUS
 62
     3
 10
398.6683831548796206
 20
199.9979156915715919
 30
0.0
 11
399.5432697901388224
 21
205.2401804203213089
 31
0.0
210
0.0
220
1.0
230
0.0
  0
LINE
  5
13FB
  8
0
  6
CONTINUOUS
 62
     3
 10
333.4365707905745921
 20
382.9979156915717908
 30
0.0
 11
392.6499687897028821
 21
382.9979156915717908
 31
0.0
210
0.0
220
1.0
230
0.0
  0
LINE
  5
13FC
  8
0
  6
CONTINUOUS
 62
     3
 10
331.5432697901388224
 20
319.9979156915716771
 30
0.0
 11
394.5432697901388224
 21
319.9979156915716203
 31
0.0
210
0.0
220
1.0
230
0.0
  0
ARC
  5
13FD
  8
0
  6
CONTINUOUS
 62
     3
 10
-351.0429239405152089
 20
374.6154143489105763
 30
0.0
 40
19.5000000000035207
210
0.0
220
0.0
230
-1.0
 50
0.0000000000008142
 51
25.4594285688154685
  0
ARC
  5
13FE
  8
0
  6
CONTINUOUS
 62
     3
 10
-375.0436156397623222
 20
374.6154143489105763
 30
0.0
 40
19.5000000000035101
210
0.0
220
0.0
230
-1.0
 50
154.5405714311845031
 51
179.9999999999992042
  0
LINE
  5
13FF
  8
0
  6
CONTINUOUS
 62
     3
 10
394.543615639766017
 20
374.6154143489108037
 30
0.0
 11
394.543615639766017
 21
373.1198799895693128
 31
0.0
210
0.0
220
1.0
230
0.0
  0
LINE
  5
1400
  8
0
  6
CONTINUOUS
 62
     3
 10
331.5429239405116846
 20
374.6154143489109174
 30
0.0
 11
331.5429239405116846
 21
373.1198799895693128
 31
0.0
210
0.0
220
1.0
230
0.0
  0
ARC
  5
1401
  8
0
  6
CONTINUOUS
 62
     3
 10
-356.5429239405088992
 20
373.1599156915709159
 30
0.0
 40
25.0000320571252992
210
0.0
220
0.0
230
-1.0
 50
340.5369005553105808
 51
359.9082450082557898
  0
ARC
  5
1402
  8
0
  6
CONTINUOUS
 62
     3
 10
-369.5436156397688023
 20
373.1599156915709159
 30
0.0
 40
25.0000320571252495
210
0.0
220
0.0
230
-1.0
 50
180.0917549917442102
 51
199.4630994446893055
  0
ARC
  5
1403
  8
0
  6
CONTINUOUS
 62
     3
 10
-323.5429239405124804
 20
361.4979156915717908
 30
0.0
 40
9.9999999999990852
210
0.0
220
0.0
230
-1.0
 50
160.5369005553096997
 51
180.0000000000007958
  0
ARC
  5
1404
  8
0
  6
CONTINUOUS
 62
     3
 10
-402.5436156397649938
 20
361.4979156915717908
 30
0.0
 40
9.9999999999990887
210
0.0
220
0.0
230
-1.0
 50
359.9999999999992042
 51
19.4630994446902683
  0
LINE
  5
1405
  8
0
  6
CONTINUOUS
 62
     3
 10
392.543615639766017
 20
361.4979156915716203
 30
0.0
 11
392.543615639766017
 21
350.4062426047677263
 31
0.0
210
0.0
220
1.0
230
0.0
  0
LINE
  5
1406
  8
0
  6
CONTINUOUS
 62
     3
 10
333.5429239405116846
 20
361.4979156915716203
 30
0.0
 11
333.5429239405116846
 21
350.4062426047677263
 31
0.0
210
0.0
220
1.0
230
0.0
  0
ARC
  5
1407
  8
0
  6
CONTINUOUS
 62
     3
 10
-345.5365292701428075
 20
350.404421739014424
 30
0.0
 40
11.9936054678527295
210
0.0
220
0.0
230
-1.0
 50
328.202970754048124
 51
0.008698628898531
  0
ARC
  5
1408
  8
0
  6
CONTINUOUS
 62
     3
 10
-380.5500103101348941
 20
350.404421739014424
 30
0.0
 40
11.9936054678527206
210
0.0
220
0.0
230
-1.0
 50
179.991301371101514
 51
211.7970292459517054
  0
ARC
  5
1409
  8
0
  6
CONTINUOUS
 62
     3
 10
-328.5452289901971881
 20
339.8705888519148743
 30
0.0
 40
7.9980407999415899
210
0.0
220
0.0
230
-1.0
 50
148.2029707540471861
 51
180.0
  0
ARC
  5
140A
  8
0
  6
CONTINUOUS
 62
     3
 10
-397.5413105900806272
 20
339.8705888519148743
 30
0.0
 40
7.998040799941859
210
0.0
220
0.0
230
-1.0
 50
0.0
 51
31.7970292459536594
  0
LINE
  5
140B
  8
0
  6
CONTINUOUS
 62
     3
 10
389.5432697901388224
 20
339.8705888519148743
 30
0.0
 11
389.5432697901388224
 21
331.886459511570024
 31
0.0
210
0.0
220
1.0
230
0.0
  0
LINE
  5
140C
  8
0
  6
CONTINUOUS
 62
     3
 10
336.5432697901387087
 20
339.8705888519148743
 30
0.0
 11
336.5432697901387087
 21
331.886459511570024
 31
0.0
210
0.0
220
1.0
230
0.0
  0
ARC
  5
140D
  8
0
  6
CONTINUOUS
 62
     3
 10
-328.5432697901383108
 20
331.8864595115701945
 30
0.0
 40
8.0000000000005098
210
0.0
220
0.0
230
-1.0
 50
180.0000000000007958
 51
206.5650511770772937
  0
ARC
  5
140E
  8
0
  6
CONTINUOUS
 62
     3
 10
-397.5432697901388224
 20
331.886459511570024
 30
0.0
 40
8.0000000000000622
210
0.0
220
0.0
230
-1.0
 50
333.4349488229216831
 51
359.9999999999984084
  0
LINE
  5
140F
  8
0
  6
CONTINUOUS
 62
     3
 10
390.3878522621395177
 20
328.3087507475702864
 30
0.0
 11
394.5432697901388224
 21
319.9979156915716203
 31
0.0
210
0.0
220
1.0
230
0.0
  0
LINE
  5
1410
  8
0
  6
CONTINUOUS
 62
     3
 10
335.698687318138127
 20
328.3087507475702864
 30
0.0
 11
331.5432697901388224
 21
319.9979156915716771
 31
0.0
210
0.0
220
1.0
230
0.0
  0
LINE
  5
1411
  8
0
  6
VERDECKT
 62
     1
 10
328.1432697901387883
 20
205.3727762512098138
 30
0.0
 11
397.9432697901389133
 21
205.3727762512098138
 31
0.0
210
0.0
220
1.0
230
0.0
  0
ARC
  5
1412
  8
0
  6
VERDECKT
 62
     1
 10
-338.5432697901406982
 20
298.0505837695516789
 30
0.0
 40
10.4000000000017891
210
0.0
220
0.0
230
-1.0
 50
0.0
 51
18.795440219144389
  0
ARC
  5
1413
  8
0
  6
VERDECKT
 62
     1
 10
-387.5432697901370034
 20
298.0505837695516789
 30
0.0
 40
10.4000000000017998
210
0.0
220
0.0
230
-1.0
 50
161.2045597808578918
 51
180.0000000000023022
  0
LINE
  5
1414
  8
0
  6
VERDECKT
 62
     1
 10
392.8972659638956202
 20
319.9979156915716203
 30
0.0
 11
397.3886887922549818
 21
301.4013634807188282
 31
0.0
210
0.0
220
1.0
230
0.0
  0
LINE
  5
1415
  8
0
  6
VERDECKT
 62
     1
 10
333.1892736163820246
 20
319.9979156915716203
 30
0.0
 11
328.6978507880226061
 21
301.4013634807188282
 31
0.0
210
0.0
220
1.0
230
0.0
  0
LINE
  5
1416
  8
0
  6
VERDECKT
 62
     1
 10
329.0402854719720267
 20
199.9979156915715919
 30
0.0
 11
328.1432697901387883
 21
205.3727762512098991
 31
0.0
210
0.0
220
1.0
230
0.0
  0
LINE
  5
1417
  8
0
  6
VERDECKT
 62
     1
 10
397.0462541083056749
 20
199.9979156915715919
 30
0.0
 11
397.9432697901389133
 21
205.3727762512098138
 31
0.0
210
0.0
220
1.0
230
0.0
  0
LINE
  5
1418
  8
0
  6
VERDECKT
 62
     1
 10
397.9432697901389133
 20
298.0505837695512241
 30
0.0
 11
397.9432697901389133
 21
205.3727762512098138
 31
0.0
210
0.0
220
1.0
230
0.0
  0
LINE
  5
1419
  8
0
  6
VERDECKT
 62
     1
 10
328.1432697901387883
 20
298.0505837695512241
 30
0.0
 11
328.1432697901387883
 21
205.3727762512098138
 31
0.0
210
0.0
220
1.0
230
0.0
  0
LINE
  5
141A
  8
0
  6
VERDECKT
 62
     1
 10
389.0462114756397227
 20
327.6379303543204173
 30
0.0
 11
392.8662188070140928
 21
319.9979156915716203
 31
0.0
210
0.0
220
1.0
230
0.0
  0
LINE
  5
141B
  8
0
  6
VERDECKT
 62
     1
 10
337.040328104637922
 20
327.6379303543204173
 30
0.0
 11
333.2203207732633814
 21
319.9979156915716771
 31
0.0
210
0.0
220
1.0
230
0.0
  0
ARC
  5
141C
  8
0
  6
VERDECKT
 62
     1
 10
-328.5432697901388224
 20
331.886459511570024
 30
0.0
 40
9.5000000000001101
210
0.0
220
0.0
230
-1.0
 50
180.0
 51
206.5650511770772937
  0
ARC
  5
141D
  8
0
  6
VERDECKT
 62
     1
 10
-397.5432697901380266
 20
331.8864595115697966
 30
0.0
 40
9.4999999999992504
210
0.0
220
0.0
230
-1.0
 50
333.4349488229211147
 51
0.0000000000016284
  0
LINE
  5
141E
  8
0
  6
VERDECKT
 62
     1
 10
388.0432697901388224
 20
339.8705888519148743
 30
0.0
 11
388.0432697901388224
 21
331.886459511570024
 31
0.0
210
0.0
220
1.0
230
0.0
  0
LINE
  5
141F
  8
0
  6
VERDECKT
 62
     1
 10
338.0432697901388224
 20
339.8705888519148743
 30
0.0
 11
338.0432697901388224
 21
331.886459511570024
 31
0.0
210
0.0
220
1.0
230
0.0
  0
ARC
  5
1420
  8
0
  6
VERDECKT
 62
     1
 10
-328.5452290871986065
 20
339.8705888519148175
 30
0.0
 40
9.4980407029401572
210
0.0
220
0.0
230
-1.0
 50
148.2043441967643105
 51
179.9999999999992042
  0
ARC
  5
1421
  8
0
  6
VERDECKT
 62
     1
 10
-397.5413104930792088
 20
339.8705888519148175
 30
0.0
 40
9.4980407029405001
210
0.0
220
0.0
230
-1.0
 50
0.0
 51
31.7956558032336609
  0
ARC
  5
1422
  8
0
  6
VERDECKT
 62
     1
 10
-345.5382116655765117
 20
350.4049007967381044
 30
0.0
 40
10.4952878108390504
210
0.0
220
0.0
230
-1.0
 50
328.20434419676468
 51
0.0073251861799401
  0
ARC
  5
1423
  8
0
  6
VERDECKT
 62
     1
 10
-380.548327914700792
 20
350.4049007967381044
 30
0.0
 40
10.4952878108393701
210
0.0
220
0.0
230
-1.0
 50
179.9926748138200026
 51
211.7956558032346095
  0
LINE
  5
1424
  8
0
  6
VERDECKT
 62
     1
 10
391.043615639766017
 20
361.4979156915716203
 30
0.0
 11
391.043615639766017
 21
350.4062426047677263
 31
0.0
210
0.0
220
1.0
230
0.0
  0
LINE
  5
1425
  8
0
  6
VERDECKT
 62
     1
 10
335.0429239405116277
 20
361.4979156915716203
 30
0.0
 11
335.0429239405116277
 21
350.4062426047677263
 31
0.0
210
0.0
220
1.0
230
0.0
  0
ARC
  5
1426
  8
0
  6
VERDECKT
 62
     1
 10
-323.5429239405128214
 20
361.4979156915719045
 30
0.0
 40
11.4999999999988702
210
0.0
220
0.0
230
-1.0
 50
160.5369005553114903
 51
180.0000000000015916
  0
ARC
  5
1427
  8
0
  6
VERDECKT
 62
     1
 10
-402.5436156397630043
 20
361.4979156915721887
 30
0.0
 40
11.4999999999972093
210
0.0
220
0.0
230
-1.0
 50
359.9999999999976126
 51
19.4630994446902683
  0
ARC
  5
1428
  8
0
  6
VERDECKT
 62
     1
 10
-356.5429239405179942
 20
373.1599156915727917
 30
0.0
 40
23.5000320571343515
210
0.0
220
0.0
230
-1.0
 50
340.5369005553131956
 51
359.9053619551826273
  0
ARC
  5
1429
  8
0
  6
VERDECKT
 62
     1
 10
-369.5436156397594232
 20
373.1599156915727917
 30
0.0
 40
23.5000320571346997
210
0.0
220
0.0
230
-1.0
 50
180.0946380448174011
 51
199.4630994446860086
  0
LINE
  5
142A
  8
0
  6
VERDECKT
 62
     1
 10
393.0436156397659033
 20
374.6154143489102921
 30
0.0
 11
393.0436156397659033
 21
373.1210996374992988
 31
0.0
210
0.0
220
1.0
230
0.0
  0
LINE
  5
142B
  8
0
  6
VERDECKT
 62
     1
 10
333.0429239405117983
 20
374.6154143489102921
 30
0.0
 11
333.0429239405117983
 21
373.1210996374992988
 31
0.0
210
0.0
220
1.0
230
0.0
  0
ARC
  5
142C
  8
0
  6
VERDECKT
 62
     1
 10
-351.0429239405107751
 20
374.6154143489113153
 30
0.0
 40
17.9999999999990301
210
0.0
220
0.0
230
-1.0
 50
359.9999999999968168
 51
27.7551793916169203
  0
ARC
  5
142D
  8
0
  6
VERDECKT
 62
     1
 10
-375.0436156397669833
 20
374.6154143489110879
 30
0.0
 40
17.9999999999989484
210
0.0
220
0.0
230
-1.0
 50
152.2448206083828097
 51
180.0000000000032117
  0
ENDBLK
  5
142F
  8
0
  0
BLOCK
  8
0
  2
A$C34506E08
 70
     0
 10
0.0
 20
0.0
 30
0.0
  3
A$C34506E08
  1

  0
CIRCLE
  5
1433
  8
0
  6
CONTINUOUS
 62
     3
 10
506.0095155923374932
 20
300.8478319119495268
 30
0.0
 40
36.5
  0
CIRCLE
  5
1434
  8
0
  6
CONTINUOUS
 62
     3
 10
506.0095155923374932
 20
300.8478319119495268
 30
0.0
 40
31.5003458496271307
  0
CIRCLE
  5
1435
  8
0
  6
CONTINUOUS
 62
     3
 10
506.0095155923374932
 20
300.8478319119495268
 30
0.0
 40
29.6066989995641805
  0
CIRCLE
  5
1436
  8
0
  6
CONTINUOUS
 62
     3
 10
506.0095155923374932
 20
300.8478319119495268
 30
0.0
 40
25.0000000000000284
  0
CIRCLE
  5
1437
  8
0
  6
CONTINUOUS
 62
     3
 10
506.0095155923374932
 20
300.8478319119495268
 30
0.0
 40
27.9293656324097697
  0
CIRCLE
  5
1438
  8
0
  6
VERDECKT
 62
     1
 10
506.0095155923374932
 20
300.8478319119495268
 30
0.0
 40
34.8999999999999773
  0
CIRCLE
  5
1439
  8
0
  6
VERDECKT
 62
     1
 10
506.0095155923374932
 20
300.8478319119495268
 30
0.0
 40
29.8539961737568014
  0
CIRCLE
  5
143A
  8
0
  6
VERDECKT
 62
     1
 10
506.0095155923374932
 20
300.8478319119495268
 30
0.0
 40
31.5000000000000604
  0
CIRCLE
  5
143B
  8
0
  6
VERDECKT
 62
     1
 10
506.0095155923374932
 20
300.8478319119495268
 30
0.0
 40
35.6251133647407983
  0
CIRCLE
  5
143C
  8
0
  6
VERDECKT
 62
     1
 10
506.0095155923374932
 20
300.8478319119495268
 30
0.0
 40
34.0029843181668525
  0
CIRCLE
  5
143D
  8
0
  6
VERDECKT
 62
     1
 10
506.0095155923374932
 20
300.8478319119495268
 30
0.0
 40
29.5003458496271307
  0
CIRCLE
  5
143E
  8
0
  6
VERDECKT
 62
     1
 10
506.0095155923374932
 20
300.8478319119495268
 30
0.0
 40
26.5000000000000284
  0
CIRCLE
  5
143F
  8
0
  6
VERDECKT
 62
     1
 10
506.0095155923374932
 20
300.8478319119495268
 30
0.0
 40
31.5000000000000107
  0
CIRCLE
  5
1440
  8
0
  6
VERDECKT
 62
     1
 10
506.0095155923374932
 20
300.8478319119495268
 30
0.0
 40
29.8229490168752811
  0
CIRCLE
  5
1441
  8
0
  6
VERDECKT
 62
     1
 10
506.0095155923374932
 20
300.8478319119495268
 30
0.0
 40
28.0003458496271307
  0
CIRCLE
  5
1442
  8
0
  6
VERDECKT
 62
     1
 10
506.0095155923374932
 20
300.8478319119495268
 30
0.0
 40
30.0003458496270703
  0
ENDBLK
  5
1444
  8
0
  0
ENDSEC
  0
SECTION
  2
ENTITIES
  0
TEXT
  5
8F
  8
VOLL
 10
78.076754716981128
 20
31.025947764705851
 30
0.0
 40
1.8
  1

  7
GREEKS
  0
TEXT
  5
FE0
  8
VOLL
 10
312.1650092918118276
 20
230.3795696701263012
 30
0.0
 40
1.8
  1

  7
GREEKS
  0
INSERT
  5
1547
  8
DEFPOINTS
  2
A$C782734CF
 10
-326.543269076158083
 20
-75.3120506439436497
 30
0.0
  0
INSERT
  5
1548
  8
DEFPOINTS
  2
A$C34506E08
 10
-469.5095148783569812
 20
-264.3478323856592738
 30
0.0
  0
VIEWPORT
  5
11E5
 67
     1
  8
0
 10
5.2168499466148166
 20
7.1964490965396379
 30
0.0
 40
29.3966426479626293
 41
14.97159688644577
 68
     1
 69
     1
1001
ACAD
1000
MVIEW
1002
{
1070
    16
1010
0.0
1020
0.0
1030
0.0
1010
0.0
1020
0.0
1030
1.0
1040
0.0
1040
14.97159688644577
1040
5.2168499466148166
1040
7.1964490965396379
1040
50.0
1040
0.0
1040
0.0
1070
     0
1070
  1500
1070
     1
1070
     1
1070
     0
1070
     0
1070
     0
1070
     0
1040
0.0
1040
0.0
1040
0.0
1040
10.0
1040
10.0
1040
10.0
1040
10.0
1070
     0
1002
{
1002
}
1002
}
  0
VIEWPORT
  5
11E9
 67
     1
  8
DEFPOINTS
 10
5.2169092062653117
 20
7.1964819373995601
 30
0.0
 40
10.9115852400757802
 41
14.8538597499493097
 68
     2
 69
     2
1001
ACAD
1000
MVIEW
1002
{
1070
    16
1010
367.1644256059109921
1020
176.4032046002865002
1030
-8.6497351978256418
1010
0.0
1020
0.0
1030
1.0
1040
0.0
1040
301.7536208489286196
1040
-257.550729948896219
1040
-26.6829482911063991
1040
50.0
1040
0.0
1040
0.0
1070
     0
1070
  1500
1070
     1
1070
     0
1070
     0
1070
     0
1070
     0
1070
     0
1040
0.0
1040
0.0
1040
0.0
1040
1.0
1040
1.0
1040
10.0
1040
10.0
1070
     0
1002
{
1002
}
1002
}
  0
VIEWPORT
  5
11ED
 67
     1
  8
DEFPOINTS
 10
8.001843986249451
 20
11.4216585166017808
 30
0.0
 40
3.0233334010978221
 41
5.0876505215122201
 68
     3
 69
     3
1001
ACAD
1000
MVIEW
1002
{
1070
    16
1010
400.2881148246481757
1020
183.9031722893388974
1030
-3.704147984141446
1010
0.0
1020
127.5616756790810058
1030
382.0938659601555969
1040
3.1415926535897918
1040
198.6801352659954034
1040
0.0
1040
0.0
1040
50.0
1040
0.0
1040
0.0
1070
     0
1070
  1500
1070
     1
1070
     0
1070
     0
1070
     0
1070
     0
1070
     0
1040
0.0
1040
0.0
1040
0.0
1040
1.0
1040
1.0
1040
10.0
1040
10.0
1070
     0
1002
{
1002
}
1002
}
  0
ENDSEC
  0
EOF
