  0
SECTION
  2
HEADER
  9
$ACADVER
  1
AC1009
  9
$INSBASE
 10
0.0
 20
0.0
 30
0.0
  9
$EXTMIN
 10
-36.5000000000000213
 20
-156.4999999999998863
 30
-0.0000000000000377
  9
$EXTMAX
 10
36.5
 20
170.000000000000199
 30
170.0000000000001137
  9
$LIMMIN
 10
0.0
 20
0.0
  9
$LIMMAX
 10
210.0
 20
297.0
  9
$ORTHOMODE
 70
     1
  9
$REGENMODE
 70
     1
  9
$FILLMODE
 70
     1
  9
$QTEXTMODE
 70
     0
  9
$MIRRTEXT
 70
     1
  9
$DRAGMODE
 70
     2
  9
$LTSCALE
 40
10.0
  9
$OSMODE
 70
   183
  9
$ATTMODE
 70
     1
  9
$TEXTSIZE
 40
3.5
  9
$TRACEWID
 40
0.5
  9
$TEXTSTYLE
  7
STANDARD
  9
$CLAYER
  8
STEMPEL
  9
$CELTYPE
  6
BYLAYER
  9
$CECOLOR
 62
   256
  9
$DIMSCALE
 40
1.0
  9
$DIMASZ
 40
3.5
  9
$DIMEXO
 40
1.0
  9
$DIMDLI
 40
7.0
  9
$DIMRND
 40
0.0
  9
$DIMDLE
 40
0.0
  9
$DIMEXE
 40
1.0
  9
$DIMTP
 40
0.0
  9
$DIMTM
 40
0.0
  9
$DIMTXT
 40
3.5
  9
$DIMCEN
 40
1.5
  9
$DIMTSZ
 40
0.0
  9
$DIMTOL
 70
     0
  9
$DIMLIM
 70
     0
  9
$DIMTIH
 70
     0
  9
$DIMTOH
 70
     0
  9
$DIMSE1
 70
     0
  9
$DIMSE2
 70
     0
  9
$DIMTAD
 70
     1
  9
$DIMZIN
 70
     8
  9
$DIMBLK
  1

  9
$DIMASO
 70
     1
  9
$DIMSHO
 70
     0
  9
$DIMPOST
  1

  9
$DIMAPOST
  1

  9
$DIMALT
 70
     0
  9
$DIMALTD
 70
     2
  9
$DIMALTF
 40
25.3999999999999986
  9
$DIMLFAC
 40
1.0
  9
$DIMTOFL
 70
     1
  9
$DIMTVP
 40
0.0
  9
$DIMTIX
 70
     0
  9
$DIMSOXD
 70
     0
  9
$DIMSAH
 70
     0
  9
$DIMBLK1
  1

  9
$DIMBLK2
  1

  9
$DIMSTYLE
  2
STANDARD
  9
$DIMCLRD
 70
     0
  9
$DIMCLRE
 70
     0
  9
$DIMCLRT
 70
     1
  9
$DIMTFAC
 40
0.5142857142857143
  9
$DIMGAP
 40
1.5
  9
$LUNITS
 70
     2
  9
$LUPREC
 70
     2
  9
$SKETCHINC
 40
1.0
  9
$FILLETRAD
 40
10.0
  9
$AUNITS
 70
     0
  9
$AUPREC
 70
     0
  9
$MENU
  1
ACAD
  9
$ELEVATION
 40
0.0
  9
$PELEVATION
 40
0.0
  9
$THICKNESS
 40
0.0
  9
$LIMCHECK
 70
     0
  9
$BLIPMODE
 70
     0
  9
$CHAMFERA
 40
0.0
  9
$CHAMFERB
 40
0.0
  9
$SKPOLY
 70
     0
  9
$TDCREATE
 40
2455397.8646990740671754
  9
$TDUPDATE
 40
2458373.5297337961383164
  9
$TDINDWG
 40
0.1792439583
  9
$TDUSRTIMER
 40
0.1792439583
  9
$USRTIMER
 70
     1
  9
$ANGBASE
 50
0.0
  9
$ANGDIR
 70
     0
  9
$PDMODE
 70
     0
  9
$PDSIZE
 40
0.0
  9
$PLINEWID
 40
0.0
  9
$COORDS
 70
     1
  9
$SPLFRAME
 70
     0
  9
$SPLINETYPE
 70
     6
  9
$SPLINESEGS
 70
     8
  9
$ATTDIA
 70
     1
  9
$ATTREQ
 70
     1
  9
$HANDLING
 70
     1
  9
$HANDSEED
  5
29A4
  9
$SURFTAB1
 70
     6
  9
$SURFTAB2
 70
     6
  9
$SURFTYPE
 70
     6
  9
$SURFU
 70
     6
  9
$SURFV
 70
     6
  9
$UCSNAME
  2

  9
$UCSORG
 10
0.0
 20
0.0
 30
0.0
  9
$UCSXDIR
 10
1.0
 20
0.0
 30
0.0
  9
$UCSYDIR
 10
0.0
 20
1.0
 30
0.0
  9
$PUCSNAME
  2

  9
$PUCSORG
 10
0.0
 20
0.0
 30
0.0
  9
$PUCSXDIR
 10
1.0
 20
0.0
 30
0.0
  9
$PUCSYDIR
 10
0.0
 20
1.0
 30
0.0
  9
$USERI1
 70
     0
  9
$USERI2
 70
     0
  9
$USERI3
 70
     0
  9
$USERI4
 70
     0
  9
$USERI5
 70
     0
  9
$USERR1
 40
0.0
  9
$USERR2
 40
0.0
  9
$USERR3
 40
0.0
  9
$USERR4
 40
0.0
  9
$USERR5
 40
0.0
  9
$WORLDVIEW
 70
     1
  9
$SHADEDGE
 70
     3
  9
$SHADEDIF
 70
    70
  9
$TILEMODE
 70
     1
  9
$MAXACTVP
 70
    16
  9
$PLIMCHECK
 70
     0
  9
$PEXTMIN
 10
-0.0123542972283986
 20
-0.0109708107205506
 30
-8.0878133332428206
  9
$PEXTMAX
 10
198.7451796927105931
 20
290.9545390862887757
 30
403.1612590393414735
  9
$PLIMMIN
 10
-5.0737236796877658
 20
-2.2332177657412422
  9
$PLIMMAX
 10
203.8065481024954124
 20
293.1767846656994152
  9
$UNITMODE
 70
     0
  9
$VISRETAIN
 70
     0
  9
$PLINEGEN
 70
     0
  9
$PSLTSCALE
 70
     0
  0
ENDSEC
  0
SECTION
  2
TABLES
  0
TABLE
  2
VPORT
 70
     1
  0
VPORT
  2
*ACTIVE
 70
     0
 10
0.0
 20
0.0
 11
1.0
 21
1.0
 12
0.0
 22
0.0
 13
0.0
 23
0.0
 14
1.0
 24
1.0
 15
10.0
 25
10.0
 16
-0.0000000000002274
 26
0.0
 36
971.2860235724449467
 17
64.1847652530643131
 27
-10.6554365678101295
 37
-0.0000000000000047
 40
392.4837594619517063
 41
1.8224299065420559
 42
50.0
 43
0.0
 44
0.0
 50
0.0
 51
0.0
 71
     0
 72
  1500
 73
     1
 74
     0
 75
     0
 76
     0
 77
     0
 78
     0
  0
ENDTAB
  0
TABLE
  2
LTYPE
 70
     6
  0
LTYPE
  2
CONTINUOUS
 70
     0
  3
Solid line
 72
    65
 73
     0
 40
0.0
  0
LTYPE
  2
VERDECKT
 70
     0
  3
Verdeckt __ __ __ __ __ __ __ __ __ __ __ __ __
 72
    65
 73
     2
 40
0.375
 49
0.25
 49
-0.125
  0
ENDTAB
  0
TABLE
  2
LAYER
 70
    13
  0
LAYER
  2
0
 70
     0
 62
     7
  6
CONTINUOUS
  0
LAYER
  2
STEMPEL
 70
     0
 62
     3
  6
CONTINUOUS
  0
LAYER
  2
ADSK_ASSOC_ENTITY_BACKUPS
 70
     1
 62
    -7
  6
CONTINUOUS
  0
ENDTAB
  0
TABLE
  2
STYLE
 70
     4
  0
STYLE
  2
STANDARD
 70
     0
 40
0.0
 41
0.8
 50
0.0
 71
     0
 42
3.5
  3
simplex.shx
  4

  0
ENDTAB
  0
TABLE
  2
VIEW
 70
     1
  0
ENDTAB
  0
TABLE
  2
UCS
 70
     0
  0
ENDTAB
  0
TABLE
  2
APPID
 70
    17
  0
APPID
  2
ACAD
 70
     0
  0
APPID
  2
ACAD_NAV_VCDISPLAY
 70
     0
  0
APPID
  2
ACAECLAYERSTANDARD
 70
     0
  0
APPID
  2
ACCMTRANSPARENCY
 70
     0
  0
APPID
  2
ACAD_STEPID
 70
     0
  0
APPID
  2
ACAD_ASSOCPERSSUBENTMANAGER
 70
     0
  0
APPID
  2
ACAD_PSEXT
 70
     0
  0
APPID
  2
ACAD_MLEADERVER
 70
     0
  0
APPID
  2
ACAD_OBJECT_CHANGE_GUID
 70
     0
  0
APPID
  2
ACAD_EXEMPT_FROM_CAD_STANDARDS
 70
     0
  0
APPID
  2
ACADANNOPO
 70
     0
  0
APPID
  2
ACSYNERGY
 70
     0
  0
APPID
  2
SYNERGY_BODY_TBR_ID
 70
     0
  0
APPID
  2
ACAD_VIEW_EDGE_ID
 70
     0
  0
APPID
  2
ACADANNOMONITORALERTICONDI
 70
     0
  0
APPID
  2
PLOTTRANSPARENCY
 70
     0
  0
APPID
  2
AcDbAttr
 70
     0
  0
ENDTAB
  0
TABLE
  2
DIMSTYLE
 70
     2
  0
DIMSTYLE
  2
STANDARD
 70
     0
  3

  4

  5

  6

  7

 40
1.0
 41
0.18
 42
0.0625
 43
0.38
 44
0.18
 45
0.0
 46
0.0
 47
0.0
 48
0.0
140
0.18
141
0.09
142
0.0
143
25.3999999999999986
144
1.0
145
0.0
146
1.0
147
0.09
 71
     0
 72
     0
 73
     1
 74
     1
 75
     0
 76
     0
 77
     0
 78
     0
170
     0
171
     2
172
     0
173
     0
174
     0
175
     0
176
     0
177
     0
178
     0
  0
ENDTAB
  0
ENDSEC
  0
SECTION
  2
BLOCKS
  0
BLOCK
  8
0
  2
$MODEL_SPACE
 70
     0
 10
0.0
 20
0.0
 30
0.0
  3
$MODEL_SPACE
  1

  0
ENDBLK
  5
36
  8
0
  0
BLOCK
 67
     1
  8
0
  2
$PAPER_SPACE
 70
     0
 10
0.0
 20
0.0
 30
0.0
  3
$PAPER_SPACE
  1

  0
ENDBLK
  5
34
 67
     1
  8
0
  0
BLOCK
  8
0
  2
*S3
 70
     1
 10
0.0
 20
0.0
 30
0.0
  3
*S3
  1

  0
ENDBLK
  5
2168
  8
0
  0
BLOCK
  8
0
  2
A$C51F16754
 70
     0
 10
0.0
 20
0.0
 30
0.0
  3
A$C51F16754
  1

  0
LINE
  5
28F3
  8
0
  6
CONTINUOUS
 62
     3
 10
-24.1476030003181599
 20
170.000000000000199
 30
-0.0000000000000377
 11
24.1476030003179289
 21
170.000000000000199
 31
-0.0000000000000377
210
0.0
220
1.0
230
-0.0000000000000002
  0
LINE
  5
28F4
  8
0
  6
CONTINUOUS
 62
     3
 10
-26.5
 20
105.0
 30
-0.0000000000000233
 11
26.5
 21
105.0
 31
-0.0000000000000233
210
0.0
220
1.0
230
-0.0000000000000002
  0
LINE
  5
28F5
  8
0
  6
CONTINUOUS
 62
     3
 10
21.0
 20
135.4944463274075872
 30
-0.0000000000000301
 11
21.0
 21
121.0653221549134031
 31
-0.0000000000000269
210
0.0
220
1.0
230
-0.0000000000000002
  0
LINE
  5
28F6
  8
0
  6
CONTINUOUS
 62
     3
 10
-21.0
 20
135.4944463274075872
 30
-0.0000000000000301
 11
-21.0
 21
121.0653221549134031
 31
-0.0000000000000269
210
0.0
220
1.0
230
-0.0000000000000002
  0
ARC
  5
28F7
  8
0
  6
CONTINUOUS
 62
     3
 10
27.0000000000006288
 20
121.065322154913602
 30
0.0
 40
6.0000000000006306
210
0.0
220
-0.0000000000000002
230
-1.0
 50
180.0000000000019895
 51
200.1363034282481976
  0
ARC
  5
28F8
  8
0
  6
CONTINUOUS
 62
     3
 10
-27.0000000000006288
 20
121.065322154913602
 30
0.0
 40
6.0000000000006288
210
0.0
220
-0.0000000000000002
230
-1.0
 50
339.8636965717518024
 51
359.9999999999980105
  0
LINE
  5
28F9
  8
0
  6
CONTINUOUS
 62
     3
 10
21.3667421046803909
 20
118.9997942599628971
 30
-0.0000000000000264
 11
26.5000000000000497
 21
105.0
 31
-0.0000000000000233
210
0.0
220
1.0
230
-0.0000000000000002
  0
LINE
  5
28FA
  8
0
  6
CONTINUOUS
 62
     3
 10
-21.3667421046803909
 20
118.9997942599628971
 30
-0.0000000000000264
 11
-26.5000000000000497
 21
105.0
 31
-0.0000000000000233
210
0.0
220
1.0
230
-0.0000000000000002
  0
ARC
  5
28FB
  8
0
  6
CONTINUOUS
 62
     3
 10
9.0024327456518076
 20
163.4583225758360072
 30
0.0
 40
16.4975672620131917
210
0.0
220
-0.0000000000000002
230
-1.0
 50
359.9982534496206767
 51
23.3610410950284297
  0
ARC
  5
28FC
  8
0
  6
CONTINUOUS
 62
     3
 10
-9.0024327456516318
 20
163.4583225758360072
 30
0.0
 40
16.4975672620131384
210
0.0
220
-0.0000000000000002
230
-1.0
 50
156.638958904971787
 51
180.0017465503792096
  0
LINE
  5
28FD
  8
0
  6
CONTINUOUS
 62
     3
 10
-25.4998448162654086
 20
158.3670000000001039
 30
-0.0000000000000352
 11
-25.5000000000001101
 21
163.4578196795912959
 31
-0.0000000000000363
210
0.0
220
1.0
230
-0.0000000000000002
  0
LINE
  5
28FE
  8
0
  6
CONTINUOUS
 62
     3
 10
25.4998448162651812
 20
158.3670000000001039
 30
-0.0000000000000352
 11
25.4999999999998899
 21
163.4578196795912959
 31
-0.0000000000000363
210
0.0
220
1.0
230
-0.0000000000000002
  0
ARC
  5
28FF
  8
0
  6
CONTINUOUS
 62
     3
 10
5.5000000000011076
 20
158.366999999999905
 30
0.0
 40
19.9998448162643108
210
0.0
220
-0.0000000000000002
230
-1.0
 50
341.8060294016146941
 51
0.0000000000003931
  0
ARC
  5
2900
  8
0
  6
CONTINUOUS
 62
     3
 10
-5.5000000000008731
 20
158.366999999999905
 30
0.0
 40
19.9998448162643001
210
0.0
220
-0.0000000000000002
230
-1.0
 50
179.9999999999996021
 51
198.1939705983851923
  0
ARC
  5
2901
  8
0
  6
CONTINUOUS
 62
     3
 10
34.0000000000000924
 20
149.0
 30
0.0
 40
9.9999999999999751
210
0.0
220
-0.0000000000000002
230
-1.0
 50
161.8060294016156035
 51
179.9999999999996021
  0
ARC
  5
2902
  8
0
  6
CONTINUOUS
 62
     3
 10
-33.9999999999998579
 20
149.0
 30
0.0
 40
9.999999999999968
210
0.0
220
-0.0000000000000002
230
-1.0
 50
0.0000000000003308
 51
18.1939705983843787
  0
LINE
  5
2903
  8
0
  6
CONTINUOUS
 62
     3
 10
23.9999999999998899
 20
149.0000000000001137
 30
-0.0000000000000331
 11
23.9999999999998899
 21
144.8218253804965059
 31
-0.0000000000000322
210
0.0
220
1.0
230
-0.0000000000000002
  0
LINE
  5
2904
  8
0
  6
CONTINUOUS
 62
     3
 10
-24.0000000000001101
 20
149.0000000000001137
 30
-0.0000000000000331
 11
-24.0000000000001101
 21
144.8218253804965059
 31
-0.0000000000000322
210
0.0
220
1.0
230
-0.0000000000000002
  0
ARC
  5
2905
  8
0
  6
CONTINUOUS
 62
     3
 10
13.9999999999997495
 20
144.8218253804965912
 30
0.0
 40
10.0000000000003695
210
0.0
220
-0.0000000000000002
230
-1.0
 50
324.3409123038617849
 51
359.9999999999994884
  0
ARC
  5
2906
  8
0
  6
CONTINUOUS
 62
     3
 10
-13.9999999999995204
 20
144.8218253804965912
 30
0.0
 40
10.0000000000003606
210
0.0
220
-0.0000000000000002
230
-1.0
 50
180.0000000000003979
 51
215.6590876961383003
  0
ARC
  5
2907
  8
0
  6
CONTINUOUS
 62
     3
 10
27.0000000000004405
 20
135.4944463274075019
 30
0.0
 40
6.0000000000003251
210
0.0
220
-0.0000000000000002
230
-1.0
 50
144.3409123038622113
 51
179.9999999999992042
  0
ARC
  5
2908
  8
0
  6
CONTINUOUS
 62
     3
 10
-27.0000000000002096
 20
135.4944463274075019
 30
0.0
 40
6.000000000000318
210
0.0
220
-0.0000000000000002
230
-1.0
 50
0.0000000000008142
 51
35.6590876961377674
  0
LINE
  5
2909
  8
0
  6
CONTINUOUS
 62
     3
 10
35.6251133647408622
 20
0.0
 30
0.0
 11
-35.6251133647408622
 21
0.0
 31
0.0
210
0.0
220
1.0
230
-0.0000000000000002
  0
LINE
  5
290A
  8
0
  6
CONTINUOUS
 62
     3
 10
26.5
 20
105.0
 30
-0.0000000000000233
 11
-26.4999999999998899
 21
105.0
 31
-0.0000000000000233
210
0.0
220
1.0
230
-0.0000000000000002
  0
LINE
  5
290B
  8
0
  6
CONTINUOUS
 62
     3
 10
-35.6251133647408622
 20
0.0
 30
0.0
 11
-36.5
 21
10.0000000000001101
 31
-0.0000000000000022
210
0.0
220
1.0
230
-0.0000000000000002
  0
LINE
  5
290C
  8
0
  6
CONTINUOUS
 62
     3
 10
35.6251133647408622
 20
0.0
 30
0.0
 11
36.5
 21
10.0000000000001101
 31
-0.0000000000000022
210
0.0
220
1.0
230
-0.0000000000000002
  0
LINE
  5
290D
  8
0
  6
CONTINUOUS
 62
     3
 10
-36.5
 20
10.0000000000001101
 30
-0.0000000000000022
 11
-36.5
 21
78.0741759643274946
 31
-0.0000000000000173
210
0.0
220
1.0
230
-0.0000000000000002
  0
LINE
  5
290E
  8
0
  6
CONTINUOUS
 62
     3
 10
36.5
 20
10.0000000000001101
 30
-0.0000000000000022
 11
36.5
 21
78.0741759643274946
 31
-0.0000000000000173
210
0.0
220
1.0
230
-0.0000000000000002
  0
LINE
  5
290F
  8
0
  6
CONTINUOUS
 62
     3
 10
26.5000000000000213
 20
105.0
 30
-0.0000000000000233
 11
35.7847669088525819
 21
81.7880827278685132
 31
-0.0000000000000182
210
0.0
220
1.0
230
-0.0000000000000002
  0
LINE
  5
2910
  8
0
  6
CONTINUOUS
 62
     3
 10
-26.4999999999999005
 20
105.0
 30
-0.0000000000000233
 11
-35.7847669088524611
 21
81.7880827278685416
 31
-0.0000000000000182
210
0.0
220
1.0
230
-0.0000000000000002
  0
ARC
  5
2911
  8
0
  6
CONTINUOUS
 62
     3
 10
-26.4999999999993108
 20
78.0741759643273241
 30
0.0
 40
10.0000000000006697
210
0.0
220
-0.0000000000000002
230
-1.0
 50
158.1985905136486963
 51
179.9999999999990052
  0
ARC
  5
2912
  8
0
  6
CONTINUOUS
 62
     3
 10
26.4999999999993996
 20
78.0741759643273667
 30
0.0
 40
10.0000000000004494
210
0.0
220
-0.0000000000000002
230
-1.0
 50
0.0000000000007379
 51
21.8014094863516306
  0
LINE
  5
2913
  8
0
  6
VERDECKT
 62
     1
 10
22.7730172808580811
 20
169.4063227269431877
 30
-0.0000000000000376
 11
-22.7730172808583085
 21
169.4063227269431877
 31
-0.0000000000000376
210
0.0
220
1.0
230
-0.0000000000000002
  0
LINE
  5
2914
  8
0
  6
VERDECKT
 62
     1
 10
-25.0916855261700711
 20
104.4836180262624055
 30
-0.0000000000000232
 11
25.0916855261700711
 21
104.4836180262624055
 31
-0.0000000000000232
210
0.0
220
1.0
230
-0.0000000000000002
  0
LINE
  5
2915
  8
0
  6
VERDECKT
 62
     1
 10
-22.7730172808586495
 20
169.4063227269423919
 30
-0.0000000000000376
 11
-24.1476030003188598
 21
169.9999999999984936
 31
-0.0000000000000377
210
0.0
220
1.0
230
-0.0000000000000002
  0
LINE
  5
2916
  8
0
  6
VERDECKT
 62
     1
 10
22.7730172808577009
 20
169.4063227269440119
 30
-0.0000000000000376
 11
24.1476030003179183
 21
170.0000000000001137
 31
-0.0000000000000377
210
0.0
220
1.0
230
-0.0000000000000002
  0
ARC
  5
2917
  8
0
  6
VERDECKT
 62
     1
 10
26.9999999999983089
 20
121.0653221549131047
 30
0.0
 40
7.4999999999983116
210
0.0
220
-0.0000000000000002
230
-1.0
 50
179.9999999999978115
 51
200.1363034282506987
  0
ARC
  5
2918
  8
0
  6
VERDECKT
 62
     1
 10
-26.9999999999983089
 20
121.0653221549131047
 30
0.0
 40
7.4999999999983116
210
0.0
220
-0.0000000000000002
230
-1.0
 50
339.8636965717491876
 51
0.0000000000021755
  0
LINE
  5
2919
  8
0
  6
VERDECKT
 62
     1
 10
19.5
 20
135.4944463274077009
 30
-0.0000000000000301
 11
19.5
 21
121.0653221549134031
 31
-0.0000000000000269
210
0.0
220
1.0
230
-0.0000000000000002
  0
LINE
  5
291A
  8
0
  6
VERDECKT
 62
     1
 10
-19.5
 20
135.4944463274075872
 30
-0.0000000000000301
 11
-19.5
 21
121.0653221549134031
 31
-0.0000000000000269
210
0.0
220
1.0
230
-0.0000000000000002
  0
LINE
  5
291B
  8
0
  6
VERDECKT
 62
     1
 10
-25.0916855261700711
 20
104.4836180262624055
 30
-0.0000000000000232
 11
-26.5
 21
105.0
 31
-0.0000000000000233
210
0.0
220
1.0
230
-0.0000000000000002
  0
LINE
  5
291C
  8
0
  6
VERDECKT
 62
     1
 10
25.0916855261700711
 20
104.4836180262624055
 30
-0.0000000000000232
 11
26.5
 21
105.0
 31
-0.0000000000000233
210
0.0
220
1.0
230
-0.0000000000000002
  0
LINE
  5
291D
  8
0
  6
VERDECKT
 62
     1
 10
19.9584276308504016
 20
118.483412286225203
 30
-0.0000000000000263
 11
25.0916855261700711
 21
104.4836180262624055
 31
-0.0000000000000232
210
0.0
220
1.0
230
-0.0000000000000002
  0
LINE
  5
291E
  8
0
  6
VERDECKT
 62
     1
 10
-19.9584276308504016
 20
118.483412286225203
 30
-0.0000000000000263
 11
-25.0916855261700711
 21
104.4836180262624055
 31
-0.0000000000000232
210
0.0
220
1.0
230
-0.0000000000000002
  0
ARC
  5
291F
  8
0
  6
VERDECKT
 62
     1
 10
26.9999999999999609
 20
135.4944463274077009
 30
0.0
 40
7.499999999999833
210
0.0
220
-0.0000000000000002
230
-1.0
 50
144.3409123038607902
 51
180.0000000000007958
  0
ARC
  5
2920
  8
0
  6
VERDECKT
 62
     1
 10
-26.9999999999997193
 20
135.4944463274077009
 30
0.0
 40
7.499999999999833
210
0.0
220
-0.0000000000000002
230
-1.0
 50
0.0
 51
35.6590876961392524
  0
ARC
  5
2921
  8
0
  6
VERDECKT
 62
     1
 10
13.9999999999999893
 20
144.8218253804965059
 30
0.0
 40
8.5000000000001403
210
0.0
220
-0.0000000000000002
230
-1.0
 50
324.340912303861387
 51
0.0000000000000064
  0
ARC
  5
2922
  8
0
  6
VERDECKT
 62
     1
 10
-13.9999999999998401
 20
144.8218253804965059
 30
0.0
 40
8.5000000000000568
210
0.0
220
-0.0000000000000002
230
-1.0
 50
180.0
 51
215.6590876961388119
  0
LINE
  5
2923
  8
0
  6
VERDECKT
 62
     1
 10
22.4999999999998899
 20
149.000000000000199
 30
-0.0000000000000331
 11
22.4999999999998899
 21
144.8218253804965059
 31
-0.0000000000000322
210
0.0
220
1.0
230
-0.0000000000000002
  0
LINE
  5
2924
  8
0
  6
VERDECKT
 62
     1
 10
-22.5000000000001101
 20
149.000000000000199
 30
-0.0000000000000331
 11
-22.5000000000001101
 21
144.8218253804965059
 31
-0.0000000000000322
210
0.0
220
1.0
230
-0.0000000000000002
  0
ARC
  5
2925
  8
0
  6
VERDECKT
 62
     1
 10
34.0000000000018616
 20
149.0000000000001137
 30
0.0
 40
11.5000000000016893
210
0.0
220
-0.0000000000000002
230
-1.0
 50
161.8060294016185878
 51
179.9999999999996021
  0
ARC
  5
2926
  8
0
  6
VERDECKT
 62
     1
 10
-34.0000000000016414
 20
149.0000000000001137
 30
0.0
 40
11.5000000000016893
210
0.0
220
-0.0000000000000002
230
-1.0
 50
0.0000000000004326
 51
18.1939705983814015
  0
ARC
  5
2927
  8
0
  6
VERDECKT
 62
     1
 10
5.4999999999913767
 20
158.3670000000016103
 30
0.0
 40
18.499844816274031
210
0.0
220
-0.0000000000000002
230
-1.0
 50
341.8060294016192984
 51
359.9999999999955094
  0
ARC
  5
2928
  8
0
  6
VERDECKT
 62
     1
 10
-5.4999999999912923
 20
158.3670000000016103
 30
0.0
 40
18.4998448162738889
210
0.0
220
-0.0000000000000002
230
-1.0
 50
180.0000000000042917
 51
198.1939705983807016
  0
LINE
  5
2929
  8
0
  6
VERDECKT
 62
     1
 10
23.9998448162653517
 20
163.5260508157994082
 30
-0.0000000000000363
 11
23.9998448162653517
 21
158.3670000000001039
 31
-0.0000000000000352
210
0.0
220
1.0
230
-0.0000000000000002
  0
LINE
  5
292A
  8
0
  6
VERDECKT
 62
     1
 10
-23.9998448162655791
 20
163.5260508157994082
 30
-0.0000000000000363
 11
-23.9998448162655791
 21
158.3670000000001039
 31
-0.0000000000000352
210
0.0
220
1.0
230
-0.0000000000000002
  0
ARC
  5
292B
  8
0
  6
VERDECKT
 62
     1
 10
9.2941496353110722
 20
163.5260508158004882
 30
0.0
 40
14.7056951809546792
210
0.0
220
-0.0000000000000002
230
-1.0
 50
359.9999999999956231
 51
23.5696504395351702
  0
ARC
  5
292C
  8
0
  6
VERDECKT
 62
     1
 10
-9.2941496353110011
 20
163.5260508158004882
 30
0.0
 40
14.7056951809545104
210
0.0
220
-0.0000000000000002
230
-1.0
 50
156.4303495604646912
 51
180.0000000000044906
  0
LINE
  5
292D
  8
0
  6
VERDECKT
 62
     1
 10
34.0312018477940228
 20
0.1394491883962417
 30
0.0
 11
-34.0312018477940228
 21
0.1394491883962417
 31
0.0
210
0.0
220
1.0
230
-0.0000000000000002
  0
LINE
  5
292E
  8
0
  6
VERDECKT
 62
     1
 10
25.0144372945835904
 20
104.4057749178333978
 30
-0.0000000000000232
 11
-25.0144372945834803
 21
104.4057749178333978
 31
-0.0000000000000232
210
0.0
220
1.0
230
-0.0000000000000002
  0
LINE
  5
292F
  8
0
  6
VERDECKT
 62
     1
 10
-34.8999999999998565
 20
10.0698575086535094
 30
-0.0000000000000022
 11
-34.8999999999998565
 21
78.0741759643274946
 31
-0.0000000000000173
210
0.0
220
1.0
230
-0.0000000000000002
  0
LINE
  5
2930
  8
0
  6
VERDECKT
 62
     1
 10
34.8999999999998565
 20
10.0698575086535094
 30
-0.0000000000000022
 11
34.8999999999998565
 21
78.0741759643274946
 31
-0.0000000000000173
210
0.0
220
1.0
230
-0.0000000000000002
  0
LINE
  5
2931
  8
0
  6
VERDECKT
 62
     1
 10
-34.0312018477940796
 20
0.1394491883962355
 30
0.0
 11
-34.8999999999999204
 21
10.0698575086535094
 31
-0.0000000000000022
210
0.0
220
1.0
230
-0.0000000000000002
  0
LINE
  5
2932
  8
0
  6
VERDECKT
 62
     1
 10
34.0312018477940796
 20
0.1394491883962355
 30
0.0
 11
34.8999999999999204
 21
10.0698575086535094
 31
-0.0000000000000022
210
0.0
220
1.0
230
-0.0000000000000002
  0
LINE
  5
2933
  8
0
  6
VERDECKT
 62
     1
 10
34.0312018477940228
 20
0.1394491883962466
 30
0.0
 11
35.6251133647408622
 21
0.0000000000000049
 31
0.0
210
0.0
220
1.0
230
-0.0000000000000002
  0
LINE
  5
2934
  8
0
  6
VERDECKT
 62
     1
 10
-34.0312018477940228
 20
0.1394491883962466
 30
0.0
 11
-35.6251133647408622
 21
0.0000000000000049
 31
0.0
210
0.0
220
1.0
230
-0.0000000000000002
  0
LINE
  5
2935
  8
0
  6
VERDECKT
 62
     1
 10
-25.0144372945834697
 20
104.4057749178333978
 30
-0.0000000000000232
 11
-26.4999999999998792
 21
105.0
 31
-0.0000000000000233
210
0.0
220
1.0
230
-0.0000000000000002
  0
LINE
  5
2936
  8
0
  6
VERDECKT
 62
     1
 10
25.0144372945835904
 20
104.4057749178333978
 30
-0.0000000000000232
 11
26.5
 21
105.0
 31
-0.0000000000000233
210
0.0
220
1.0
230
-0.0000000000000002
  0
LINE
  5
2937
  8
0
  6
VERDECKT
 62
     1
 10
25.0144372945835691
 20
104.4057749178333978
 30
-0.0000000000000232
 11
34.2992042034361404
 21
81.1938576457019536
 31
-0.000000000000018
210
0.0
220
1.0
230
-0.0000000000000002
  0
LINE
  5
2938
  8
0
  6
VERDECKT
 62
     1
 10
-25.014437294583459
 20
104.4057749178333978
 30
-0.0000000000000232
 11
-34.2992042034360267
 21
81.1938576457019536
 31
-0.000000000000018
210
0.0
220
1.0
230
-0.0000000000000002
  0
ARC
  5
2939
  8
0
  6
VERDECKT
 62
     1
 10
-26.4999999999997904
 20
78.0741759643274378
 30
0.0
 40
8.4000000000001922
210
0.0
220
-0.0000000000000002
230
-1.0
 50
158.1985905136484121
 51
179.9999999999996021
  0
ARC
  5
293A
  8
0
  6
VERDECKT
 62
     1
 10
26.4999999999996803
 20
78.0741759643274378
 30
0.0
 40
8.4000000000001869
210
0.0
220
-0.0000000000000002
230
-1.0
 50
0.0000000000003944
 51
21.8014094863516306
  0
ENDBLK
  5
293C
  8
0
  0
BLOCK
  8
0
  2
A$C1B674CEC
 70
     0
 10
0.0
 20
0.0
 30
0.0
  3
A$C1B674CEC
  1

  0
CIRCLE
  5
2940
  8
0
  6
CONTINUOUS
 62
     3
 10
-0.0000000000000761
 20
0.0000000000000166
 30
0.0
 40
22.7730172808581699
  0
CIRCLE
  5
2941
  8
0
  6
CONTINUOUS
 62
     3
 10
-0.0000000000000759
 20
0.0000000000000166
 30
0.0
 40
24.1476030003180391
  0
CIRCLE
  5
2942
  8
0
  6
CONTINUOUS
 62
     3
 10
-0.0000000000000836
 20
0.0000000000000145
 30
0.0
 40
19.5
  0
CIRCLE
  5
2943
  8
0
  6
CONTINUOUS
 62
     3
 10
0.0000000000000233
 20
0.0000000000000126
 30
0.0
 40
26.5
  0
CIRCLE
  5
2944
  8
0
  6
CONTINUOUS
 62
     3
 10
-0.0000000000000806
 20
0.0000000000000153
 30
0.0
 40
22.5000000000000604
  0
CIRCLE
  5
2945
  8
0
  6
CONTINUOUS
 62
     3
 10
-0.0000000000000774
 20
0.0000000000000162
 30
0.0
 40
25.5000000076649016
  0
CIRCLE
  5
2946
  8
0
  6
CONTINUOUS
 62
     3
 10
0.0000000000000742
 20
0.0000000000000179
 30
0.0
 40
36.4999999999999076
  0
CIRCLE
  5
2947
  8
0
  6
CONTINUOUS
 62
     3
 10
0.0000000000000802
 20
0.0000000000000195
 30
0.0
 40
26.4999999999999503
  0
CIRCLE
  5
2948
  8
0
  6
VERDECKT
 62
     1
 10
-0.0000000000000836
 20
0.0000000000000145
 30
0.0
 40
21.0
  0
CIRCLE
  5
2949
  8
0
  6
VERDECKT
 62
     1
 10
0.0000000000000232
 20
0.0000000000000126
 30
0.0
 40
25.0916855261700711
  0
CIRCLE
  5
294A
  8
0
  6
VERDECKT
 62
     1
 10
-0.0000000000000806
 20
0.0000000000000153
 30
0.0
 40
24.0
  0
CIRCLE
  5
294B
  8
0
  6
VERDECKT
 62
     1
 10
-0.0000000000000774
 20
0.0000000000000162
 30
0.0
 40
23.9998448162656395
  0
CIRCLE
  5
294C
  8
0
  6
VERDECKT
 62
     1
 10
0.0000000000000742
 20
0.0000000000000179
 30
0.0
 40
34.8999999999999204
  0
CIRCLE
  5
294D
  8
0
  6
VERDECKT
 62
     1
 10
0.0
 20
0.0000000000000065
 30
0.0
 40
34.0312018477940228
  0
CIRCLE
  5
294E
  8
0
  6
VERDECKT
 62
     1
 10
0.0
 20
0.0000000000000064
 30
0.0
 40
35.6251133647408622
  0
CIRCLE
  5
294F
  8
0
  6
VERDECKT
 62
     1
 10
0.00000000000008
 20
0.0000000000000195
 30
0.0
 40
25.01443729458353
  0
ENDBLK
  5
2951
  8
0
  0
ENDSEC
  0
SECTION
  2
ENTITIES
  0
INSERT
  5
216A
  8
ADSK_ASSOC_ENTITY_BACKUPS
  2
*S3
 10
0.0
 20
0.0
 30
0.0
  0
INSERT
  5
293D
  8
STEMPEL
  2
A$C51F16754
 10
0.0
 20
0.0
 30
0.0
  0
INSERT
  5
2952
  8
STEMPEL
  2
A$C1B674CEC
 10
0.0
 20
-120.0
 30
0.0
  0
VIEWPORT
  5
D7F
 67
     1
  8
0
 10
224.905345333859799
 20
119.2622248812618011
 30
0.0
 40
915.7164184134240941
 41
502.4700347191608216
 68
     1
 69
     1
1001
ACAD
1000
MVIEW
1002
{
1070
    16
1010
0.0
1020
0.0
1030
0.0
1010
0.0
1020
0.0
1030
1.0
1040
0.0
1040
502.4700347191608216
1040
224.905345333859799
1040
119.2622248812618011
1040
50.0
1040
0.0
1040
0.0
1070
     0
1070
  1500
1070
     1
1070
     1
1070
     0
1070
     0
1070
     0
1070
     0
1040
0.0
1040
0.0
1040
0.0
1040
10.0
1040
10.0
1040
10.0
1040
10.0
1070
     0
1002
{
1002
}
1002
}
  0
ENDSEC
  0
EOF
