  0
SECTION
  2
HEADER
  9
$ACADVER
  1
AC1009
  9
$INSBASE
 10
0.0
 20
0.0
 30
0.0
  9
$EXTMIN
 10
-42.4018656699304017
 20
-431.1020435975128748
 30
-7.1619579980313182
  9
$EXTMAX
 10
486.0173304819585951
 20
160.5320319382267087
 30
-7.1619579980312551
  9
$LIMMIN
 10
0.0
 20
0.0
  9
$LIMMAX
 10
419.9999999999998863
 20
594.0
  9
$ORTHOMODE
 70
     1
  9
$REGENMODE
 70
     1
  9
$FILLMODE
 70
     1
  9
$QTEXTMODE
 70
     0
  9
$MIRRTEXT
 70
     1
  9
$DRAGMODE
 70
     2
  9
$LTSCALE
 40
10.0
  9
$OSMODE
 70
  1327
  9
$ATTMODE
 70
     1
  9
$TEXTSIZE
 40
3.5
  9
$TRACEWID
 40
0.5
  9
$TEXTSTYLE
  7
STANDARD
  9
$CLAYER
  8
0
  9
$CELTYPE
  6
BYLAYER
  9
$CECOLOR
 62
   256
  9
$DIMSCALE
 40
1.0
  9
$DIMASZ
 40
3.5
  9
$DIMEXO
 40
1.0
  9
$DIMDLI
 40
7.0
  9
$DIMRND
 40
0.0
  9
$DIMDLE
 40
0.0
  9
$DIMEXE
 40
1.0
  9
$DIMTP
 40
0.0
  9
$DIMTM
 40
0.0
  9
$DIMTXT
 40
3.5
  9
$DIMCEN
 40
1.5
  9
$DIMTSZ
 40
0.0
  9
$DIMTOL
 70
     0
  9
$DIMLIM
 70
     0
  9
$DIMTIH
 70
     0
  9
$DIMTOH
 70
     0
  9
$DIMSE1
 70
     0
  9
$DIMSE2
 70
     0
  9
$DIMTAD
 70
     1
  9
$DIMZIN
 70
     8
  9
$DIMBLK
  1

  9
$DIMASO
 70
     1
  9
$DIMSHO
 70
     0
  9
$DIMPOST
  1

  9
$DIMAPOST
  1

  9
$DIMALT
 70
     0
  9
$DIMALTD
 70
     2
  9
$DIMALTF
 40
25.3999999999999986
  9
$DIMLFAC
 40
2.0
  9
$DIMTOFL
 70
     1
  9
$DIMTVP
 40
0.0
  9
$DIMTIX
 70
     0
  9
$DIMSOXD
 70
     0
  9
$DIMSAH
 70
     0
  9
$DIMBLK1
  1

  9
$DIMBLK2
  1

  9
$DIMSTYLE
  2
STANDARD
  9
$DIMCLRD
 70
     0
  9
$DIMCLRE
 70
     0
  9
$DIMCLRT
 70
     1
  9
$DIMTFAC
 40
0.5142857142857143
  9
$DIMGAP
 40
1.5
  9
$LUNITS
 70
     2
  9
$LUPREC
 70
     2
  9
$SKETCHINC
 40
1.0
  9
$FILLETRAD
 40
0.0
  9
$AUNITS
 70
     0
  9
$AUPREC
 70
     0
  9
$MENU
  1
ACAD
  9
$ELEVATION
 40
0.0
  9
$PELEVATION
 40
0.0
  9
$THICKNESS
 40
0.0
  9
$LIMCHECK
 70
     0
  9
$BLIPMODE
 70
     0
  9
$CHAMFERA
 40
0.0
  9
$CHAMFERB
 40
0.0
  9
$SKPOLY
 70
     0
  9
$TDCREATE
 40
2455397.8646990740671754
  9
$TDUPDATE
 40
2458646.5681597217917442
  9
$TDINDWG
 40
0.3860167708
  9
$TDUSRTIMER
 40
0.3860167708
  9
$USRTIMER
 70
     1
  9
$ANGBASE
 50
0.0
  9
$ANGDIR
 70
     0
  9
$PDMODE
 70
     0
  9
$PDSIZE
 40
0.0
  9
$PLINEWID
 40
0.0
  9
$COORDS
 70
     1
  9
$SPLFRAME
 70
     0
  9
$SPLINETYPE
 70
     6
  9
$SPLINESEGS
 70
     8
  9
$ATTDIA
 70
     0
  9
$ATTREQ
 70
     0
  9
$HANDLING
 70
     1
  9
$HANDSEED
  5
4AF1
  9
$SURFTAB1
 70
     6
  9
$SURFTAB2
 70
     6
  9
$SURFTYPE
 70
     6
  9
$SURFU
 70
     6
  9
$SURFV
 70
     6
  9
$UCSNAME
  2

  9
$UCSORG
 10
0.0
 20
0.0
 30
0.0
  9
$UCSXDIR
 10
1.0
 20
0.0
 30
0.0
  9
$UCSYDIR
 10
0.0
 20
1.0
 30
0.0
  9
$PUCSNAME
  2

  9
$PUCSORG
 10
0.0
 20
0.0
 30
0.0
  9
$PUCSXDIR
 10
1.0
 20
0.0
 30
0.0
  9
$PUCSYDIR
 10
0.0
 20
1.0
 30
0.0
  9
$USERI1
 70
     0
  9
$USERI2
 70
     0
  9
$USERI3
 70
     0
  9
$USERI4
 70
     0
  9
$USERI5
 70
     0
  9
$USERR1
 40
0.0
  9
$USERR2
 40
0.0
  9
$USERR3
 40
0.0
  9
$USERR4
 40
0.0
  9
$USERR5
 40
0.0
  9
$WORLDVIEW
 70
     1
  9
$SHADEDGE
 70
     3
  9
$SHADEDIF
 70
    70
  9
$TILEMODE
 70
     1
  9
$MAXACTVP
 70
    16
  9
$PLIMCHECK
 70
     0
  9
$PEXTMIN
 10
1.0000000000000000E+20
 20
1.0000000000000000E+20
 30
1.0000000000000000E+20
  9
$PEXTMAX
 10
-1.0000000000000000E+20
 20
-1.0000000000000000E+20
 30
-1.0000000000000000E+20
  9
$PLIMMIN
 10
-101.7983263582822957
 20
323.8780903181836948
  9
$PLIMMAX
 10
108.2016736417176048
 20
620.8780903181835811
  9
$UNITMODE
 70
     0
  9
$VISRETAIN
 70
     0
  9
$PLINEGEN
 70
     0
  9
$PSLTSCALE
 70
     0
  0
ENDSEC
  0
SECTION
  2
TABLES
  0
TABLE
  2
VPORT
 70
     1
  0
VPORT
  2
*ACTIVE
 70
     0
 10
0.0
 20
0.0
 11
1.0
 21
1.0
 12
125.451752661815604
 22
-87.8771702340225147
 13
0.0
 23
0.0
 14
1.0
 24
1.0
 15
10.0
 25
10.0
 16
0.0000000000003553
 26
0.0
 36
1625.8121170367498962
 17
96.3559797441985211
 27
-47.407835595620611
 37
124.0960431885320929
 40
596.1218182073129128
 41
1.912658227848101
 42
50.0
 43
0.0
 44
0.0
 50
0.0
 51
0.0
 71
     0
 72
  1500
 73
     1
 74
     0
 75
     0
 76
     0
 77
     0
 78
     0
  0
ENDTAB
  0
TABLE
  2
LTYPE
 70
     6
  0
LTYPE
  2
CONTINUOUS
 70
     0
  3
Solid line
 72
    65
 73
     0
 40
0.0
  0
LTYPE
  2
VERDECKT
 70
     0
  3
Verdeckt __ __ __ __ __ __ __ __ __ __ __ __ __
 72
    65
 73
     2
 40
0.375
 49
0.25
 49
-0.125
  0
ENDTAB
  0
TABLE
  2
LAYER
 70
    14
  0
LAYER
  2
0
 70
     0
 62
     7
  6
CONTINUOUS
  0
LAYER
  2
VOLL
 70
     0
 62
     1
  6
CONTINUOUS
  0
LAYER
  2
DEFPOINTS
 70
     0
 62
     7
  6
CONTINUOUS
  0
LAYER
  2
ADSK_ASSOC_ENTITY_BACKUPS
 70
     1
 62
    -7
  6
CONTINUOUS
  0
ENDTAB
  0
TABLE
  2
STYLE
 70
     4
  0
STYLE
  2
STANDARD
 70
     0
 40
0.0
 41
0.8
 50
0.0
 71
     0
 42
3.5
  3
simplex.shx
  4

  0
STYLE
  2
GREEKS
 70
     0
 40
0.0
 41
0.8
 50
0.0
 71
     0
 42
2.5
  3
SIMPLEX.shx
  4

  0
ENDTAB
  0
TABLE
  2
VIEW
 70
     1
  0
ENDTAB
  0
TABLE
  2
UCS
 70
     0
  0
ENDTAB
  0
TABLE
  2
APPID
 70
    17
  0
APPID
  2
ACAD
 70
     0
  0
APPID
  2
ACAD_NAV_VCDISPLAY
 70
     0
  0
APPID
  2
ACAECLAYERSTANDARD
 70
     0
  0
APPID
  2
ACCMTRANSPARENCY
 70
     0
  0
APPID
  2
ACAD_PSEXT
 70
     0
  0
APPID
  2
ACAD_MLEADERVER
 70
     0
  0
APPID
  2
ACAD_OBJECT_CHANGE_GUID
 70
     0
  0
APPID
  2
ACAD_STEPID
 70
     0
  0
APPID
  2
ACAD_EXEMPT_FROM_CAD_STANDARDS
 70
     0
  0
APPID
  2
ACSYNERGY
 70
     0
  0
APPID
  2
SYNERGY_BODY_TBR_ID
 70
     0
  0
APPID
  2
ACAD_VIEW_EDGE_ID
 70
     0
  0
APPID
  2
ACSYNERGYSKETCH
 70
     0
  0
APPID
  2
ACAD_MODELDOC_XFORM
 70
     0
  0
APPID
  2
ACAD_DSTYLE_DIMJAG
 70
     0
  0
APPID
  2
ACAD_DSTYLE_DIMTALN
 70
     0
  0
APPID
  2
ACADANNOMONITORALERTICONDI
 70
     0
  0
ENDTAB
  0
TABLE
  2
DIMSTYLE
 70
     2
  0
DIMSTYLE
  2
STANDARD
 70
     0
  3

  4

  5

  6

  7

 40
1.0
 41
0.18
 42
0.0625
 43
0.38
 44
0.18
 45
0.0
 46
0.0
 47
0.0
 48
0.0
140
0.18
141
0.09
142
0.0
143
25.3999999999999986
144
1.0
145
0.0
146
1.0
147
0.09
 71
     0
 72
     0
 73
     1
 74
     1
 75
     0
 76
     0
 77
     0
 78
     0
170
     0
171
     2
172
     0
173
     0
174
     0
175
     0
176
     0
177
     0
178
     0
  0
ENDTAB
  0
ENDSEC
  0
SECTION
  2
BLOCKS
  0
BLOCK
  8
0
  2
$MODEL_SPACE
 70
     0
 10
0.0
 20
0.0
 30
0.0
  3
$MODEL_SPACE
  1

  0
ENDBLK
  5
36
  8
0
  0
BLOCK
 67
     1
  8
0
  2
$PAPER_SPACE
 70
     0
 10
0.0
 20
0.0
 30
0.0
  3
$PAPER_SPACE
  1

  0
ENDBLK
  5
34
 67
     1
  8
0
  0
BLOCK
  8
0
  2
*S2
 70
     1
 10
0.0
 20
0.0
 30
0.0
  3
*S2
  1

  0
ENDBLK
  5
443C
  8
0
  0
BLOCK
  8
0
  2
A$C652E5BE6
 70
     0
 10
0.0
 20
0.0
 30
0.0
  3
A$C652E5BE6
  1

  0
ARC
  5
49B4
  8
0
  6
CONTINUOUS
 62
     3
 10
48.7164269701521917
 20
-97.0882330499664903
 30
0.0
 40
109.5000000000003979
 50
224.3263384953959019
 51
0.0
  0
ARC
  5
49B5
  8
0
  6
CONTINUOUS
 62
     3
 10
48.7164269701521917
 20
-97.0882330499664903
 30
0.0
 40
109.5000000000003979
 50
0.0
 51
135.6736615046040981
  0
CIRCLE
  5
49B6
  8
0
  6
CONTINUOUS
 62
     3
 10
18.7164269701523089
 20
-97.0882330499664903
 30
0.0
 40
77.0000000000001137
  0
CIRCLE
  5
49B7
  8
0
  6
CONTINUOUS
 62
     3
 10
18.7164269701523196
 20
-97.0882330499664903
 30
0.0
 40
82.0000000000001137
  0
CIRCLE
  5
49B8
  8
0
  6
CONTINUOUS
 62
     3
 10
18.7164269701523303
 20
-97.0882330499664903
 30
0.0
 40
84.0
  0
CIRCLE
  5
49B9
  8
0
  6
CONTINUOUS
 62
     3
 10
18.7164269701523303
 20
-97.0882330499664903
 30
0.0
 40
86.7584447974062272
  0
CIRCLE
  5
49BA
  8
0
  6
CONTINUOUS
 62
     3
 10
18.7164269701523303
 20
-97.0882330499664903
 30
0.0
 40
90.5000000000001137
  0
CIRCLE
  5
49BB
  8
0
  6
CONTINUOUS
 62
     3
 10
18.7164269701523196
 20
-97.0882330499664903
 30
0.0
 40
90.5000474056393358
  0
ARC
  5
49BC
  8
0
  6
CONTINUOUS
 62
     3
 10
48.7164269701521491
 20
-97.088233049966405
 30
0.0000000000000109
 40
105.7140358358648058
 50
165.7052506957701041
 51
180.0
  0
ARC
  5
49BD
  8
0
  6
CONTINUOUS
 62
     3
 10
48.7164269701514669
 20
-97.0882330499665898
 30
0.0000000000000109
 40
105.7140358358640952
 50
179.9999999999998863
 51
194.2947493042298959
  0
ARC
  5
49BE
  8
0
  6
CONTINUOUS
 62
     3
 10
48.7164269701458181
 20
-97.0882330499664761
 30
0.0
 40
106.5999999999935994
 50
172.0520107147509066
 51
187.9479892852490082
  0
ARC
  5
49BF
  8
0
  6
VERDECKT
 62
     1
 10
48.7164269701521917
 20
-97.0882330499664903
 30
0.0
 40
109.5000000000004974
 50
135.6736615046040981
 51
224.3263384953959019
  0
CIRCLE
  5
49C0
  8
0
  6
VERDECKT
 62
     1
 10
18.7164269701523196
 20
-97.0882330499664903
 30
0.0
 40
84.5000000000001137
  0
CIRCLE
  5
49C1
  8
0
  6
VERDECKT
 62
     1
 10
18.7164269701523089
 20
-97.0882330499664903
 30
0.0
 40
79.5000000000001137
  0
CIRCLE
  5
49C2
  8
0
  6
VERDECKT
 62
     1
 10
18.7164269701523303
 20
-97.0882330499664903
 30
0.0
 40
88.0000000000001137
  0
CIRCLE
  5
49C3
  8
0
  6
VERDECKT
 62
     1
 10
18.7164269701523196
 20
-97.0882330499664903
 30
0.0
 40
88.0019723202421176
  0
CIRCLE
  5
49C4
  8
0
  6
VERDECKT
 62
     1
 10
48.7164269701523835
 20
-97.0882330499664903
 30
0.0000000000000109
 40
108.6251133647407983
  0
ARC
  5
49C5
  8
0
  6
VERDECKT
 62
     1
 10
48.7164269701521491
 20
-97.0882330499664477
 30
0.0000000000000109
 40
105.7140358358648058
 50
194.2947493042298959
 51
165.7052506957701041
  0
ARC
  5
49C6
  8
0
  6
VERDECKT
 62
     1
 10
48.7164269701521917
 20
-97.0882330499664334
 30
0.0
 40
106.5999999999998948
 50
187.9479892852486103
 51
172.0520107147513045
  0
ENDBLK
  5
49C8
  8
0
  0
BLOCK
  8
0
  2
A$C5362407A
 70
     0
 10
0.0
 20
0.0
 30
0.0
  3
A$C5362407A
  1

  0
LINE
  5
49CC
  8
0
  6
CONTINUOUS
 62
     3
 10
158.2164269701526109
 20
165.0000000000001137
 30
-0.0000000000000366
 11
-60.7835730298482986
 21
165.0000000000001137
 31
-0.0000000000000366
210
0.0
220
1.0
230
-0.0000000000000002
  0
LINE
  5
49CD
  8
0
  6
CONTINUOUS
 62
     3
 10
-60.7835730298482773
 20
169.0000000000001137
 30
-0.0000000000000375
 11
158.2164269701526109
 21
169.0000000000001137
 31
-0.0000000000000375
210
0.0
220
1.0
230
-0.0000000000000002
  0
LINE
  5
49CE
  8
0
  6
CONTINUOUS
 62
     3
 10
158.2164269701526109
 20
169.0000000000001137
 30
-0.0000000000000375
 11
158.2164269701526109
 21
165.0000000000001137
 31
-0.0000000000000366
210
0.0
220
1.0
230
-0.0000000000000002
  0
LINE
  5
49CF
  8
0
  6
CONTINUOUS
 62
     3
 10
-60.7835730298482986
 20
169.0000000000001137
 30
-0.0000000000000375
 11
-60.7835730298482986
 21
165.0000000000001137
 31
-0.0000000000000366
210
0.0
220
1.0
230
-0.0000000000000002
  0
LINE
  5
49D0
  8
0
  6
CONTINUOUS
 62
     3
 10
-68.0420178272539573
 20
282.0000000000002274
 30
-0.0000000000000626
 11
105.474871767558497
 21
282.0000000000002274
 31
-0.0000000000000626
210
0.0
220
1.0
230
-0.0000000000000002
  0
LINE
  5
49D1
  8
0
  6
CONTINUOUS
 62
     3
 10
103.2164269701523978
 20
225.500000000000199
 30
-0.0000000000000501
 11
103.2164269701523978
 21
210.4409715080672072
 31
-0.0000000000000467
210
0.0
220
1.0
230
-0.0000000000000002
  0
LINE
  5
49D2
  8
0
  6
CONTINUOUS
 62
     3
 10
-65.7835730298478438
 20
225.500000000000199
 30
-0.0000000000000501
 11
-65.7835730298478438
 21
210.4409715080672072
 31
-0.0000000000000467
210
0.0
220
1.0
230
-0.0000000000000002
  0
ARC
  5
49D3
  8
0
  6
CONTINUOUS
 62
     3
 10
47.7835730298473607
 20
210.4409715080674914
 30
0.0
 40
18.0000000000004796
210
0.0
220
-0.0000000000000002
230
-1.0
 50
325.22805596805199
 51
359.9999999999992042
  0
ARC
  5
49D4
  8
0
  6
CONTINUOUS
 62
     3
 10
-85.2164269701519146
 20
210.4409715080674914
 30
0.0
 40
18.000000000000469
210
0.0
220
-0.0000000000000002
230
-1.0
 50
180.0000000000007105
 51
214.7719440319478963
  0
ARC
  5
49D5
  8
0
  6
CONTINUOUS
 62
     3
 10
70.7835730298476165
 20
194.472252085396093
 30
0.0
 40
9.9999999999997762
210
0.0
220
-0.0000000000000002
230
-1.0
 50
145.2280559680503984
 51
180.0000000000003979
  0
ARC
  5
49D6
  8
0
  6
CONTINUOUS
 62
     3
 10
-108.2164269701520993
 20
194.472252085396093
 30
0.0
 40
9.9999999999997708
210
0.0
220
-0.0000000000000002
230
-1.0
 50
359.9999999999994884
 51
34.7719440319495874
  0
LINE
  5
49D7
  8
0
  6
CONTINUOUS
 62
     3
 10
98.2164269701523835
 20
194.472252085395894
 30
-0.0000000000000432
 11
98.2164269701523835
 21
169.0000000000003126
 31
-0.0000000000000375
210
0.0
220
1.0
230
-0.0000000000000002
  0
LINE
  5
49D8
  8
0
  6
CONTINUOUS
 62
     3
 10
-60.7835730298478367
 20
194.472252085395894
 30
-0.0000000000000432
 11
-60.7835730298478367
 21
169.0000000000003126
 31
-0.0000000000000375
210
0.0
220
1.0
230
-0.0000000000000002
  0
LINE
  5
49D9
  8
0
  6
CONTINUOUS
 62
     3
 10
105.4748717675585965
 20
282.0000000000002274
 30
-0.0000000000000626
 11
105.9371995164352001
 21
281.0085349429907069
 31
-0.0000000000000624
210
0.0
220
1.0
230
-0.0000000000000002
  0
LINE
  5
49DA
  8
0
  6
CONTINUOUS
 62
     3
 10
-68.0420178272540426
 20
282.0000000000002274
 30
-0.0000000000000626
 11
-68.5043455761306888
 21
281.0085349429907069
 31
-0.0000000000000624
210
0.0
220
1.0
230
-0.0000000000000002
  0
ARC
  5
49DB
  8
0
  6
CONTINUOUS
 62
     3
 10
36.7835730298374415
 20
266.2168957820637729
 30
0.0
 40
35.0000000000104166
210
0.0
220
-0.0000000000000002
230
-1.0
 50
0.0
 51
24.9999999999919886
  0
ARC
  5
49DC
  8
0
  6
CONTINUOUS
 62
     3
 10
-74.2164269701419812
 20
266.2168957820637729
 30
0.0
 40
35.0000000000104166
210
0.0
220
-0.0000000000000002
230
-1.0
 50
155.0000000000038085
 51
179.9999999999957936
  0
LINE
  5
49DD
  8
0
  6
CONTINUOUS
 62
     3
 10
109.2164269701523978
 20
266.2168957820663877
 30
-0.0000000000000591
 11
109.2164269701523978
 21
250.0526055291772138
 31
-0.0000000000000555
210
0.0
220
1.0
230
-0.0000000000000002
  0
LINE
  5
49DE
  8
0
  6
CONTINUOUS
 62
     3
 10
-71.7835730298478438
 20
266.2168957820663877
 30
-0.0000000000000591
 11
-71.7835730298478438
 21
250.0526055291772991
 31
-0.0000000000000555
210
0.0
220
1.0
230
-0.0000000000000002
  0
ARC
  5
49DF
  8
0
  6
CONTINUOUS
 62
     3
 10
36.7835730298428487
 20
249.9950000000015962
 30
0.0
 40
35.000047405644203
210
0.0
220
-0.0000000000000002
230
-1.0
 50
332.4728163794468969
 51
0.0943014490887016
  0
ARC
  5
49E0
  8
0
  6
CONTINUOUS
 62
     3
 10
-74.2164269701473813
 20
249.9950000000015962
 30
0.0
 40
35.0000474056442101
210
0.0
220
-0.0000000000000002
230
-1.0
 50
179.9056985509112963
 51
207.5271836205531031
  0
ARC
  5
49E1
  8
0
  6
CONTINUOUS
 62
     3
 10
83.7835730298473322
 20
225.5000000000005116
 30
0.0
 40
17.9999999999994706
210
0.0
220
-0.0000000000000002
230
-1.0
 50
152.4728163794534908
 51
180.0000000000007105
  0
ARC
  5
49E2
  8
0
  6
CONTINUOUS
 62
     3
 10
-121.2164269701518009
 20
225.5000000000005116
 30
0.0
 40
17.9999999999994706
210
0.0
220
-0.0000000000000002
230
-1.0
 50
359.9999999999992042
 51
27.5271836205464595
  0
LINE
  5
49E3
  8
0
  6
CONTINUOUS
 62
     3
 10
-59.9086863945884716
 20
-0.0000000000000853
 30
0.0
 11
157.3415403348932102
 21
0.000000000000199
 31
0.0
210
0.0
220
1.0
230
-0.0000000000000002
  0
LINE
  5
49E4
  8
0
  6
CONTINUOUS
 62
     3
 10
-60.7835730298482773
 20
165.0000000000001137
 30
-0.0000000000000366
 11
158.2164269701526109
 21
165.0000000000001137
 31
-0.0000000000000366
210
0.0
220
1.0
230
-0.0000000000000002
  0
ARC
  5
49E5
  8
0
  6
CONTINUOUS
 62
     3
 10
42.8835730298491882
 20
10.7815308780661407
 30
0.0
 40
17.8999999999990891
210
0.0
220
-0.0000000000000002
230
-1.0
 50
354.9999999999992042
 51
0.0000000000002926
  0
ARC
  5
49E6
  8
0
  6
CONTINUOUS
 62
     3
 10
-140.3164269701433113
 20
10.7815308780665493
 30
0.0
 40
17.9000000000092712
210
0.0
220
-0.0000000000000002
230
-1.0
 50
180.0000000000009095
 51
184.9999999999990905
  0
LINE
  5
49E7
  8
0
  6
CONTINUOUS
 62
     3
 10
-59.9086863945883508
 20
-0.0000000000000853
 30
0.0
 11
-60.7154581256903114
 21
9.2214430828829048
 31
-0.000000000000002
210
0.0
220
1.0
230
-0.0000000000000002
  0
LINE
  5
49E8
  8
0
  6
CONTINUOUS
 62
     3
 10
157.3415403348930965
 20
0.0000000000002087
 30
0.0
 11
158.1483120659949861
 21
9.2214430828829101
 31
-0.000000000000002
210
0.0
220
1.0
230
-0.0000000000000002
  0
LINE
  5
49E9
  8
0
  6
CONTINUOUS
 62
     3
 10
158.2164269701526109
 20
165.0000000000001137
 30
-0.0000000000000366
 11
158.2164269701526109
 21
10.7815308780662296
 31
-0.0000000000000024
210
0.0
220
1.0
230
-0.0000000000000002
  0
LINE
  5
49EA
  8
0
  6
CONTINUOUS
 62
     3
 10
-60.7835730298482986
 20
165.0000000000001137
 30
-0.0000000000000366
 11
-60.7835730298482986
 21
10.7815308780662296
 31
-0.0000000000000024
210
0.0
220
1.0
230
-0.0000000000000002
  0
LINE
  5
49EB
  8
0
  6
VERDECKT
 62
     1
 10
95.7164269701521562
 20
169.0000000000003126
 30
-0.0000000000000375
 11
95.7164269701521562
 21
165.0000000000001137
 31
-0.0000000000000366
210
0.0
220
1.0
230
-0.0000000000000002
  0
LINE
  5
49EC
  8
0
  6
VERDECKT
 62
     1
 10
-58.2835730298478367
 20
169.0000000000001137
 30
-0.0000000000000375
 11
-58.2835730298478367
 21
165.0000000000001137
 31
-0.0000000000000366
210
0.0
220
1.0
230
-0.0000000000000002
  0
LINE
  5
49ED
  8
0
  6
VERDECKT
 62
     1
 10
95.716426970152483
 20
194.472252085395894
 30
-0.0000000000000432
 11
95.716426970152483
 21
169.0000000000003126
 31
-0.0000000000000375
210
0.0
220
1.0
230
-0.0000000000000002
  0
LINE
  5
49EE
  8
0
  6
VERDECKT
 62
     1
 10
-58.2835730298479504
 20
194.472252085395894
 30
-0.0000000000000432
 11
-58.2835730298479504
 21
169.0000000000003126
 31
-0.0000000000000375
210
0.0
220
1.0
230
-0.0000000000000002
  0
ARC
  5
49EF
  8
0
  6
VERDECKT
 62
     1
 10
70.7835730298480286
 20
194.4722520853956951
 30
0.0
 40
12.5000000000001705
210
0.0
220
-0.0000000000000002
230
-1.0
 50
145.2280559680523027
 51
179.9999999999990905
  0
ARC
  5
49F0
  8
0
  6
VERDECKT
 62
     1
 10
-108.2164269701524972
 20
194.4722520853956951
 30
0.0
 40
12.5000000000001705
210
0.0
220
-0.0000000000000002
230
-1.0
 50
0.0
 51
34.7719440319468731
  0
ARC
  5
49F1
  8
0
  6
VERDECKT
 62
     1
 10
47.783573029847993
 20
210.4409715080670935
 30
0.0
 40
15.4999999999998597
210
0.0
220
-0.0000000000000002
230
-1.0
 50
325.2280559680506826
 51
0.0000000000004262
  0
ARC
  5
49F2
  8
0
  6
VERDECKT
 62
     1
 10
-85.2164269701525967
 20
210.4409715080670935
 30
0.0
 40
15.4999999999997993
210
0.0
220
-0.0000000000000002
230
-1.0
 50
179.9999999999996021
 51
214.7719440319494879
  0
LINE
  5
49F3
  8
0
  6
VERDECKT
 62
     1
 10
100.7164269701523978
 20
225.500000000000199
 30
-0.0000000000000501
 11
100.7164269701523978
 21
210.4409715080672072
 31
-0.0000000000000467
210
0.0
220
1.0
230
-0.0000000000000002
  0
LINE
  5
49F4
  8
0
  6
VERDECKT
 62
     1
 10
-63.2835730298478367
 20
225.500000000000199
 30
-0.0000000000000501
 11
-63.2835730298478367
 21
210.4409715080672072
 31
-0.0000000000000467
210
0.0
220
1.0
230
-0.0000000000000002
  0
ARC
  5
49F5
  8
0
  6
VERDECKT
 62
     1
 10
83.7835730298473464
 20
225.5000000000003979
 30
0.0
 40
20.4999999999995097
210
0.0
220
-0.0000000000000002
230
-1.0
 50
152.1156863126252858
 51
180.0000000000003979
  0
ARC
  5
49F6
  8
0
  6
VERDECKT
 62
     1
 10
-121.2164269701518009
 20
225.5000000000003979
 30
0.0
 40
20.4999999999994493
210
0.0
220
-0.0000000000000002
230
-1.0
 50
359.9999999999993179
 51
27.8843136873746893
  0
ARC
  5
49F7
  8
0
  6
VERDECKT
 62
     1
 10
36.7855453500900822
 20
249.9973015192825017
 30
0.0
 40
32.4999999999997797
210
0.0
220
-0.0000000000000002
230
-1.0
 50
332.6928769931997749
 51
0.6312288822659277
  0
ARC
  5
49F8
  8
0
  6
VERDECKT
 62
     1
 10
-74.2183992903946148
 20
249.9973015192825017
 30
0.0
 40
32.4999999999997797
210
0.0
220
-0.0000000000000002
230
-1.0
 50
179.3687711177340987
 51
207.3071230068001967
  0
LINE
  5
49F9
  8
0
  6
VERDECKT
 62
     1
 10
106.7164269701523978
 20
266.2168957820663877
 30
-0.0000000000000591
 11
106.7164269701523978
 21
250.3553475019209031
 31
-0.0000000000000556
210
0.0
220
1.0
230
-0.0000000000000002
  0
LINE
  5
49FA
  8
0
  6
VERDECKT
 62
     1
 10
-69.2835730298478438
 20
266.2168957820663877
 30
-0.0000000000000591
 11
-69.2835730298478438
 21
250.3553475019209031
 31
-0.0000000000000556
210
0.0
220
1.0
230
-0.0000000000000002
  0
ARC
  5
49FB
  8
0
  6
VERDECKT
 62
     1
 10
36.7835730298372425
 20
266.2168957820640003
 30
0.0
 40
32.5000000000106013
210
0.0
220
-0.0000000000000002
230
-1.0
 50
0.0000000000043128
 51
24.9999999999958611
  0
ARC
  5
49FC
  8
0
  6
VERDECKT
 62
     1
 10
-74.216426970141768
 20
266.2168957820640003
 30
0.0
 40
32.5000000000106226
210
0.0
220
-0.0000000000000002
230
-1.0
 50
155.0000000000040927
 51
179.9999999999957083
  0
LINE
  5
49FD
  8
0
  6
VERDECKT
 62
     1
 10
102.7164269701521988
 20
282.0000000000002842
 30
-0.0000000000000626
 11
103.6714300488434048
 21
279.9519892886390267
 31
-0.0000000000000622
210
0.0
220
1.0
230
-0.0000000000000002
  0
LINE
  5
49FE
  8
0
  6
VERDECKT
 62
     1
 10
-65.2835730298476875
 20
282.0000000000002842
 30
-0.0000000000000626
 11
-66.2385761085389078
 21
279.9519892886390267
 31
-0.0000000000000622
210
0.0
220
1.0
230
-0.0000000000000002
  0
ARC
  5
49FF
  8
0
  6
VERDECKT
 62
     1
 10
42.8835730298432622
 20
10.7815308780624992
 30
0.0
 40
15.00000000000448
210
0.0
220
-0.0000000000000002
230
-1.0
 50
354.9999999999992042
 51
359.9999999999992042
  0
ARC
  5
4A00
  8
0
  6
VERDECKT
 62
     1
 10
-140.3164269701518947
 20
10.7815308780626999
 30
0.0
 40
15.0000000000006501
210
0.0
220
-0.0000000000000002
230
-1.0
 50
180.0000000000003979
 51
185.0000000000017053
  0
LINE
  5
4A01
  8
0
  6
VERDECKT
 62
     1
 10
-56.9976088657125501
 20
-0.0000000000000853
 30
0.0
 11
-57.8264935012239008
 21
9.4741947368470338
 31
-0.0000000000000021
210
0.0
220
1.0
230
-0.0000000000000002
  0
LINE
  5
4A02
  8
0
  6
VERDECKT
 62
     1
 10
154.4304628060172888
 20
0.0000000000002034
 30
0.0
 11
155.2593474415286039
 21
9.4741947368473181
 31
-0.0000000000000021
210
0.0
220
1.0
230
-0.0000000000000002
  0
LINE
  5
4A03
  8
0
  6
VERDECKT
 62
     1
 10
155.3164269701524063
 20
165.000000000000199
 30
-0.0000000000000366
 11
155.3164269701526052
 21
10.7815308780626005
 31
-0.0000000000000024
210
0.0
220
1.0
230
-0.0000000000000002
  0
LINE
  5
4A04
  8
0
  6
VERDECKT
 62
     1
 10
-57.8835730298478524
 20
164.9999999999998863
 30
-0.0000000000000366
 11
-57.8835730298476534
 21
10.7815308780623091
 31
-0.0000000000000024
210
0.0
220
1.0
230
-0.0000000000000002
  0
ENDBLK
  5
4A06
  8
0
  0
BLOCK
  8
0
  2
A$C352B39C1
 70
     0
 10
0.0
 20
0.0
 30
0.0
  3
A$C352B39C1
  1

  0
LINE
  5
4A0A
  8
0
  6
CONTINUOUS
 62
     3
 10
206.5882330499669877
 20
165.000000000000199
 30
-0.0000000000000366
 11
97.0882330499664903
 21
165.000000000000199
 31
-0.0000000000000366
210
-0.0000000000000002
220
1.0
230
-0.0000000000000002
  0
LINE
  5
4A0B
  8
0
  6
CONTINUOUS
 62
     3
 10
97.0882330499664477
 20
165.000000000000199
 30
-0.0000000000000366
 11
-12.4117669500340195
 21
165.0000000000001137
 31
-0.0000000000000366
210
-0.0000000000000002
220
1.0
230
-0.0000000000000002
  0
LINE
  5
4A0C
  8
0
  6
CONTINUOUS
 62
     3
 10
-12.4117669500339893
 20
169.000000000000199
 30
-0.0000000000000375
 11
206.5882330499669877
 21
169.0000000000003126
 31
-0.0000000000000375
210
-0.0000000000000002
220
1.0
230
-0.0000000000000002
  0
LINE
  5
4A0D
  8
0
  6
CONTINUOUS
 62
     3
 10
206.5882330499669877
 20
169.0000000000003126
 30
-0.0000000000000375
 11
206.5882330499669877
 21
165.000000000000199
 31
-0.0000000000000366
210
-0.0000000000000002
220
1.0
230
-0.0000000000000002
  0
LINE
  5
4A0E
  8
0
  6
CONTINUOUS
 62
     3
 10
-12.4117669500340195
 20
169.000000000000199
 30
-0.0000000000000375
 11
-12.4117669500340195
 21
165.0000000000001137
 31
-0.0000000000000366
210
-0.0000000000000002
220
1.0
230
-0.0000000000000002
  0
LINE
  5
4A0F
  8
0
  6
CONTINUOUS
 62
     3
 10
10.3297882525601707
 20
282.0000000000002274
 30
-0.0000000000000626
 11
97.0882330499664334
 21
282.0000000000002274
 31
-0.0000000000000626
210
-0.0000000000000002
220
1.0
230
-0.0000000000000002
  0
LINE
  5
4A10
  8
0
  6
CONTINUOUS
 62
     3
 10
97.0882330499664477
 20
282.0000000000002274
 30
-0.0000000000000626
 11
183.8466778473726038
 21
282.0000000000002842
 31
-0.0000000000000626
210
-0.0000000000000002
220
1.0
230
-0.0000000000000002
  0
LINE
  5
4A11
  8
0
  6
CONTINUOUS
 62
     3
 10
181.5882330499665045
 20
225.5000000000003126
 30
-0.0000000000000501
 11
181.5882330499665045
 21
210.4409715080672925
 31
-0.0000000000000467
210
-0.0000000000000002
220
1.0
230
-0.0000000000000002
  0
LINE
  5
4A12
  8
0
  6
CONTINUOUS
 62
     3
 10
12.5882330499663109
 20
225.5000000000003126
 30
-0.0000000000000501
 11
12.5882330499663198
 21
210.4409715080672925
 31
-0.0000000000000467
210
-0.0000000000000002
220
1.0
230
-0.0000000000000002
  0
ARC
  5
4A13
  8
0
  6
CONTINUOUS
 62
     3
 10
-30.5882330499669095
 20
210.4409715080674914
 30
0.0
 40
18.0000000000005898
210
0.0
220
-0.0000000000000002
230
-1.0
 50
325.2280559680522174
 51
359.9999999999990905
  0
ARC
  5
4A14
  8
0
  6
CONTINUOUS
 62
     3
 10
-163.5882330499659076
 20
210.4409715080674914
 30
0.0
 40
18.0000000000006004
210
0.0
220
-0.0000000000000002
230
-1.0
 50
180.0000000000007105
 51
214.7719440319476973
  0
ARC
  5
4A15
  8
0
  6
CONTINUOUS
 62
     3
 10
-7.5882330499665711
 20
194.472252085396093
 30
0.0
 40
9.9999999999997637
210
0.0
220
-0.0000000000000002
230
-1.0
 50
145.2280559680503131
 51
180.0000000000003979
  0
ARC
  5
4A16
  8
0
  6
CONTINUOUS
 62
     3
 10
-186.5882330499661919
 20
194.4722520853962067
 30
0.0
 40
9.9999999999996323
210
0.0
220
-0.0000000000000002
230
-1.0
 50
0.0
 51
34.7719440319505395
  0
LINE
  5
4A17
  8
0
  6
CONTINUOUS
 62
     3
 10
176.5882330499665045
 20
194.4722520853960077
 30
-0.0000000000000432
 11
176.5882330499665898
 21
169.0000000000003126
 31
-0.0000000000000375
210
-0.0000000000000002
220
1.0
230
-0.0000000000000002
  0
LINE
  5
4A18
  8
0
  6
CONTINUOUS
 62
     3
 10
17.5882330499663198
 20
194.4722520853960077
 30
-0.0000000000000432
 11
17.5882330499663304
 21
169.0000000000003126
 31
-0.0000000000000375
210
-0.0000000000000002
220
1.0
230
-0.0000000000000002
  0
LINE
  5
4A19
  8
0
  6
CONTINUOUS
 62
     3
 10
183.846677847372689
 20
282.0000000000002842
 30
-0.0000000000000626
 11
184.3090055962493921
 21
281.0085349429908206
 31
-0.0000000000000624
210
-0.0000000000000002
220
1.0
230
-0.0000000000000002
  0
LINE
  5
4A1A
  8
0
  6
CONTINUOUS
 62
     3
 10
10.3297882525600997
 20
282.0000000000002842
 30
-0.0000000000000626
 11
9.8674605036834588
 21
281.0085349429907069
 31
-0.0000000000000624
210
-0.0000000000000002
220
1.0
230
-0.0000000000000002
  0
ARC
  5
4A1B
  8
0
  6
CONTINUOUS
 62
     3
 10
-41.5882330499767079
 20
266.2168957820638866
 30
0.0
 40
35.0000000000104308
210
0.0
220
-0.0000000000000002
230
-1.0
 50
0.0
 51
24.9999999999919815
  0
ARC
  5
4A1C
  8
0
  6
CONTINUOUS
 62
     3
 10
-152.5882330499559032
 20
266.2168957820637729
 30
0.0
 40
35.0000000000107292
210
0.0
220
-0.0000000000000002
230
-1.0
 50
155.0000000000038085
 51
179.9999999999955946
  0
LINE
  5
4A1D
  8
0
  6
CONTINUOUS
 62
     3
 10
187.5882330499665045
 20
266.2168957820665014
 30
-0.0000000000000591
 11
187.5882330499665045
 21
250.0526055291772991
 31
-0.0000000000000555
210
-0.0000000000000002
220
1.0
230
-0.0000000000000002
  0
LINE
  5
4A1E
  8
0
  6
CONTINUOUS
 62
     3
 10
6.5882330499663029
 20
266.2168957820663877
 30
-0.0000000000000591
 11
6.5882330499663091
 21
250.0526055291772991
 31
-0.0000000000000555
210
-0.0000000000000002
220
1.0
230
-0.0000000000000002
  0
ARC
  5
4A1F
  8
0
  6
CONTINUOUS
 62
     3
 10
-41.5882330499714072
 20
249.9950000000015962
 30
0.0
 40
35.0000474056443167
210
0.0
220
-0.0000000000000002
230
-1.0
 50
332.4728163794468969
 51
0.0943014490886506
  0
ARC
  5
4A20
  8
0
  6
CONTINUOUS
 62
     3
 10
-152.5882330499615023
 20
249.9950000000015962
 30
0.0
 40
35.0000474056442101
210
0.0
220
-0.0000000000000002
230
-1.0
 50
179.905698550911211
 51
207.5271836205529894
  0
ARC
  5
4A21
  8
0
  6
CONTINUOUS
 62
     3
 10
5.411766950033094
 20
225.5000000000005116
 30
0.0
 40
17.9999999999993996
210
0.0
220
-0.0000000000000002
230
-1.0
 50
152.4728163794534055
 51
180.0000000000007105
  0
ARC
  5
4A22
  8
0
  6
CONTINUOUS
 62
     3
 10
-199.588233049965794
 20
225.5000000000005969
 30
0.0
 40
17.999999999999261
210
0.0
220
-0.0000000000000002
230
-1.0
 50
359.9999999999990905
 51
27.5271836205467011
  0
LINE
  5
4A23
  8
0
  6
CONTINUOUS
 62
     3
 10
-11.53688031477426
 20
0.0000000000000442
 30
0.0
 11
97.0882330499665045
 21
-0.0000000000000637
 31
0.0
210
-0.0000000000000002
220
1.0
230
-0.0000000000000002
  0
LINE
  5
4A24
  8
0
  6
CONTINUOUS
 62
     3
 10
97.0882330499665329
 20
-0.0000000000000672
 30
0.0
 11
205.713346414707388
 21
0.0000000000001092
 31
0.0
210
-0.0000000000000002
220
1.0
230
-0.0000000000000002
  0
LINE
  5
4A25
  8
0
  6
CONTINUOUS
 62
     3
 10
-12.4117669500340497
 20
165.0000000000001137
 30
-0.0000000000000366
 11
97.0882330499664477
 21
165.000000000000199
 31
-0.0000000000000366
210
-0.0000000000000002
220
1.0
230
-0.0000000000000002
  0
LINE
  5
4A26
  8
0
  6
CONTINUOUS
 62
     3
 10
97.0882330499664903
 20
165.000000000000199
 30
-0.0000000000000366
 11
206.5882330499669877
 21
165.000000000000199
 31
-0.0000000000000366
210
-0.0000000000000002
220
1.0
230
-0.0000000000000002
  0
ARC
  5
4A27
  8
0
  6
CONTINUOUS
 62
     3
 10
-5.4882330499664924
 20
10.7815308780662598
 30
0.0
 40
17.9000000000004498
210
0.0
220
-0.0000000000000002
230
-1.0
 50
354.9999999999992042
 51
359.9999999999998863
  0
ARC
  5
4A28
  8
0
  6
CONTINUOUS
 62
     3
 10
-188.6882330499720979
 20
10.7815308780662793
 30
0.0
 40
17.8999999999947796
210
0.0
220
-0.0000000000000002
230
-1.0
 50
179.9999999999998863
 51
185.0000000000021032
  0
LINE
  5
4A29
  8
0
  6
CONTINUOUS
 62
     3
 10
-11.53688031477426
 20
0.0000000000000561
 30
0.0
 11
-12.3436520458761905
 21
9.2214430828828977
 31
-0.000000000000002
210
-0.0000000000000002
220
1.0
230
-0.0000000000000002
  0
LINE
  5
4A2A
  8
0
  6
CONTINUOUS
 62
     3
 10
205.7133464147073028
 20
0.000000000000115
 30
0.0
 11
206.5201181458091924
 21
9.2214430828829617
 31
-0.000000000000002
210
-0.0000000000000002
220
1.0
230
-0.0000000000000002
  0
LINE
  5
4A2B
  8
0
  6
CONTINUOUS
 62
     3
 10
206.5882330499669877
 20
165.000000000000199
 30
-0.0000000000000366
 11
206.5882330499669877
 21
10.7815308780662793
 31
-0.0000000000000024
210
-0.0000000000000002
220
1.0
230
-0.0000000000000002
  0
LINE
  5
4A2C
  8
0
  6
CONTINUOUS
 62
     3
 10
-12.4117669500340195
 20
165.0000000000001137
 30
-0.0000000000000366
 11
-12.4117669500339698
 21
10.7815308780662296
 31
-0.0000000000000024
210
-0.0000000000000002
220
1.0
230
-0.0000000000000002
  0
LINE
  5
4A2D
  8
0
  6
VERDECKT
 62
     1
 10
174.0882330499665045
 20
169.000000000000199
 30
-0.0000000000000375
 11
174.0882330499665045
 21
165.000000000000199
 31
-0.0000000000000366
210
-0.0000000000000002
220
1.0
230
-0.0000000000000002
  0
LINE
  5
4A2E
  8
0
  6
VERDECKT
 62
     1
 10
20.0882330499664405
 20
169.000000000000199
 30
-0.0000000000000375
 11
20.0882330499664405
 21
165.0000000000001137
 31
-0.0000000000000366
210
-0.0000000000000002
220
1.0
230
-0.0000000000000002
  0
LINE
  5
4A2F
  8
0
  6
VERDECKT
 62
     1
 10
174.0882330499665898
 20
194.4722520853960077
 30
-0.0000000000000432
 11
174.0882330499667034
 21
169.0000000000003126
 31
-0.0000000000000375
210
-0.0000000000000002
220
1.0
230
-0.0000000000000002
  0
LINE
  5
4A30
  8
0
  6
VERDECKT
 62
     1
 10
20.0882330499662096
 20
194.4722520853960077
 30
-0.0000000000000432
 11
20.0882330499662096
 21
169.0000000000003126
 31
-0.0000000000000375
210
-0.0000000000000002
220
1.0
230
-0.0000000000000002
  0
ARC
  5
4A31
  8
0
  6
VERDECKT
 62
     1
 10
-7.5882330499661341
 20
194.4722520853958088
 30
0.0
 40
12.5000000000001794
210
0.0
220
-0.0000000000000002
230
-1.0
 50
145.228055968052189
 51
179.9999999999990905
  0
ARC
  5
4A32
  8
0
  6
VERDECKT
 62
     1
 10
-186.5882330499669024
 20
194.4722520853958088
 30
0.0
 40
12.5000000000003109
210
0.0
220
-0.0000000000000002
230
-1.0
 50
0.0000000000010305
 51
34.7719440319474629
  0
ARC
  5
4A33
  8
0
  6
VERDECKT
 62
     1
 10
-30.5882330499661315
 20
210.4409715080670935
 30
0.0
 40
15.4999999999998206
210
0.0
220
-0.0000000000000002
230
-1.0
 50
325.2280559680505121
 51
0.0000000000003804
  0
ARC
  5
4A34
  8
0
  6
VERDECKT
 62
     1
 10
-163.5882330499665898
 20
210.4409715080672072
 30
0.0
 40
15.4999999999999201
210
0.0
220
-0.0000000000000002
230
-1.0
 50
179.9999999999996021
 51
214.77194403194909
  0
LINE
  5
4A35
  8
0
  6
VERDECKT
 62
     1
 10
179.0882330499665045
 20
225.5000000000003126
 30
-0.0000000000000501
 11
179.0882330499665045
 21
210.4409715080672925
 31
-0.0000000000000467
210
-0.0000000000000002
220
1.0
230
-0.0000000000000002
  0
LINE
  5
4A36
  8
0
  6
VERDECKT
 62
     1
 10
15.0882330499663109
 20
225.5000000000003126
 30
-0.0000000000000501
 11
15.0882330499663198
 21
210.4409715080672925
 31
-0.0000000000000467
210
-0.0000000000000002
220
1.0
230
-0.0000000000000002
  0
ARC
  5
4A37
  8
0
  6
VERDECKT
 62
     1
 10
5.4117669500331438
 20
225.5000000000003979
 30
0.0
 40
20.4999999999994706
210
0.0
220
-0.0000000000000002
230
-1.0
 50
152.1156863126250869
 51
180.0000000000003979
  0
ARC
  5
4A38
  8
0
  6
VERDECKT
 62
     1
 10
-199.5882330499659929
 20
225.5000000000005116
 30
0.0
 40
20.49999999999946
210
0.0
220
-0.0000000000000002
230
-1.0
 50
359.9999999999993179
 51
27.8843136873746715
  0
ARC
  5
4A39
  8
0
  6
VERDECKT
 62
     1
 10
-41.5862607297238398
 20
249.9973015192825017
 30
0.0
 40
32.4999999999995595
210
0.0
220
-0.0000000000000002
230
-1.0
 50
332.6928769931996044
 51
0.6312288822659913
  0
ARC
  5
4A3A
  8
0
  6
VERDECKT
 62
     1
 10
-152.5902053702087926
 20
249.9973015192825869
 30
0.0
 40
32.4999999999997868
210
0.0
220
-0.0000000000000002
230
-1.0
 50
179.3687711177340987
 51
207.3071230068001114
  0
LINE
  5
4A3B
  8
0
  6
VERDECKT
 62
     1
 10
185.0882330499665045
 20
266.2168957820665014
 30
-0.0000000000000591
 11
185.0882330499665045
 21
250.3553475019209884
 31
-0.0000000000000556
210
-0.0000000000000002
220
1.0
230
-0.0000000000000002
  0
LINE
  5
4A3C
  8
0
  6
VERDECKT
 62
     1
 10
9.0882330499663055
 20
266.2168957820663877
 30
-0.0000000000000591
 11
9.0882330499663091
 21
250.3553475019209031
 31
-0.0000000000000556
210
-0.0000000000000002
220
1.0
230
-0.0000000000000002
  0
ARC
  5
4A3D
  8
0
  6
VERDECKT
 62
     1
 10
-41.5882330499767718
 20
266.2168957820640003
 30
0.0
 40
32.5000000000104734
210
0.0
220
-0.0000000000000002
230
-1.0
 50
0.0000000000043001
 51
24.9999999999959499
  0
ARC
  5
4A3E
  8
0
  6
VERDECKT
 62
     1
 10
-152.5882330499557042
 20
266.2168957820640003
 30
0.0
 40
32.5000000000108784
210
0.0
220
-0.0000000000000002
230
-1.0
 50
155.0000000000042064
 51
179.9999999999955094
  0
LINE
  5
4A3F
  8
0
  6
VERDECKT
 62
     1
 10
181.0882330499663908
 20
282.0000000000003979
 30
-0.0000000000000626
 11
182.0432361286576111
 21
279.9519892886391972
 31
-0.0000000000000622
210
-0.0000000000000002
220
1.0
230
-0.0000000000000002
  0
LINE
  5
4A40
  8
0
  6
VERDECKT
 62
     1
 10
13.0882330499664601
 20
282.0000000000002842
 30
-0.0000000000000626
 11
12.1332299712752398
 21
279.9519892886390835
 31
-0.0000000000000622
210
-0.0000000000000002
220
1.0
230
-0.0000000000000002
  0
ARC
  5
4A41
  8
0
  6
VERDECKT
 62
     1
 10
-5.4882330499670822
 20
10.7815308780624708
 30
0.0
 40
15.0000000000007301
210
0.0
220
-0.0000000000000002
230
-1.0
 50
354.9999999999985221
 51
359.9999999999997726
  0
ARC
  5
4A42
  8
0
  6
VERDECKT
 62
     1
 10
-188.688233049965902
 20
10.7815308780626093
 30
0.0
 40
15.0000000000007407
210
0.0
220
-0.0000000000000002
230
-1.0
 50
180.0000000000003979
 51
185.0000000000017053
  0
LINE
  5
4A43
  8
0
  6
VERDECKT
 62
     1
 10
-8.6258027858984523
 20
0.0000000000000558
 30
0.0
 11
-9.4546874214097976
 21
9.4741947368471688
 31
-0.0000000000000021
210
-0.0000000000000002
220
1.0
230
-0.0000000000000002
  0
LINE
  5
4A44
  8
0
  6
VERDECKT
 62
     1
 10
202.802268885831495
 20
0.0000000000001143
 30
0.0
 11
203.6311535213428101
 21
9.4741947368472292
 31
-0.0000000000000021
210
-0.0000000000000002
220
1.0
230
-0.0000000000000002
  0
LINE
  5
4A45
  8
0
  6
VERDECKT
 62
     1
 10
203.6882330499666978
 20
165.000000000000199
 30
-0.0000000000000366
 11
203.6882330499666978
 21
10.7815308780624992
 31
-0.0000000000000024
210
-0.0000000000000002
220
1.0
230
-0.0000000000000002
  0
LINE
  5
4A46
  8
0
  6
VERDECKT
 62
     1
 10
-9.5117669500336905
 20
165.0000000000001137
 30
-0.0000000000000366
 11
-9.5117669500336444
 21
10.7815308780624601
 31
-0.0000000000000024
210
-0.0000000000000002
220
1.0
230
-0.0000000000000002
  0
ENDBLK
  5
4A48
  8
0
  0
ENDSEC
  0
SECTION
  2
ENTITIES
  0
TEXT
  5
8F
  8
VOLL
 10
78.076754716981128
 20
31.025947764705851
 30
0.0
 40
1.8
  1

  7
GREEKS
  0
INSERT
  5
443E
  8
ADSK_ASSOC_ENTITY_BACKUPS
  2
*S2
 10
0.0
 20
0.0
 30
0.0
  0
INSERT
  5
49C9
  8
0
  2
A$C652E5BE6
 10
29.3817547655563089
 20
-224.5171744049604001
 30
-7.1619579980313182
  0
INSERT
  5
4A07
  8
0
  2
A$C5362407A
 10
29.3817547655563516
 20
-121.4679680617736039
 30
-7.1619579980312551
  0
INSERT
  5
4A49
  8
0
  2
A$C352B39C1
 10
279.429097431991579
 20
-121.4679680617736039
 30
-7.1619579980312551
  0
VIEWPORT
  5
434A
 67
     1
  8
0
 10
3.2016736417176608
 20
472.3780903181836948
 30
0.0
 40
572.3684152410824026
 41
299.2528445006321931
 68
     1
 69
     1
1001
ACAD
1000
MVIEW
1002
{
1070
    16
1010
0.0
1020
0.0
1030
0.0
1010
0.0
1020
0.0
1030
1.0
1040
0.0
1040
299.2528445006321931
1040
3.2016736417176608
1040
472.3780903181836948
1040
50.0
1040
0.0
1040
0.0
1070
     0
1070
  1500
1070
     1
1070
     1
1070
     0
1070
     0
1070
     0
1070
     0
1040
0.0
1040
0.0
1040
0.0
1040
10.0
1040
10.0
1040
10.0
1040
10.0
1070
     0
1002
{
1002
}
1002
}
  0
TEXT
  5
45C3
 67
     1
  8
VOLL
 10
486.5354875830506103
 20
268.5002476131912204
 30
0.0
 40
1.8
  1

  7
GREEKS
  0
ENDSEC
  0
EOF
