  0
SECTION
  2
HEADER
  9
$ACADVER
  1
AC1009
  9
$INSBASE
 10
0.0
 20
0.0
 30
0.0
  9
$EXTMIN
 10
-58.1000000000000014
 20
-154.4871019154865053
 30
129.6973676745874116
  9
$EXTMAX
 10
207.895497584237404
 20
190.0039673391565884
 30
129.6973676745874968
  9
$LIMMIN
 10
0.0
 20
0.0
  9
$LIMMAX
 10
419.9999999999998863
 20
594.0
  9
$ORTHOMODE
 70
     1
  9
$REGENMODE
 70
     1
  9
$FILLMODE
 70
     1
  9
$QTEXTMODE
 70
     0
  9
$MIRRTEXT
 70
     1
  9
$DRAGMODE
 70
     2
  9
$LTSCALE
 40
10.0
  9
$OSMODE
 70
  1327
  9
$ATTMODE
 70
     1
  9
$TEXTSIZE
 40
3.5
  9
$TRACEWID
 40
0.5
  9
$TEXTSTYLE
  7
STANDARD
  9
$CLAYER
  8
0
  9
$CELTYPE
  6
BYLAYER
  9
$CECOLOR
 62
   256
  9
$DIMSCALE
 40
1.0
  9
$DIMASZ
 40
3.5
  9
$DIMEXO
 40
1.0
  9
$DIMDLI
 40
7.0
  9
$DIMRND
 40
0.0
  9
$DIMDLE
 40
0.0
  9
$DIMEXE
 40
1.0
  9
$DIMTP
 40
0.0
  9
$DIMTM
 40
0.0
  9
$DIMTXT
 40
3.5
  9
$DIMCEN
 40
1.5
  9
$DIMTSZ
 40
0.0
  9
$DIMTOL
 70
     0
  9
$DIMLIM
 70
     0
  9
$DIMTIH
 70
     0
  9
$DIMTOH
 70
     0
  9
$DIMSE1
 70
     0
  9
$DIMSE2
 70
     0
  9
$DIMTAD
 70
     1
  9
$DIMZIN
 70
     8
  9
$DIMBLK
  1

  9
$DIMASO
 70
     1
  9
$DIMSHO
 70
     0
  9
$DIMPOST
  1

  9
$DIMAPOST
  1

  9
$DIMALT
 70
     0
  9
$DIMALTD
 70
     2
  9
$DIMALTF
 40
25.3999999999999986
  9
$DIMLFAC
 40
2.0
  9
$DIMTOFL
 70
     1
  9
$DIMTVP
 40
0.0
  9
$DIMTIX
 70
     0
  9
$DIMSOXD
 70
     0
  9
$DIMSAH
 70
     0
  9
$DIMBLK1
  1

  9
$DIMBLK2
  1

  9
$DIMSTYLE
  2
STANDARD
  9
$DIMCLRD
 70
     0
  9
$DIMCLRE
 70
     0
  9
$DIMCLRT
 70
     1
  9
$DIMTFAC
 40
0.5142857142857143
  9
$DIMGAP
 40
1.5
  9
$LUNITS
 70
     2
  9
$LUPREC
 70
     2
  9
$SKETCHINC
 40
1.0
  9
$FILLETRAD
 40
0.0
  9
$AUNITS
 70
     0
  9
$AUPREC
 70
     0
  9
$MENU
  1
ACAD
  9
$ELEVATION
 40
0.0
  9
$PELEVATION
 40
0.0
  9
$THICKNESS
 40
0.0
  9
$LIMCHECK
 70
     0
  9
$BLIPMODE
 70
     0
  9
$CHAMFERA
 40
0.0
  9
$CHAMFERB
 40
0.0
  9
$SKPOLY
 70
     0
  9
$TDCREATE
 40
2455397.8646990740671754
  9
$TDUPDATE
 40
2458646.5417245370335877
  9
$TDINDWG
 40
0.2581855208
  9
$TDUSRTIMER
 40
0.2581855208
  9
$USRTIMER
 70
     1
  9
$ANGBASE
 50
0.0
  9
$ANGDIR
 70
     0
  9
$PDMODE
 70
     0
  9
$PDSIZE
 40
0.0
  9
$PLINEWID
 40
0.0
  9
$COORDS
 70
     1
  9
$SPLFRAME
 70
     0
  9
$SPLINETYPE
 70
     6
  9
$SPLINESEGS
 70
     8
  9
$ATTDIA
 70
     0
  9
$ATTREQ
 70
     0
  9
$HANDLING
 70
     1
  9
$HANDSEED
  5
25C2
  9
$SURFTAB1
 70
     6
  9
$SURFTAB2
 70
     6
  9
$SURFTYPE
 70
     6
  9
$SURFU
 70
     6
  9
$SURFV
 70
     6
  9
$UCSNAME
  2

  9
$UCSORG
 10
0.0
 20
0.0
 30
0.0
  9
$UCSXDIR
 10
1.0
 20
0.0
 30
0.0
  9
$UCSYDIR
 10
0.0
 20
1.0
 30
0.0
  9
$PUCSNAME
  2

  9
$PUCSORG
 10
0.0
 20
0.0
 30
0.0
  9
$PUCSXDIR
 10
1.0
 20
0.0
 30
0.0
  9
$PUCSYDIR
 10
0.0
 20
1.0
 30
0.0
  9
$USERI1
 70
     0
  9
$USERI2
 70
     0
  9
$USERI3
 70
     0
  9
$USERI4
 70
     0
  9
$USERI5
 70
     0
  9
$USERR1
 40
0.0
  9
$USERR2
 40
0.0
  9
$USERR3
 40
0.0
  9
$USERR4
 40
0.0
  9
$USERR5
 40
0.0
  9
$WORLDVIEW
 70
     1
  9
$SHADEDGE
 70
     3
  9
$SHADEDIF
 70
    70
  9
$TILEMODE
 70
     1
  9
$MAXACTVP
 70
    16
  9
$PLIMCHECK
 70
     0
  9
$PEXTMIN
 10
1.0000000000000000E+20
 20
1.0000000000000000E+20
 30
1.0000000000000000E+20
  9
$PEXTMAX
 10
-1.0000000000000000E+20
 20
-1.0000000000000000E+20
 30
-1.0000000000000000E+20
  9
$PLIMMIN
 10
-83.4079523823669717
 20
-180.5889939847627943
  9
$PLIMMAX
 10
126.5920476176329998
 20
116.4110060152371062
  9
$UNITMODE
 70
     0
  9
$VISRETAIN
 70
     0
  9
$PLINEGEN
 70
     0
  9
$PSLTSCALE
 70
     0
  0
ENDSEC
  0
SECTION
  2
TABLES
  0
TABLE
  2
VPORT
 70
     1
  0
VPORT
  2
*ACTIVE
 70
     0
 10
0.0
 20
0.0
 11
1.0
 21
1.0
 12
101.1477487921188043
 22
-54.9935509307434174
 13
0.0
 23
0.0
 14
1.0
 24
1.0
 15
10.0
 25
10.0
 16
0.0000000000001954
 26
0.0
 36
872.5529517743748329
 17
-26.2500000000001883
 27
72.7519836425784234
 37
95.0019836695779389
 40
347.1041494259804949
 41
1.912658227848101
 42
50.0
 43
0.0
 44
0.0
 50
0.0
 51
0.0
 71
     0
 72
  1500
 73
     1
 74
     0
 75
     0
 76
     0
 77
     0
 78
     0
  0
ENDTAB
  0
TABLE
  2
LTYPE
 70
     6
  0
LTYPE
  2
CONTINUOUS
 70
     0
  3
Solid line
 72
    65
 73
     0
 40
0.0
  0
LTYPE
  2
VERDECKT
 70
     0
  3
Verdeckt __ __ __ __ __ __ __ __ __ __ __ __ __
 72
    65
 73
     2
 40
0.375
 49
0.25
 49
-0.125
  0
ENDTAB
  0
TABLE
  2
LAYER
 70
    12
  0
LAYER
  2
0
 70
     0
 62
     7
  6
CONTINUOUS
  0
LAYER
  2
VOLL
 70
     0
 62
     1
  6
CONTINUOUS
  0
LAYER
  2
DEFPOINTS
 70
     0
 62
     7
  6
CONTINUOUS
  0
LAYER
  2
ADSK_ASSOC_ENTITY_BACKUPS
 70
     1
 62
    -7
  6
CONTINUOUS
  0
ENDTAB
  0
TABLE
  2
STYLE
 70
     4
  0
STYLE
  2
STANDARD
 70
     0
 40
0.0
 41
0.8
 50
0.0
 71
     0
 42
3.5
  3
simplex.shx
  4

  0
STYLE
  2
GREEKS
 70
     0
 40
0.0
 41
0.8
 50
0.0
 71
     0
 42
2.5
  3
SIMPLEX.shx
  4

  0
ENDTAB
  0
TABLE
  2
VIEW
 70
     1
  0
ENDTAB
  0
TABLE
  2
UCS
 70
     0
  0
ENDTAB
  0
TABLE
  2
APPID
 70
    15
  0
APPID
  2
ACAD
 70
     0
  0
APPID
  2
ACAD_NAV_VCDISPLAY
 70
     0
  0
APPID
  2
ACAECLAYERSTANDARD
 70
     0
  0
APPID
  2
ACCMTRANSPARENCY
 70
     0
  0
APPID
  2
ACAD_PSEXT
 70
     0
  0
APPID
  2
ACAD_MLEADERVER
 70
     0
  0
APPID
  2
ACAD_OBJECT_CHANGE_GUID
 70
     0
  0
APPID
  2
ACAD_STEPID
 70
     0
  0
APPID
  2
ACAD_EXEMPT_FROM_CAD_STANDARDS
 70
     0
  0
APPID
  2
ACSYNERGY
 70
     0
  0
APPID
  2
SYNERGY_BODY_TBR_ID
 70
     0
  0
APPID
  2
ACAD_VIEW_EDGE_ID
 70
     0
  0
APPID
  2
ACAD_DSTYLE_DIMJAG
 70
     0
  0
APPID
  2
ACAD_DSTYLE_DIMTALN
 70
     0
  0
APPID
  2
ACADANNOMONITORALERTICONDI
 70
     0
  0
ENDTAB
  0
TABLE
  2
DIMSTYLE
 70
     2
  0
DIMSTYLE
  2
STANDARD
 70
     0
  3

  4

  5

  6

  7

 40
1.0
 41
0.18
 42
0.0625
 43
0.38
 44
0.18
 45
0.0
 46
0.0
 47
0.0
 48
0.0
140
0.18
141
0.09
142
0.0
143
25.3999999999999986
144
1.0
145
0.0
146
1.0
147
0.09
 71
     0
 72
     0
 73
     1
 74
     1
 75
     0
 76
     0
 77
     0
 78
     0
170
     0
171
     2
172
     0
173
     0
174
     0
175
     0
176
     0
177
     0
178
     0
  0
ENDTAB
  0
ENDSEC
  0
SECTION
  2
BLOCKS
  0
BLOCK
  8
0
  2
$MODEL_SPACE
 70
     0
 10
0.0
 20
0.0
 30
0.0
  3
$MODEL_SPACE
  1

  0
ENDBLK
  5
36
  8
0
  0
BLOCK
 67
     1
  8
0
  2
$PAPER_SPACE
 70
     0
 10
0.0
 20
0.0
 30
0.0
  3
$PAPER_SPACE
  1

  0
ENDBLK
  5
34
 67
     1
  8
0
  0
BLOCK
  8
0
  2
*S2
 70
     1
 10
0.0
 20
0.0
 30
0.0
  3
*S2
  1

  0
ENDBLK
  5
18CE
  8
0
  0
BLOCK
  8
0
  2
A$C383B0D99
 70
     0
 10
0.0
 20
0.0
 30
0.0
  3
A$C383B0D99
  1

  0
CIRCLE
  5
1ED2
  8
0
  6
CONTINUOUS
 62
     3
 10
-7.99999999999996
 20
0.0000000000000497
 30
0.0
 40
42.0999999999999588
  0
CIRCLE
  5
1ED3
  8
0
  6
CONTINUOUS
 62
     3
 10
-7.9999999999999583
 20
0.0000000000000568
 30
0.0
 40
39.7653973282753697
  0
CIRCLE
  5
1ED4
  8
0
  6
CONTINUOUS
 62
     3
 10
-7.9999999999999707
 20
0.0000000000000497
 30
0.0
 40
34.9000000000000128
  0
CIRCLE
  5
1ED5
  8
0
  6
CONTINUOUS
 62
     3
 10
-7.9999999999999636
 20
0.0000000000000568
 30
0.0
 40
37.9999999999999503
  0
CIRCLE
  5
1ED6
  8
0
  6
CONTINUOUS
 62
     3
 10
-7.9999999999999583
 20
0.0000000000000568
 30
0.0
 40
38.3148118992656421
  0
ARC
  5
1ED7
  8
0
  6
CONTINUOUS
 62
     3
 10
0.0000000000000182
 20
0.0000000000001137
 30
0.0
 40
44.5000000000000924
 50
247.5549158578766935
 51
112.4450841421229939
  0
ARC
  5
1ED8
  8
0
  6
CONTINUOUS
 62
     3
 10
0.0000000000000182
 20
0.0000000000000431
 30
0.0
 40
44.5
 50
247.5549158578766935
 51
0.0
  0
ARC
  5
1ED9
  8
0
  6
CONTINUOUS
 62
     3
 10
0.0000000000011369
 20
-0.0000000000003065
 30
0.0
 40
42.0190016246727893
 50
155.4621874148936911
 51
179.9999999999994884
  0
ARC
  5
1EDA
  8
0
  6
CONTINUOUS
 62
     3
 10
-0.0000000000005684
 20
-0.0000000000001884
 30
0.0
 40
42.0190016246710982
 50
179.9999999999996874
 51
204.5378125851059963
  0
CIRCLE
  5
1EDB
  8
0
  6
VERDECKT
 62
     1
 10
-7.9999999999999636
 20
0.0000000000000568
 30
0.0
 40
39.5999999999999091
  0
CIRCLE
  5
1EDC
  8
0
  6
VERDECKT
 62
     1
 10
-7.9999999999999707
 20
0.0000000000000497
 30
0.0
 40
36.4999999999999503
  0
CIRCLE
  5
1EDD
  8
0
  6
VERDECKT
 62
     1
 10
-7.99999999999996
 20
0.0000000000000497
 30
0.0
 40
40.4999999999999574
  0
CIRCLE
  5
1EDE
  8
0
  6
VERDECKT
 62
     1
 10
0.0000000000001319
 20
0.0000000000000568
 30
0.0
 40
42.9000000000000128
  0
ARC
  5
1EDF
  8
0
  6
VERDECKT
 62
     1
 10
0.0000000000000182
 20
0.0
 30
0.0
 40
44.5
 50
180.0
 51
247.5549158578766935
  0
ARC
  5
1EE0
  8
0
  6
VERDECKT
 62
     1
 10
0.0000000000001319
 20
-0.0000000000000639
 30
0.0
 40
44.5000000000001279
 50
112.4450841421230933
 51
179.9999999999998863
  0
CIRCLE
  5
1EE1
  8
0
  6
VERDECKT
 62
     1
 10
0.0000000000000182
 20
0.0000000000000218
 30
0.0
 40
42.8999999999999773
  0
ARC
  5
1EE2
  8
0
  6
VERDECKT
 62
     1
 10
0.0000000000000182
 20
0.0000000000000254
 30
0.0
 40
44.5
 50
0.0
 51
247.5549158578766935
  0
CIRCLE
  5
1EE3
  8
0
  6
VERDECKT
 62
     1
 10
0.0
 20
0.0000000000000168
 30
0.0
 40
43.6251133647410825
  0
ARC
  5
1EE4
  8
0
  6
VERDECKT
 62
     1
 10
0.0
 20
0.0000000000001998
 30
0.0
 40
42.0190016246715601
 50
204.53781258510611
 51
155.4621874148936911
  0
ENDBLK
  5
1EE6
  8
0
  0
BLOCK
  8
0
  2
A$C7D172125
 70
     0
 10
0.0
 20
0.0
 30
0.0
  3
A$C7D172125
  1

  0
LINE
  5
1EEA
  8
0
  6
CONTINUOUS
 62
     3
 10
-47.7653973282754123
 20
190.0039673391559063
 30
-0.0000000000000422
 11
31.7653973282754087
 21
190.0039673391559063
 31
-0.0000000000000422
210
0.0
220
1.0
230
-0.0000000000000002
  0
LINE
  5
1EEB
  8
0
  6
CONTINUOUS
 62
     3
 10
44.5
 20
82.0000000000000142
 30
-0.0000000000000182
 11
-44.5
 21
82.0000000000000142
 31
-0.0000000000000182
210
0.0
220
1.0
230
-0.0000000000000002
  0
ARC
  5
1EEC
  8
0
  6
CONTINUOUS
 62
     3
 10
33.4999999999998934
 20
126.8808748883996032
 30
-0.0000000000000282
 40
5.0000000000000071
 50
180.0
 51
199.9831065218999129
  0
ARC
  5
1EED
  8
0
  6
CONTINUOUS
 62
     3
 10
25.1000000000000512
 20
179.4550449320373957
 30
0.0
 40
24.9999999999999112
210
0.0
220
-0.0000000000000002
230
-1.0
 50
0.0000000000002672
 51
24.9581963123149215
  0
ARC
  5
1EEE
  8
0
  6
CONTINUOUS
 62
     3
 10
-9.0999999999998344
 20
179.4550449320373957
 30
0.0
 40
25.0000000000001315
210
0.0
220
-0.0000000000000002
230
-1.0
 50
155.0418036876851033
 51
179.9999999999996021
  0
LINE
  5
1EEF
  8
0
  6
CONTINUOUS
 62
     3
 10
34.0999999999999801
 20
179.4550449320375094
 30
-0.0000000000000398
 11
34.0999999999999801
 21
174.6356872909545075
 31
-0.0000000000000388
210
0.0
220
1.0
230
-0.0000000000000002
  0
LINE
  5
1EF0
  8
0
  6
CONTINUOUS
 62
     3
 10
-50.0999999999999801
 20
179.4550449320375094
 30
-0.0000000000000398
 11
-50.0999999999999801
 21
174.6356872909545075
 31
-0.0000000000000388
210
0.0
220
1.0
230
-0.0000000000000002
  0
ARC
  5
1EF1
  8
0
  6
CONTINUOUS
 62
     3
 10
25.10000000001342
 20
174.7039673391535928
 30
0.0
 40
25.0000932431123317
210
0.0
220
-0.0000000000000002
230
-1.0
 50
338.8168456069597028
 51
359.8435140456293198
  0
ARC
  5
1EF2
  8
0
  6
CONTINUOUS
 62
     3
 10
-9.1000000000130008
 20
174.7039673391537065
 30
0.0
 40
25.0000932431127616
210
0.0
220
-0.0000000000000002
230
-1.0
 50
180.1564859543707087
 51
201.183154393040013
  0
ARC
  5
1EF3
  8
0
  6
CONTINUOUS
 62
     3
 10
59.5999999999987367
 20
161.3339673391560893
 30
0.0
 40
11.9999999999988294
210
0.0
220
-0.0000000000000002
230
-1.0
 50
158.8168456069601007
 51
179.999999999999801
  0
ARC
  5
1EF4
  8
0
  6
CONTINUOUS
 62
     3
 10
-43.5999999999985377
 20
161.3339673391560893
 30
0.0
 40
11.9999999999986304
210
0.0
220
-0.0000000000000002
230
-1.0
 50
0.0000000000001399
 51
21.1831543930403008
  0
LINE
  5
1EF5
  8
0
  6
CONTINUOUS
 62
     3
 10
31.5999999999999517
 20
161.3339673391560893
 30
-0.0000000000000358
 11
31.5999999999999517
 21
140.39269375657301
 31
-0.0000000000000312
210
0.0
220
1.0
230
-0.0000000000000002
  0
LINE
  5
1EF6
  8
0
  6
CONTINUOUS
 62
     3
 10
-47.5999999999999375
 20
161.3339673391560893
 30
-0.0000000000000358
 11
-47.5999999999999375
 21
140.39269375657301
 31
-0.0000000000000312
210
0.0
220
1.0
230
-0.0000000000000002
  0
ARC
  5
1EF7
  8
0
  6
CONTINUOUS
 62
     3
 10
35.5999999999992127
 20
140.3926937565732089
 30
0.0
 40
12.0000000000007496
210
0.0
220
-0.0000000000000002
230
-1.0
 50
327.671935877838223
 51
359.9999999999989768
  0
ARC
  5
1EF8
  8
0
  6
CONTINUOUS
 62
     3
 10
-19.5999999999991701
 20
140.3926937565732089
 30
0.0
 40
12.0000000000007994
210
0.0
220
-0.0000000000000002
230
-1.0
 50
180.0000000000009095
 51
212.3280641221616065
  0
ARC
  5
1EF9
  8
0
  6
CONTINUOUS
 62
     3
 10
52.5000000000000568
 20
129.6973676745874116
 30
0.0
 40
8.0000000000001101
210
0.0
220
-0.0000000000000002
230
-1.0
 50
147.6719358778383935
 51
179.9999999999996021
  0
ARC
  5
1EFA
  8
0
  6
CONTINUOUS
 62
     3
 10
-36.4999999999999503
 20
129.6973676745874968
 30
0.0
 40
7.999999999999992
210
0.0
220
-0.0000000000000002
230
-1.0
 50
359.9999999999997726
 51
32.3280641221617415
  0
LINE
  5
1EFB
  8
0
  6
CONTINUOUS
 62
     3
 10
28.4999999999999609
 20
129.6973676745874968
 30
-0.0000000000000288
 11
28.4999999999999609
 21
126.8808748883996032
 31
-0.0000000000000282
210
0.0
220
1.0
230
-0.0000000000000002
  0
LINE
  5
1EFC
  8
0
  6
CONTINUOUS
 62
     3
 10
-44.4999999999999503
 20
129.6973676745874968
 30
-0.0000000000000288
 11
-44.4999999999999503
 21
126.0
 31
-0.000000000000028
210
0.0
220
1.0
230
-0.0000000000000002
  0
LINE
  5
1EFD
  8
0
  6
CONTINUOUS
 62
     3
 10
28.8010328825578199
 20
125.1721595729661942
 30
-0.0000000000000278
 11
44.5
 21
82.0000000000000142
 31
-0.0000000000000182
210
0.0
220
1.0
230
-0.0000000000000002
  0
LINE
  5
1EFE
  8
0
  6
CONTINUOUS
 62
     3
 10
-44.5000000000001066
 20
82.0000000000000142
 30
-0.0000000000000182
 11
-44.5000000000001066
 21
126.0
 31
-0.000000000000028
210
0.0
220
1.0
230
-0.0000000000000002
  0
LINE
  5
1EFF
  8
0
  6
CONTINUOUS
 62
     3
 10
-44.5
 20
82.0000000000000142
 30
-0.0000000000000182
 11
44.5
 21
82.0000000000000142
 31
-0.0000000000000182
210
0.0
220
1.0
230
-0.0000000000000002
  0
LINE
  5
1F00
  8
0
  6
CONTINUOUS
 62
     3
 10
-43.6251133647410825
 20
0.0
 30
0.0
 11
43.6251133647410825
 21
0.0
 31
0.0
210
0.0
220
1.0
230
-0.0000000000000002
  0
ARC
  5
1F01
  8
0
  6
CONTINUOUS
 62
     3
 10
32.8999999999954369
 20
10.5064669377358193
 30
0.0
 40
11.6000000000045596
210
0.0
220
-0.0000000000000002
230
-1.0
 50
355.0000000000014211
 51
359.9999999999990905
  0
ARC
  5
1F02
  8
0
  6
CONTINUOUS
 62
     3
 10
-32.8999999999954369
 20
10.5064669377358193
 30
0.0
 40
11.6000000000045596
210
0.0
220
-0.0000000000000002
230
-1.0
 50
180.0000000000007958
 51
184.9999999999984936
  0
LINE
  5
1F03
  8
0
  6
CONTINUOUS
 62
     3
 10
-43.6251133647410825
 20
0.0
 30
0.0
 11
-44.4558584978642486
 21
9.4954603218628808
 31
-0.0000000000000021
210
0.0
220
1.0
230
-0.0000000000000002
  0
LINE
  5
1F04
  8
0
  6
CONTINUOUS
 62
     3
 10
43.6251133647410825
 20
0.0
 30
0.0
 11
44.4558584978642486
 21
9.4954603218628808
 31
-0.0000000000000021
210
0.0
220
1.0
230
-0.0000000000000002
  0
LINE
  5
1F05
  8
0
  6
CONTINUOUS
 62
     3
 10
44.5
 20
82.0000000000000142
 30
-0.0000000000000182
 11
44.5
 21
10.5064669377356399
 31
-0.0000000000000023
210
0.0
220
1.0
230
-0.0000000000000002
  0
LINE
  5
1F06
  8
0
  6
CONTINUOUS
 62
     3
 10
-44.5
 20
82.0000000000000142
 30
-0.0000000000000182
 11
-44.5
 21
10.5064669377356399
 31
-0.0000000000000023
210
0.0
220
1.0
230
-0.0000000000000002
  0
LINE
  5
1F07
  8
0
  6
VERDECKT
 62
     1
 10
-46.3148118992656919
 20
189.3288363051005092
 30
-0.000000000000042
 11
30.3148118992656883
 21
189.3288363051005092
 31
-0.000000000000042
210
0.0
220
1.0
230
-0.0000000000000002
  0
ARC
  5
1F08
  8
0
  6
VERDECKT
 62
     1
 10
33.4999999999999076
 20
127.1627548526874989
 30
-0.0000000000000282
 40
6.5999999999999091
 50
179.9999999999998863
 51
199.9831065219001118
  0
LINE
  5
1F09
  8
0
  6
VERDECKT
 62
     1
 10
26.9000000000000092
 20
129.6973676745874968
 30
-0.0000000000000288
 11
26.9000000000000092
 21
127.1627548526874989
 31
-0.0000000000000282
210
0.0
220
1.0
230
-0.0000000000000002
  0
LINE
  5
1F0A
  8
0
  6
VERDECKT
 62
     1
 10
-42.8999999999999986
 20
129.6973676745874968
 30
-0.0000000000000288
 11
-42.8999999999999986
 21
126.0
 31
-0.000000000000028
210
0.0
220
1.0
230
-0.0000000000000002
  0
ARC
  5
1F0B
  8
0
  6
VERDECKT
 62
     1
 10
52.5000000000000782
 20
129.6973676745874968
 30
0.0
 40
9.6000000000000831
210
0.0
220
-0.0000000000000002
230
-1.0
 50
147.6719358778377966
 51
180.0
  0
ARC
  5
1F0C
  8
0
  6
VERDECKT
 62
     1
 10
-36.5000000000002487
 20
129.6973676745874968
 30
0.0
 40
9.600000000000243
210
0.0
220
-0.0000000000000002
230
-1.0
 50
0.0000000000001781
 51
32.328064122161372
  0
ARC
  5
1F0D
  8
0
  6
VERDECKT
 62
     1
 10
35.5999999999999801
 20
140.39269375657301
 30
0.0
 40
10.3999999999999595
210
0.0
220
-0.0000000000000002
230
-1.0
 50
327.6719358778382798
 51
0.0000000000004707
  0
ARC
  5
1F0E
  8
0
  6
VERDECKT
 62
     1
 10
-19.5999999999998913
 20
140.39269375657301
 30
0.0
 40
10.4000000000000394
210
0.0
220
-0.0000000000000002
230
-1.0
 50
179.9999999999996874
 51
212.3280641221616918
  0
LINE
  5
1F0F
  8
0
  6
VERDECKT
 62
     1
 10
29.9999999999999503
 20
161.3339673391560893
 30
-0.0000000000000358
 11
29.9999999999999503
 21
140.39269375657301
 31
-0.0000000000000312
210
0.0
220
1.0
230
-0.0000000000000002
  0
LINE
  5
1F10
  8
0
  6
VERDECKT
 62
     1
 10
-45.9999999999999503
 20
161.3339673391560893
 30
-0.0000000000000358
 11
-45.9999999999999503
 21
140.39269375657301
 31
-0.0000000000000312
210
0.0
220
1.0
230
-0.0000000000000002
  0
ARC
  5
1F11
  8
0
  6
VERDECKT
 62
     1
 10
59.5999999999991488
 20
161.3339673391560893
 30
0.0
 40
13.5999999999992003
210
0.0
220
-0.0000000000000002
230
-1.0
 50
158.8168456069614081
 51
180.0
  0
ARC
  5
1F12
  8
0
  6
VERDECKT
 62
     1
 10
-43.5999999999991488
 20
161.3339673391560893
 30
0.0
 40
13.5999999999992003
210
0.0
220
-0.0000000000000002
230
-1.0
 50
0.0
 51
21.1831543930385884
  0
ARC
  5
1F13
  8
0
  6
VERDECKT
 62
     1
 10
25.1000000000080696
 20
174.7039673391545875
 30
0.0
 40
23.4000932431176913
210
0.0
220
-0.0000000000000002
230
-1.0
 50
338.8168456069615786
 51
359.8382525687345037
  0
ARC
  5
1F14
  8
0
  6
VERDECKT
 62
     1
 10
-9.1000000000082402
 20
174.7039673391545875
 30
0.0
 40
23.4000932431175102
210
0.0
220
-0.0000000000000002
230
-1.0
 50
180.1617474312652973
 51
201.1831543930385067
  0
LINE
  5
1F15
  8
0
  6
VERDECKT
 62
     1
 10
32.5
 20
179.4550449320377083
 30
-0.0000000000000398
 11
32.5
 21
174.63790837323549
 31
-0.0000000000000388
210
0.0
220
1.0
230
-0.0000000000000002
  0
LINE
  5
1F16
  8
0
  6
VERDECKT
 62
     1
 10
-48.5
 20
179.4550449320377083
 30
-0.0000000000000398
 11
-48.5
 21
174.63790837323549
 31
-0.0000000000000388
210
0.0
220
1.0
230
-0.0000000000000002
  0
ARC
  5
1F17
  8
0
  6
VERDECKT
 62
     1
 10
25.1000000000003105
 20
179.4550449320373957
 30
0.0
 40
23.3999999999996611
210
0.0
220
-0.0000000000000002
230
-1.0
 50
0.0000000000006997
 51
24.9581963123157102
  0
ARC
  5
1F18
  8
0
  6
VERDECKT
 62
     1
 10
-9.1000000000002643
 20
179.4550449320373957
 30
0.0
 40
23.3999999999997002
210
0.0
220
-0.0000000000000002
230
-1.0
 50
155.0418036876841938
 51
179.9999999999990905
  0
LINE
  5
1F19
  8
0
  6
VERDECKT
 62
     1
 10
-46.3148118992656705
 20
189.3288363051005092
 30
-0.000000000000042
 11
-47.765397328275391
 21
190.0039673391559063
 31
-0.0000000000000422
210
0.0
220
1.0
230
-0.0000000000000002
  0
LINE
  5
1F1A
  8
0
  6
VERDECKT
 62
     1
 10
30.3148118992656386
 20
189.3288363051005092
 30
-0.000000000000042
 11
31.7653973282753483
 21
190.0039673391559063
 31
-0.0000000000000422
210
0.0
220
1.0
230
-0.0000000000000002
  0
LINE
  5
1F1B
  8
0
  6
VERDECKT
 62
     1
 10
27.2973634049764193
 20
124.9072506363152968
 30
-0.0000000000000277
 11
42.8999999999999773
 21
82.0000000000000142
 31
-0.0000000000000182
210
0.0
220
1.0
230
-0.0000000000000002
  0
LINE
  5
1F1C
  8
0
  6
VERDECKT
 62
     1
 10
-42.8999999999999773
 20
82.0000000000000142
 30
-0.0000000000000182
 11
-42.8999999999999773
 21
126.0
 31
-0.000000000000028
210
0.0
220
1.0
230
-0.0000000000000002
  0
ARC
  5
1F1D
  8
0
  6
VERDECKT
 62
     1
 10
32.9000000000016115
 20
10.50646693773691
 30
0.0
 40
9.9999999999983729
210
0.0
220
-0.0000000000000002
230
-1.0
 50
354.9999999999998863
 51
0.0000000000005471
  0
ARC
  5
1F1E
  8
0
  6
VERDECKT
 62
     1
 10
-32.8999999999941011
 20
10.5064669377372297
 30
0.0
 40
10.0000000000058709
210
0.0
220
-0.0000000000000002
230
-1.0
 50
180.0000000000013074
 51
184.9999999999980957
  0
LINE
  5
1F1F
  8
0
  6
VERDECKT
 62
     1
 10
-42.0190016246716027
 20
0.0000000000000631
 30
0.0
 11
-42.8619469809174305
 21
9.6349095102604583
 31
-0.0000000000000021
210
0.0
220
1.0
230
-0.0000000000000002
  0
LINE
  5
1F20
  8
0
  6
VERDECKT
 62
     1
 10
42.0190016246716027
 20
0.0000000000000631
 30
0.0
 11
42.8619469809174305
 21
9.6349095102604583
 31
-0.0000000000000021
210
0.0
220
1.0
230
-0.0000000000000002
  0
LINE
  5
1F21
  8
0
  6
VERDECKT
 62
     1
 10
42.8999999999999773
 20
82.0000000000000142
 30
-0.0000000000000182
 11
42.8999999999999773
 21
10.5064669377370006
 31
-0.0000000000000023
210
0.0
220
1.0
230
-0.0000000000000002
  0
LINE
  5
1F22
  8
0
  6
VERDECKT
 62
     1
 10
-42.8999999999999773
 20
82.0000000000000142
 30
-0.0000000000000182
 11
-42.8999999999999773
 21
10.5064669377370006
 31
-0.0000000000000023
210
0.0
220
1.0
230
-0.0000000000000002
  0
ENDBLK
  5
1F24
  8
0
  0
BLOCK
  8
0
  2
A$C1A0A23E8
 70
     0
 10
0.0
 20
0.0
 30
0.0
  3
A$C1A0A23E8
  1

  0
LINE
  5
1F28
  8
0
  6
CONTINUOUS
 62
     3
 10
-39.7653973282755331
 20
190.0039673391559063
 30
-0.0000000000000422
 11
-0.0000000000001061
 21
190.0039673391559063
 31
-0.0000000000000422
210
-0.0000000000000002
220
1.0
230
-0.0000000000000002
  0
LINE
  5
1F29
  8
0
  6
CONTINUOUS
 62
     3
 10
-0.0000000000000895
 20
190.0039673391559063
 30
-0.0000000000000422
 11
39.7653973282752773
 21
190.0039673391559063
 31
-0.0000000000000422
210
-0.0000000000000002
220
1.0
230
-0.0000000000000002
  0
LINE
  5
1F2A
  8
0
  6
CONTINUOUS
 62
     3
 10
44.5000000000000071
 20
82.0000000000000853
 30
-0.0000000000000182
 11
-0.0000000000000395
 21
82.0000000000000568
 31
-0.0000000000000182
210
-0.0000000000000002
220
1.0
230
-0.0000000000000002
  0
LINE
  5
1F2B
  8
0
  6
CONTINUOUS
 62
     3
 10
-0.0000000000000567
 20
82.0000000000000568
 30
-0.0000000000000182
 11
-44.5000000000000497
 21
82.0000000000000142
 31
-0.0000000000000182
210
-0.0000000000000002
220
1.0
230
-0.0000000000000002
  0
POLYLINE
  8
0
  5
1FBA
  62
3
  66
     1
 10
0.000000
 20
0.000000
 30
0.000000
  70
     8
  0
VERTEX
  8
0
  5
1FBB
 10
-36.5000
 20
126.450
 30
-2.81000e-14
  70
    32
  0
VERTEX
  8
0
  5
1FBC
 10
-36.5000
 20
126.448
 30
-2.81000e-14
  70
    32
  0
VERTEX
  8
0
  5
1FBD
 10
-36.5000
 20
126.446
 30
-2.81000e-14
  70
    32
  0
VERTEX
  8
0
  5
1FBE
 10
-36.5000
 20
126.443
 30
-2.81000e-14
  70
    32
  0
VERTEX
  8
0
  5
1FBF
 10
-36.5000
 20
126.441
 30
-2.81000e-14
  70
    32
  0
VERTEX
  8
0
  5
1FC0
 10
-36.5000
 20
126.439
 30
-2.81000e-14
  70
    32
  0
VERTEX
  8
0
  5
1FC1
 10
-36.5000
 20
126.436
 30
-2.81000e-14
  70
    32
  0
VERTEX
  8
0
  5
1FC2
 10
-36.5000
 20
126.434
 30
-2.81000e-14
  70
    32
  0
VERTEX
  8
0
  5
1FC3
 10
-36.5000
 20
126.431
 30
-2.80999e-14
  70
    32
  0
VERTEX
  8
0
  5
1FC4
 10
-36.5000
 20
126.429
 30
-2.80999e-14
  70
    32
  0
VERTEX
  8
0
  5
1FC5
 10
-36.5001
 20
126.427
 30
-2.80999e-14
  70
    32
  0
VERTEX
  8
0
  5
1FC6
 10
-36.5001
 20
126.424
 30
-2.80999e-14
  70
    32
  0
VERTEX
  8
0
  5
1FC7
 10
-36.5001
 20
126.422
 30
-2.80998e-14
  70
    32
  0
VERTEX
  8
0
  5
1FC8
 10
-36.5001
 20
126.420
 30
-2.80998e-14
  70
    32
  0
VERTEX
  8
0
  5
1FC9
 10
-36.5001
 20
126.417
 30
-2.80997e-14
  70
    32
  0
VERTEX
  8
0
  5
1FCA
 10
-36.5001
 20
126.415
 30
-2.80996e-14
  70
    32
  0
VERTEX
  8
0
  5
1FCB
 10
-36.5001
 20
126.412
 30
-2.80995e-14
  70
    32
  0
VERTEX
  8
0
  5
1FCC
 10
-36.5002
 20
126.410
 30
-2.80995e-14
  70
    32
  0
VERTEX
  8
0
  5
1FCD
 10
-36.5002
 20
126.408
 30
-2.80994e-14
  70
    32
  0
VERTEX
  8
0
  5
1FCE
 10
-36.5002
 20
126.405
 30
-2.80992e-14
  70
    32
  0
VERTEX
  8
0
  5
1FCF
 10
-36.5002
 20
126.403
 30
-2.80991e-14
  70
    32
  0
VERTEX
  8
0
  5
1FD0
 10
-36.5002
 20
126.401
 30
-2.80990e-14
  70
    32
  0
VERTEX
  8
0
  5
1FD1
 10
-36.5003
 20
126.398
 30
-2.80988e-14
  70
    32
  0
VERTEX
  8
0
  5
1FD2
 10
-36.5003
 20
126.396
 30
-2.80986e-14
  70
    32
  0
VERTEX
  8
0
  5
1FD3
 10
-36.5003
 20
126.394
 30
-2.80985e-14
  70
    32
  0
VERTEX
  8
0
  5
1FD4
 10
-36.5004
 20
126.391
 30
-2.80983e-14
  70
    32
  0
VERTEX
  8
0
  5
1FD5
 10
-36.5004
 20
126.389
 30
-2.80980e-14
  70
    32
  0
VERTEX
  8
0
  5
1FD6
 10
-36.5004
 20
126.386
 30
-2.80978e-14
  70
    32
  0
VERTEX
  8
0
  5
1FD7
 10
-36.5004
 20
126.384
 30
-2.80976e-14
  70
    32
  0
VERTEX
  8
0
  5
1FD8
 10
-36.5005
 20
126.382
 30
-2.80973e-14
  70
    32
  0
VERTEX
  8
0
  5
1FD9
 10
-36.5005
 20
126.379
 30
-2.80970e-14
  70
    32
  0
VERTEX
  8
0
  5
1FDA
 10
-36.5005
 20
126.377
 30
-2.80967e-14
  70
    32
  0
VERTEX
  8
0
  5
1FDB
 10
-36.5006
 20
126.375
 30
-2.80964e-14
  70
    32
  0
VERTEX
  8
0
  5
1FDC
 10
-36.5006
 20
126.372
 30
-2.80960e-14
  70
    32
  0
VERTEX
  8
0
  5
1FDD
 10
-36.5007
 20
126.370
 30
-2.80956e-14
  70
    32
  0
VERTEX
  8
0
  5
1FDE
 10
-36.5007
 20
126.367
 30
-2.80952e-14
  70
    32
  0
VERTEX
  8
0
  5
1FDF
 10
-36.5007
 20
126.365
 30
-2.80948e-14
  70
    32
  0
VERTEX
  8
0
  5
1FE0
 10
-36.5008
 20
126.363
 30
-2.80944e-14
  70
    32
  0
VERTEX
  8
0
  5
1FE1
 10
-36.5008
 20
126.360
 30
-2.80939e-14
  70
    32
  0
VERTEX
  8
0
  5
1FE2
 10
-36.5009
 20
126.358
 30
-2.80934e-14
  70
    32
  0
VERTEX
  8
0
  5
1FE3
 10
-36.5009
 20
126.356
 30
-2.80929e-14
  70
    32
  0
VERTEX
  8
0
  5
1FE4
 10
-36.5009
 20
126.353
 30
-2.80923e-14
  70
    32
  0
VERTEX
  8
0
  5
1FE5
 10
-36.5010
 20
126.351
 30
-2.80918e-14
  70
    32
  0
VERTEX
  8
0
  5
1FE6
 10
-36.5010
 20
126.348
 30
-2.80912e-14
  70
    32
  0
VERTEX
  8
0
  5
1FE7
 10
-36.5011
 20
126.346
 30
-2.80905e-14
  70
    32
  0
VERTEX
  8
0
  5
1FE8
 10
-36.5011
 20
126.344
 30
-2.80899e-14
  70
    32
  0
VERTEX
  8
0
  5
1FE9
 10
-36.5012
 20
126.341
 30
-2.80892e-14
  70
    32
  0
VERTEX
  8
0
  5
1FEA
 10
-36.5012
 20
126.339
 30
-2.80885e-14
  70
    32
  0
VERTEX
  8
0
  5
1FEB
 10
-36.5013
 20
126.337
 30
-2.80877e-14
  70
    32
  0
VERTEX
  8
0
  5
1FEC
 10
-36.5014
 20
126.334
 30
-2.80869e-14
  70
    32
  0
VERTEX
  8
0
  5
1FED
 10
-36.5014
 20
126.332
 30
-2.80861e-14
  70
    32
  0
VERTEX
  8
0
  5
1FEE
 10
-36.5015
 20
126.330
 30
-2.80852e-14
  70
    32
  0
VERTEX
  8
0
  5
1FEF
 10
-36.5015
 20
126.327
 30
-2.80844e-14
  70
    32
  0
VERTEX
  8
0
  5
1FF0
 10
-36.5016
 20
126.325
 30
-2.80834e-14
  70
    32
  0
VERTEX
  8
0
  5
1FF1
 10
-36.5016
 20
126.322
 30
-2.80825e-14
  70
    32
  0
VERTEX
  8
0
  5
1FF2
 10
-36.5017
 20
126.320
 30
-2.80815e-14
  70
    32
  0
VERTEX
  8
0
  5
1FF3
 10
-36.5018
 20
126.318
 30
-2.80805e-14
  70
    32
  0
VERTEX
  8
0
  5
1FF4
 10
-36.5018
 20
126.315
 30
-2.80794e-14
  70
    32
  0
VERTEX
  8
0
  5
1FF5
 10
-36.5019
 20
126.313
 30
-2.80783e-14
  70
    32
  0
VERTEX
  8
0
  5
1FF6
 10
-36.5020
 20
126.311
 30
-2.80772e-14
  70
    32
  0
VERTEX
  8
0
  5
1FF7
 10
-36.5020
 20
126.308
 30
-2.80760e-14
  70
    32
  0
VERTEX
  8
0
  5
1FF8
 10
-36.5021
 20
126.306
 30
-2.80747e-14
  70
    32
  0
VERTEX
  8
0
  5
1FF9
 10
-36.5022
 20
126.303
 30
-2.80735e-14
  70
    32
  0
VERTEX
  8
0
  5
1FFA
 10
-36.5022
 20
126.301
 30
-2.80722e-14
  70
    32
  0
VERTEX
  8
0
  5
1FFB
 10
-36.5023
 20
126.299
 30
-2.80708e-14
  70
    32
  0
VERTEX
  8
0
  5
1FFC
 10
-36.5024
 20
126.296
 30
-2.80694e-14
  70
    32
  0
VERTEX
  8
0
  5
1FFD
 10
-36.5024
 20
126.294
 30
-2.80680e-14
  70
    32
  0
VERTEX
  8
0
  5
1FFE
 10
-36.5025
 20
126.292
 30
-2.80665e-14
  70
    32
  0
VERTEX
  8
0
  5
1FFF
 10
-36.5026
 20
126.289
 30
-2.80650e-14
  70
    32
  0
VERTEX
  8
0
  5
2000
 10
-36.5027
 20
126.287
 30
-2.80635e-14
  70
    32
  0
VERTEX
  8
0
  5
2001
 10
-36.5028
 20
126.285
 30
-2.80618e-14
  70
    32
  0
VERTEX
  8
0
  5
2002
 10
-36.5028
 20
126.282
 30
-2.80602e-14
  70
    32
  0
VERTEX
  8
0
  5
2003
 10
-36.5029
 20
126.280
 30
-2.80585e-14
  70
    32
  0
VERTEX
  8
0
  5
2004
 10
-36.5030
 20
126.277
 30
-2.80567e-14
  70
    32
  0
VERTEX
  8
0
  5
2005
 10
-36.5031
 20
126.275
 30
-2.80549e-14
  70
    32
  0
VERTEX
  8
0
  5
2006
 10
-36.5032
 20
126.273
 30
-2.80531e-14
  70
    32
  0
VERTEX
  8
0
  5
2007
 10
-36.5032
 20
126.270
 30
-2.80512e-14
  70
    32
  0
VERTEX
  8
0
  5
2008
 10
-36.5033
 20
126.268
 30
-2.80492e-14
  70
    32
  0
VERTEX
  8
0
  5
2009
 10
-36.5034
 20
126.266
 30
-2.80473e-14
  70
    32
  0
VERTEX
  8
0
  5
200A
 10
-36.5035
 20
126.263
 30
-2.80454e-14
  70
    32
  0
VERTEX
  8
0
  5
200B
 10
-36.5036
 20
126.261
 30
-2.80436e-14
  70
    32
  0
VERTEX
  8
0
  5
200C
 10
-36.5037
 20
126.258
 30
-2.80419e-14
  70
    32
  0
VERTEX
  8
0
  5
200D
 10
-36.5038
 20
126.256
 30
-2.80402e-14
  70
    32
  0
VERTEX
  8
0
  5
200E
 10
-36.5039
 20
126.254
 30
-2.80385e-14
  70
    32
  0
VERTEX
  8
0
  5
200F
 10
-36.5040
 20
126.251
 30
-2.80369e-14
  70
    32
  0
VERTEX
  8
0
  5
2010
 10
-36.5041
 20
126.249
 30
-2.80353e-14
  70
    32
  0
VERTEX
  8
0
  5
2011
 10
-36.5042
 20
126.247
 30
-2.80338e-14
  70
    32
  0
VERTEX
  8
0
  5
2012
 10
-36.5043
 20
126.244
 30
-2.80323e-14
  70
    32
  0
VERTEX
  8
0
  5
2013
 10
-36.5044
 20
126.242
 30
-2.80308e-14
  70
    32
  0
VERTEX
  8
0
  5
2014
 10
-36.5045
 20
126.240
 30
-2.80294e-14
  70
    32
  0
VERTEX
  8
0
  5
2015
 10
-36.5046
 20
126.237
 30
-2.80281e-14
  70
    32
  0
VERTEX
  8
0
  5
2016
 10
-36.5047
 20
126.235
 30
-2.80268e-14
  70
    32
  0
VERTEX
  8
0
  5
2017
 10
-36.5048
 20
126.232
 30
-2.80255e-14
  70
    32
  0
VERTEX
  8
0
  5
2018
 10
-36.5049
 20
126.230
 30
-2.80243e-14
  70
    32
  0
VERTEX
  8
0
  5
2019
 10
-36.5050
 20
126.228
 30
-2.80231e-14
  70
    32
  0
VERTEX
  8
0
  5
201A
 10
-36.5051
 20
126.225
 30
-2.80219e-14
  70
    32
  0
VERTEX
  8
0
  5
201B
 10
-36.5052
 20
126.223
 30
-2.80208e-14
  70
    32
  0
VERTEX
  8
0
  5
201C
 10
-36.5053
 20
126.221
 30
-2.80197e-14
  70
    32
  0
VERTEX
  8
0
  5
201D
 10
-36.5054
 20
126.218
 30
-2.80187e-14
  70
    32
  0
VERTEX
  8
0
  5
201E
 10
-36.5055
 20
126.216
 30
-2.80177e-14
  70
    32
  0
VERTEX
  8
0
  5
201F
 10
-36.5056
 20
126.214
 30
-2.80168e-14
  70
    32
  0
VERTEX
  8
0
  5
2020
 10
-36.5057
 20
126.211
 30
-2.80158e-14
  70
    32
  0
VERTEX
  8
0
  5
2021
 10
-36.5058
 20
126.209
 30
-2.80149e-14
  70
    32
  0
VERTEX
  8
0
  5
2022
 10
-36.5060
 20
126.206
 30
-2.80141e-14
  70
    32
  0
VERTEX
  8
0
  5
2023
 10
-36.5061
 20
126.204
 30
-2.80132e-14
  70
    32
  0
VERTEX
  8
0
  5
2024
 10
-36.5062
 20
126.202
 30
-2.80125e-14
  70
    32
  0
VERTEX
  8
0
  5
2025
 10
-36.5063
 20
126.199
 30
-2.80117e-14
  70
    32
  0
VERTEX
  8
0
  5
2026
 10
-36.5064
 20
126.197
 30
-2.80110e-14
  70
    32
  0
VERTEX
  8
0
  5
2027
 10
-36.5066
 20
126.195
 30
-2.80103e-14
  70
    32
  0
VERTEX
  8
0
  5
2028
 10
-36.5067
 20
126.192
 30
-2.80096e-14
  70
    32
  0
VERTEX
  8
0
  5
2029
 10
-36.5068
 20
126.190
 30
-2.80090e-14
  70
    32
  0
VERTEX
  8
0
  5
202A
 10
-36.5069
 20
126.188
 30
-2.80084e-14
  70
    32
  0
VERTEX
  8
0
  5
202B
 10
-36.5070
 20
126.185
 30
-2.80078e-14
  70
    32
  0
VERTEX
  8
0
  5
202C
 10
-36.5072
 20
126.183
 30
-2.80072e-14
  70
    32
  0
VERTEX
  8
0
  5
202D
 10
-36.5073
 20
126.180
 30
-2.80067e-14
  70
    32
  0
VERTEX
  8
0
  5
202E
 10
-36.5074
 20
126.178
 30
-2.80062e-14
  70
    32
  0
VERTEX
  8
0
  5
202F
 10
-36.5076
 20
126.176
 30
-2.80057e-14
  70
    32
  0
VERTEX
  8
0
  5
2030
 10
-36.5077
 20
126.173
 30
-2.80053e-14
  70
    32
  0
VERTEX
  8
0
  5
2031
 10
-36.5078
 20
126.171
 30
-2.80049e-14
  70
    32
  0
VERTEX
  8
0
  5
2032
 10
-36.5080
 20
126.169
 30
-2.80045e-14
  70
    32
  0
VERTEX
  8
0
  5
2033
 10
-36.5081
 20
126.166
 30
-2.80041e-14
  70
    32
  0
VERTEX
  8
0
  5
2034
 10
-36.5082
 20
126.164
 30
-2.80037e-14
  70
    32
  0
VERTEX
  8
0
  5
2035
 10
-36.5084
 20
126.162
 30
-2.80034e-14
  70
    32
  0
VERTEX
  8
0
  5
2036
 10
-36.5085
 20
126.159
 30
-2.80031e-14
  70
    32
  0
VERTEX
  8
0
  5
2037
 10
-36.5086
 20
126.157
 30
-2.80028e-14
  70
    32
  0
VERTEX
  8
0
  5
2038
 10
-36.5088
 20
126.155
 30
-2.80025e-14
  70
    32
  0
VERTEX
  8
0
  5
2039
 10
-36.5089
 20
126.152
 30
-2.80022e-14
  70
    32
  0
VERTEX
  8
0
  5
203A
 10
-36.5091
 20
126.150
 30
-2.80020e-14
  70
    32
  0
VERTEX
  8
0
  5
203B
 10
-36.5092
 20
126.147
 30
-2.80018e-14
  70
    32
  0
VERTEX
  8
0
  5
203C
 10
-36.5093
 20
126.145
 30
-2.80016e-14
  70
    32
  0
VERTEX
  8
0
  5
203D
 10
-36.5095
 20
126.143
 30
-2.80014e-14
  70
    32
  0
VERTEX
  8
0
  5
203E
 10
-36.5096
 20
126.140
 30
-2.80012e-14
  70
    32
  0
VERTEX
  8
0
  5
203F
 10
-36.5098
 20
126.138
 30
-2.80011e-14
  70
    32
  0
VERTEX
  8
0
  5
2040
 10
-36.5099
 20
126.136
 30
-2.80009e-14
  70
    32
  0
VERTEX
  8
0
  5
2041
 10
-36.5101
 20
126.133
 30
-2.80008e-14
  70
    32
  0
VERTEX
  8
0
  5
2042
 10
-36.5102
 20
126.131
 30
-2.80007e-14
  70
    32
  0
VERTEX
  8
0
  5
2043
 10
-36.5104
 20
126.129
 30
-2.80006e-14
  70
    32
  0
VERTEX
  8
0
  5
2044
 10
-36.5105
 20
126.126
 30
-2.80005e-14
  70
    32
  0
VERTEX
  8
0
  5
2045
 10
-36.5107
 20
126.124
 30
-2.80004e-14
  70
    32
  0
VERTEX
  8
0
  5
2046
 10
-36.5108
 20
126.122
 30
-2.80003e-14
  70
    32
  0
VERTEX
  8
0
  5
2047
 10
-36.5110
 20
126.119
 30
-2.80003e-14
  70
    32
  0
VERTEX
  8
0
  5
2048
 10
-36.5112
 20
126.117
 30
-2.80002e-14
  70
    32
  0
VERTEX
  8
0
  5
2049
 10
-36.5113
 20
126.114
 30
-2.80002e-14
  70
    32
  0
VERTEX
  8
0
  5
204A
 10
-36.5115
 20
126.112
 30
-2.80001e-14
  70
    32
  0
VERTEX
  8
0
  5
204B
 10
-36.5116
 20
126.110
 30
-2.80001e-14
  70
    32
  0
VERTEX
  8
0
  5
204C
 10
-36.5118
 20
126.107
 30
-2.80001e-14
  70
    32
  0
VERTEX
  8
0
  5
204D
 10
-36.5120
 20
126.105
 30
-2.80000e-14
  70
    32
  0
VERTEX
  8
0
  5
204E
 10
-36.5121
 20
126.103
 30
-2.80000e-14
  70
    32
  0
VERTEX
  8
0
  5
204F
 10
-36.5123
 20
126.100
 30
-2.80000e-14
  70
    32
  0
VERTEX
  8
0
  5
2050
 10
-36.5124
 20
126.098
 30
-2.80000e-14
  70
    32
  0
VERTEX
  8
0
  5
2051
 10
-36.5126
 20
126.096
 30
-2.80000e-14
  70
    32
  0
VERTEX
  8
0
  5
2052
 10
-36.5128
 20
126.093
 30
-2.80000e-14
  70
    32
  0
VERTEX
  8
0
  5
2053
 10
-36.5130
 20
126.091
 30
-2.80000e-14
  70
    32
  0
VERTEX
  8
0
  5
2054
 10
-36.5131
 20
126.089
 30
-2.80000e-14
  70
    32
  0
VERTEX
  8
0
  5
2055
 10
-36.5133
 20
126.086
 30
-2.80000e-14
  70
    32
  0
VERTEX
  8
0
  5
2056
 10
-36.5135
 20
126.084
 30
-2.80000e-14
  70
    32
  0
VERTEX
  8
0
  5
2057
 10
-36.5136
 20
126.082
 30
-2.80000e-14
  70
    32
  0
VERTEX
  8
0
  5
2058
 10
-36.5138
 20
126.079
 30
-2.80000e-14
  70
    32
  0
VERTEX
  8
0
  5
2059
 10
-36.5140
 20
126.077
 30
-2.80000e-14
  70
    32
  0
VERTEX
  8
0
  5
205A
 10
-36.5142
 20
126.074
 30
-2.80000e-14
  70
    32
  0
VERTEX
  8
0
  5
205B
 10
-36.5143
 20
126.072
 30
-2.80000e-14
  70
    32
  0
VERTEX
  8
0
  5
205C
 10
-36.5145
 20
126.070
 30
-2.79999e-14
  70
    32
  0
VERTEX
  8
0
  5
205D
 10
-36.5147
 20
126.067
 30
-2.79999e-14
  70
    32
  0
VERTEX
  8
0
  5
205E
 10
-36.5149
 20
126.065
 30
-2.79999e-14
  70
    32
  0
VERTEX
  8
0
  5
205F
 10
-36.5151
 20
126.063
 30
-2.79999e-14
  70
    32
  0
VERTEX
  8
0
  5
2060
 10
-36.5153
 20
126.060
 30
-2.79998e-14
  70
    32
  0
VERTEX
  8
0
  5
2061
 10
-36.5154
 20
126.058
 30
-2.79998e-14
  70
    32
  0
VERTEX
  8
0
  5
2062
 10
-36.5156
 20
126.056
 30
-2.79997e-14
  70
    32
  0
VERTEX
  8
0
  5
2063
 10
-36.5158
 20
126.053
 30
-2.79996e-14
  70
    32
  0
VERTEX
  8
0
  5
2064
 10
-36.5160
 20
126.051
 30
-2.79996e-14
  70
    32
  0
VERTEX
  8
0
  5
2065
 10
-36.5162
 20
126.049
 30
-2.79995e-14
  70
    32
  0
VERTEX
  8
0
  5
2066
 10
-36.5164
 20
126.046
 30
-2.79994e-14
  70
    32
  0
VERTEX
  8
0
  5
2067
 10
-36.5166
 20
126.044
 30
-2.79993e-14
  70
    32
  0
VERTEX
  8
0
  5
2068
 10
-36.5168
 20
126.042
 30
-2.79991e-14
  70
    32
  0
VERTEX
  8
0
  5
2069
 10
-36.5170
 20
126.039
 30
-2.79990e-14
  70
    32
  0
VERTEX
  8
0
  5
206A
 10
-36.5171
 20
126.037
 30
-2.79988e-14
  70
    32
  0
VERTEX
  8
0
  5
206B
 10
-36.5173
 20
126.035
 30
-2.79987e-14
  70
    32
  0
VERTEX
  8
0
  5
206C
 10
-36.5175
 20
126.032
 30
-2.79985e-14
  70
    32
  0
VERTEX
  8
0
  5
206D
 10
-36.5177
 20
126.030
 30
-2.79983e-14
  70
    32
  0
VERTEX
  8
0
  5
206E
 10
-36.5179
 20
126.027
 30
-2.79981e-14
  70
    32
  0
VERTEX
  8
0
  5
206F
 10
-36.5181
 20
126.025
 30
-2.79979e-14
  70
    32
  0
VERTEX
  8
0
  5
2070
 10
-36.5183
 20
126.023
 30
-2.79976e-14
  70
    32
  0
VERTEX
  8
0
  5
2071
 10
-36.5185
 20
126.020
 30
-2.79973e-14
  70
    32
  0
VERTEX
  8
0
  5
2072
 10
-36.5187
 20
126.018
 30
-2.79971e-14
  70
    32
  0
VERTEX
  8
0
  5
2073
 10
-36.5189
 20
126.016
 30
-2.79967e-14
  70
    32
  0
VERTEX
  8
0
  5
2074
 10
-36.5192
 20
126.013
 30
-2.79964e-14
  70
    32
  0
VERTEX
  8
0
  5
2075
 10
-36.5194
 20
126.011
 30
-2.79961e-14
  70
    32
  0
VERTEX
  8
0
  5
2076
 10
-36.5196
 20
126.009
 30
-2.79957e-14
  70
    32
  0
VERTEX
  8
0
  5
2077
 10
-36.5198
 20
126.006
 30
-2.79953e-14
  70
    32
  0
VERTEX
  8
0
  5
2078
 10
-36.5200
 20
126.004
 30
-2.79949e-14
  70
    32
  0
VERTEX
  8
0
  5
2079
 10
-36.5202
 20
126.002
 30
-2.79945e-14
  70
    32
  0
VERTEX
  8
0
  5
207A
 10
-36.5204
 20
125.999
 30
-2.79940e-14
  70
    32
  0
VERTEX
  8
0
  5
207B
 10
-36.5206
 20
125.997
 30
-2.79935e-14
  70
    32
  0
VERTEX
  8
0
  5
207C
 10
-36.5208
 20
125.995
 30
-2.79930e-14
  70
    32
  0
VERTEX
  8
0
  5
207D
 10
-36.5210
 20
125.992
 30
-2.79924e-14
  70
    32
  0
VERTEX
  8
0
  5
207E
 10
-36.5213
 20
125.990
 30
-2.79919e-14
  70
    32
  0
VERTEX
  8
0
  5
207F
 10
-36.5215
 20
125.988
 30
-2.79913e-14
  70
    32
  0
VERTEX
  8
0
  5
2080
 10
-36.5217
 20
125.985
 30
-2.79907e-14
  70
    32
  0
VERTEX
  8
0
  5
2081
 10
-36.5219
 20
125.983
 30
-2.79900e-14
  70
    32
  0
VERTEX
  8
0
  5
2082
 10
-36.5221
 20
125.981
 30
-2.79893e-14
  70
    32
  0
VERTEX
  8
0
  5
2083
 10
-36.5224
 20
125.978
 30
-2.79886e-14
  70
    32
  0
VERTEX
  8
0
  5
2084
 10
-36.5226
 20
125.976
 30
-2.79879e-14
  70
    32
  0
VERTEX
  8
0
  5
2085
 10
-36.5228
 20
125.974
 30
-2.79871e-14
  70
    32
  0
VERTEX
  8
0
  5
2086
 10
-36.5230
 20
125.971
 30
-2.79863e-14
  70
    32
  0
VERTEX
  8
0
  5
2087
 10
-36.5233
 20
125.969
 30
-2.79854e-14
  70
    32
  0
VERTEX
  8
0
  5
2088
 10
-36.5235
 20
125.967
 30
-2.79845e-14
  70
    32
  0
VERTEX
  8
0
  5
2089
 10
-36.5237
 20
125.964
 30
-2.79836e-14
  70
    32
  0
VERTEX
  8
0
  5
208A
 10
-36.5239
 20
125.962
 30
-2.79827e-14
  70
    32
  0
VERTEX
  8
0
  5
208B
 10
-36.5242
 20
125.960
 30
-2.79817e-14
  70
    32
  0
VERTEX
  8
0
  5
208C
 10
-36.5244
 20
125.957
 30
-2.79807e-14
  70
    32
  0
VERTEX
  8
0
  5
208D
 10
-36.5246
 20
125.955
 30
-2.79796e-14
  70
    32
  0
VERTEX
  8
0
  5
208E
 10
-36.5249
 20
125.953
 30
-2.79785e-14
  70
    32
  0
VERTEX
  8
0
  5
208F
 10
-36.5251
 20
125.950
 30
-2.79774e-14
  70
    32
  0
VERTEX
  8
0
  5
2090
 10
-36.5253
 20
125.948
 30
-2.79762e-14
  70
    32
  0
VERTEX
  8
0
  5
2091
 10
-36.5256
 20
125.946
 30
-2.79750e-14
  70
    32
  0
VERTEX
  8
0
  5
2092
 10
-36.5258
 20
125.943
 30
-2.79737e-14
  70
    32
  0
VERTEX
  8
0
  5
2093
 10
-36.5261
 20
125.941
 30
-2.79724e-14
  70
    32
  0
VERTEX
  8
0
  5
2094
 10
-36.5263
 20
125.939
 30
-2.79711e-14
  70
    32
  0
VERTEX
  8
0
  5
2095
 10
-36.5265
 20
125.936
 30
-2.79697e-14
  70
    32
  0
VERTEX
  8
0
  5
2096
 10
-36.5268
 20
125.934
 30
-2.79683e-14
  70
    32
  0
VERTEX
  8
0
  5
2097
 10
-36.5270
 20
125.932
 30
-2.79668e-14
  70
    32
  0
VERTEX
  8
0
  5
2098
 10
-36.5273
 20
125.929
 30
-2.79653e-14
  70
    32
  0
VERTEX
  8
0
  5
2099
 10
-36.5275
 20
125.927
 30
-2.79638e-14
  70
    32
  0
VERTEX
  8
0
  5
209A
 10
-36.5278
 20
125.925
 30
-2.79622e-14
  70
    32
  0
VERTEX
  8
0
  5
209B
 10
-36.5280
 20
125.922
 30
-2.79605e-14
  70
    32
  0
VERTEX
  8
0
  5
209C
 10
-36.5283
 20
125.920
 30
-2.79588e-14
  70
    32
  0
VERTEX
  8
0
  5
209D
 10
-36.5285
 20
125.918
 30
-2.79571e-14
  70
    32
  0
VERTEX
  8
0
  5
209E
 10
-36.5288
 20
125.915
 30
-2.79553e-14
  70
    32
  0
VERTEX
  8
0
  5
209F
 10
-36.5290
 20
125.913
 30
-2.79534e-14
  70
    32
  0
VERTEX
  8
0
  5
20A0
 10
-36.5293
 20
125.911
 30
-2.79516e-14
  70
    32
  0
VERTEX
  8
0
  5
20A1
 10
-36.5295
 20
125.908
 30
-2.79496e-14
  70
    32
  0
VERTEX
  8
0
  5
20A2
 10
-36.5298
 20
125.906
 30
-2.79477e-14
  70
    32
  0
VERTEX
  8
0
  5
20A3
 10
-36.5300
 20
125.904
 30
-2.79458e-14
  70
    32
  0
VERTEX
  8
0
  5
20A4
 10
-36.5303
 20
125.901
 30
-2.79440e-14
  70
    32
  0
VERTEX
  8
0
  5
20A5
 10
-36.5305
 20
125.899
 30
-2.79422e-14
  70
    32
  0
VERTEX
  8
0
  5
20A6
 10
-36.5308
 20
125.897
 30
-2.79405e-14
  70
    32
  0
VERTEX
  8
0
  5
20A7
 10
-36.5311
 20
125.894
 30
-2.79388e-14
  70
    32
  0
VERTEX
  8
0
  5
20A8
 10
-36.5313
 20
125.892
 30
-2.79372e-14
  70
    32
  0
VERTEX
  8
0
  5
20A9
 10
-36.5316
 20
125.890
 30
-2.79356e-14
  70
    32
  0
VERTEX
  8
0
  5
20AA
 10
-36.5318
 20
125.887
 30
-2.79341e-14
  70
    32
  0
VERTEX
  8
0
  5
20AB
 10
-36.5321
 20
125.885
 30
-2.79326e-14
  70
    32
  0
VERTEX
  8
0
  5
20AC
 10
-36.5324
 20
125.883
 30
-2.79311e-14
  70
    32
  0
VERTEX
  8
0
  5
20AD
 10
-36.5326
 20
125.880
 30
-2.79297e-14
  70
    32
  0
VERTEX
  8
0
  5
20AE
 10
-36.5329
 20
125.878
 30
-2.79283e-14
  70
    32
  0
VERTEX
  8
0
  5
20AF
 10
-36.5332
 20
125.876
 30
-2.79270e-14
  70
    32
  0
VERTEX
  8
0
  5
20B0
 10
-36.5334
 20
125.873
 30
-2.79258e-14
  70
    32
  0
VERTEX
  8
0
  5
20B1
 10
-36.5337
 20
125.871
 30
-2.79245e-14
  70
    32
  0
VERTEX
  8
0
  5
20B2
 10
-36.5340
 20
125.869
 30
-2.79233e-14
  70
    32
  0
VERTEX
  8
0
  5
20B3
 10
-36.5343
 20
125.866
 30
-2.79222e-14
  70
    32
  0
VERTEX
  8
0
  5
20B4
 10
-36.5345
 20
125.864
 30
-2.79210e-14
  70
    32
  0
VERTEX
  8
0
  5
20B5
 10
-36.5348
 20
125.862
 30
-2.79200e-14
  70
    32
  0
VERTEX
  8
0
  5
20B6
 10
-36.5351
 20
125.859
 30
-2.79189e-14
  70
    32
  0
VERTEX
  8
0
  5
20B7
 10
-36.5354
 20
125.857
 30
-2.79179e-14
  70
    32
  0
VERTEX
  8
0
  5
20B8
 10
-36.5356
 20
125.855
 30
-2.79169e-14
  70
    32
  0
VERTEX
  8
0
  5
20B9
 10
-36.5359
 20
125.852
 30
-2.79160e-14
  70
    32
  0
VERTEX
  8
0
  5
20BA
 10
-36.5362
 20
125.850
 30
-2.79151e-14
  70
    32
  0
VERTEX
  8
0
  5
20BB
 10
-36.5365
 20
125.848
 30
-2.79142e-14
  70
    32
  0
VERTEX
  8
0
  5
20BC
 10
-36.5368
 20
125.845
 30
-2.79134e-14
  70
    32
  0
VERTEX
  8
0
  5
20BD
 10
-36.5370
 20
125.843
 30
-2.79126e-14
  70
    32
  0
VERTEX
  8
0
  5
20BE
 10
-36.5373
 20
125.841
 30
-2.79118e-14
  70
    32
  0
VERTEX
  8
0
  5
20BF
 10
-36.5376
 20
125.839
 30
-2.79111e-14
  70
    32
  0
VERTEX
  8
0
  5
20C0
 10
-36.5379
 20
125.836
 30
-2.79104e-14
  70
    32
  0
VERTEX
  8
0
  5
20C1
 10
-36.5382
 20
125.834
 30
-2.79097e-14
  70
    32
  0
VERTEX
  8
0
  5
20C2
 10
-36.5385
 20
125.832
 30
-2.79091e-14
  70
    32
  0
VERTEX
  8
0
  5
20C3
 10
-36.5388
 20
125.829
 30
-2.79085e-14
  70
    32
  0
VERTEX
  8
0
  5
20C4
 10
-36.5391
 20
125.827
 30
-2.79079e-14
  70
    32
  0
VERTEX
  8
0
  5
20C5
 10
-36.5394
 20
125.825
 30
-2.79073e-14
  70
    32
  0
VERTEX
  8
0
  5
20C6
 10
-36.5396
 20
125.822
 30
-2.79068e-14
  70
    32
  0
VERTEX
  8
0
  5
20C7
 10
-36.5399
 20
125.820
 30
-2.79063e-14
  70
    32
  0
VERTEX
  8
0
  5
20C8
 10
-36.5402
 20
125.818
 30
-2.79058e-14
  70
    32
  0
VERTEX
  8
0
  5
20C9
 10
-36.5405
 20
125.815
 30
-2.79054e-14
  70
    32
  0
VERTEX
  8
0
  5
20CA
 10
-36.5408
 20
125.813
 30
-2.79049e-14
  70
    32
  0
VERTEX
  8
0
  5
20CB
 10
-36.5411
 20
125.811
 30
-2.79045e-14
  70
    32
  0
VERTEX
  8
0
  5
20CC
 10
-36.5414
 20
125.808
 30
-2.79041e-14
  70
    32
  0
VERTEX
  8
0
  5
20CD
 10
-36.5417
 20
125.806
 30
-2.79038e-14
  70
    32
  0
VERTEX
  8
0
  5
20CE
 10
-36.5420
 20
125.804
 30
-2.79034e-14
  70
    32
  0
VERTEX
  8
0
  5
20CF
 10
-36.5423
 20
125.801
 30
-2.79031e-14
  70
    32
  0
VERTEX
  8
0
  5
20D0
 10
-36.5426
 20
125.799
 30
-2.79028e-14
  70
    32
  0
VERTEX
  8
0
  5
20D1
 10
-36.5429
 20
125.797
 30
-2.79025e-14
  70
    32
  0
VERTEX
  8
0
  5
20D2
 10
-36.5432
 20
125.795
 30
-2.79023e-14
  70
    32
  0
VERTEX
  8
0
  5
20D3
 10
-36.5436
 20
125.792
 30
-2.79020e-14
  70
    32
  0
VERTEX
  8
0
  5
20D4
 10
-36.5439
 20
125.790
 30
-2.79018e-14
  70
    32
  0
VERTEX
  8
0
  5
20D5
 10
-36.5442
 20
125.788
 30
-2.79016e-14
  70
    32
  0
VERTEX
  8
0
  5
20D6
 10
-36.5445
 20
125.785
 30
-2.79014e-14
  70
    32
  0
VERTEX
  8
0
  5
20D7
 10
-36.5448
 20
125.783
 30
-2.79013e-14
  70
    32
  0
VERTEX
  8
0
  5
20D8
 10
-36.5451
 20
125.781
 30
-2.79011e-14
  70
    32
  0
VERTEX
  8
0
  5
20D9
 10
-36.5454
 20
125.778
 30
-2.79009e-14
  70
    32
  0
VERTEX
  8
0
  5
20DA
 10
-36.5457
 20
125.776
 30
-2.79008e-14
  70
    32
  0
VERTEX
  8
0
  5
20DB
 10
-36.5460
 20
125.774
 30
-2.79007e-14
  70
    32
  0
VERTEX
  8
0
  5
20DC
 10
-36.5464
 20
125.771
 30
-2.79006e-14
  70
    32
  0
VERTEX
  8
0
  5
20DD
 10
-36.5467
 20
125.769
 30
-2.79005e-14
  70
    32
  0
VERTEX
  8
0
  5
20DE
 10
-36.5470
 20
125.767
 30
-2.79004e-14
  70
    32
  0
VERTEX
  8
0
  5
20DF
 10
-36.5473
 20
125.765
 30
-2.79003e-14
  70
    32
  0
VERTEX
  8
0
  5
20E0
 10
-36.5476
 20
125.762
 30
-2.79003e-14
  70
    32
  0
VERTEX
  8
0
  5
20E1
 10
-36.5480
 20
125.760
 30
-2.79002e-14
  70
    32
  0
VERTEX
  8
0
  5
20E2
 10
-36.5483
 20
125.758
 30
-2.79002e-14
  70
    32
  0
VERTEX
  8
0
  5
20E3
 10
-36.5486
 20
125.755
 30
-2.79001e-14
  70
    32
  0
VERTEX
  8
0
  5
20E4
 10
-36.5489
 20
125.753
 30
-2.79001e-14
  70
    32
  0
VERTEX
  8
0
  5
20E5
 10
-36.5492
 20
125.751
 30
-2.79001e-14
  70
    32
  0
VERTEX
  8
0
  5
20E6
 10
-36.5496
 20
125.748
 30
-2.79000e-14
  70
    32
  0
VERTEX
  8
0
  5
20E7
 10
-36.5499
 20
125.746
 30
-2.79000e-14
  70
    32
  0
VERTEX
  8
0
  5
20E8
 10
-36.5502
 20
125.744
 30
-2.79000e-14
  70
    32
  0
VERTEX
  8
0
  5
20E9
 10
-36.5506
 20
125.742
 30
-2.79000e-14
  70
    32
  0
VERTEX
  8
0
  5
20EA
 10
-36.5509
 20
125.739
 30
-2.79000e-14
  70
    32
  0
VERTEX
  8
0
  5
20EB
 10
-36.5512
 20
125.737
 30
-2.79000e-14
  70
    32
  0
VERTEX
  8
0
  5
20EC
 10
-36.5515
 20
125.735
 30
-2.79000e-14
  70
    32
  0
VERTEX
  8
0
  5
20ED
 10
-36.5519
 20
125.732
 30
-2.79000e-14
  70
    32
  0
VERTEX
  8
0
  5
20EE
 10
-36.5522
 20
125.730
 30
-2.79000e-14
  70
    32
  0
VERTEX
  8
0
  5
20EF
 10
-36.5526
 20
125.728
 30
-2.79000e-14
  70
    32
  0
VERTEX
  8
0
  5
20F0
 10
-36.5529
 20
125.725
 30
-2.79000e-14
  70
    32
  0
VERTEX
  8
0
  5
20F1
 10
-36.5532
 20
125.723
 30
-2.79000e-14
  70
    32
  0
VERTEX
  8
0
  5
20F2
 10
-36.5536
 20
125.721
 30
-2.79000e-14
  70
    32
  0
VERTEX
  8
0
  5
20F3
 10
-36.5539
 20
125.719
 30
-2.79000e-14
  70
    32
  0
VERTEX
  8
0
  5
20F4
 10
-36.5542
 20
125.716
 30
-2.79000e-14
  70
    32
  0
VERTEX
  8
0
  5
20F5
 10
-36.5546
 20
125.714
 30
-2.79000e-14
  70
    32
  0
VERTEX
  8
0
  5
20F6
 10
-36.5549
 20
125.712
 30
-2.79000e-14
  70
    32
  0
VERTEX
  8
0
  5
20F7
 10
-36.5553
 20
125.709
 30
-2.79000e-14
  70
    32
  0
VERTEX
  8
0
  5
20F8
 10
-36.5556
 20
125.707
 30
-2.79000e-14
  70
    32
  0
VERTEX
  8
0
  5
20F9
 10
-36.5560
 20
125.705
 30
-2.79000e-14
  70
    32
  0
VERTEX
  8
0
  5
20FA
 10
-36.5563
 20
125.702
 30
-2.79000e-14
  70
    32
  0
VERTEX
  8
0
  5
20FB
 10
-36.5567
 20
125.700
 30
-2.79000e-14
  70
    32
  0
VERTEX
  8
0
  5
20FC
 10
-36.5570
 20
125.698
 30
-2.79000e-14
  70
    32
  0
VERTEX
  8
0
  5
20FD
 10
-36.5574
 20
125.696
 30
-2.79000e-14
  70
    32
  0
VERTEX
  8
0
  5
20FE
 10
-36.5577
 20
125.693
 30
-2.79000e-14
  70
    32
  0
VERTEX
  8
0
  5
20FF
 10
-36.5581
 20
125.691
 30
-2.79000e-14
  70
    32
  0
VERTEX
  8
0
  5
2100
 10
-36.5584
 20
125.689
 30
-2.79000e-14
  70
    32
  0
VERTEX
  8
0
  5
2101
 10
-36.5588
 20
125.686
 30
-2.79000e-14
  70
    32
  0
VERTEX
  8
0
  5
2102
 10
-36.5591
 20
125.684
 30
-2.79000e-14
  70
    32
  0
VERTEX
  8
0
  5
2103
 10
-36.5595
 20
125.682
 30
-2.79000e-14
  70
    32
  0
VERTEX
  8
0
  5
2104
 10
-36.5598
 20
125.680
 30
-2.79000e-14
  70
    32
  0
VERTEX
  8
0
  5
2105
 10
-36.5602
 20
125.677
 30
-2.79000e-14
  70
    32
  0
VERTEX
  8
0
  5
2106
 10
-36.5605
 20
125.675
 30
-2.79000e-14
  70
    32
  0
VERTEX
  8
0
  5
2107
 10
-36.5609
 20
125.673
 30
-2.79000e-14
  70
    32
  0
VERTEX
  8
0
  5
2108
 10
-36.5613
 20
125.670
 30
-2.79000e-14
  70
    32
  0
VERTEX
  8
0
  5
2109
 10
-36.5616
 20
125.668
 30
-2.79000e-14
  70
    32
  0
VERTEX
  8
0
  5
210A
 10
-36.5620
 20
125.666
 30
-2.79000e-14
  70
    32
  0
VERTEX
  8
0
  5
210B
 10
-36.5624
 20
125.664
 30
-2.79000e-14
  70
    32
  0
VERTEX
  8
0
  5
210C
 10
-36.5627
 20
125.661
 30
-2.79000e-14
  70
    32
  0
VERTEX
  8
0
  5
210D
 10
-36.5631
 20
125.659
 30
-2.79000e-14
  70
    32
  0
VERTEX
  8
0
  5
210E
 10
-36.5635
 20
125.657
 30
-2.79000e-14
  70
    32
  0
VERTEX
  8
0
  5
210F
 10
-36.5638
 20
125.654
 30
-2.79000e-14
  70
    32
  0
VERTEX
  8
0
  5
2110
 10
-36.5642
 20
125.652
 30
-2.79000e-14
  70
    32
  0
VERTEX
  8
0
  5
2111
 10
-36.5646
 20
125.650
 30
-2.79000e-14
  70
    32
  0
VERTEX
  8
0
  5
2112
 10
-36.5649
 20
125.648
 30
-2.79000e-14
  70
    32
  0
VERTEX
  8
0
  5
2113
 10
-36.5653
 20
125.645
 30
-2.79000e-14
  70
    32
  0
VERTEX
  8
0
  5
2114
 10
-36.5657
 20
125.643
 30
-2.79000e-14
  70
    32
  0
VERTEX
  8
0
  5
2115
 10
-36.5660
 20
125.641
 30
-2.79000e-14
  70
    32
  0
VERTEX
  8
0
  5
2116
 10
-36.5664
 20
125.639
 30
-2.79000e-14
  70
    32
  0
VERTEX
  8
0
  5
2117
 10
-36.5668
 20
125.636
 30
-2.79000e-14
  70
    32
  0
VERTEX
  8
0
  5
2118
 10
-36.5672
 20
125.634
 30
-2.79000e-14
  70
    32
  0
VERTEX
  8
0
  5
2119
 10
-36.5676
 20
125.632
 30
-2.79000e-14
  70
    32
  0
VERTEX
  8
0
  5
211A
 10
-36.5679
 20
125.629
 30
-2.79000e-14
  70
    32
  0
VERTEX
  8
0
  5
211B
 10
-36.5683
 20
125.627
 30
-2.79000e-14
  70
    32
  0
VERTEX
  8
0
  5
211C
 10
-36.5687
 20
125.625
 30
-2.79000e-14
  70
    32
  0
VERTEX
  8
0
  5
211D
 10
-36.5691
 20
125.623
 30
-2.79000e-14
  70
    32
  0
VERTEX
  8
0
  5
211E
 10
-36.5695
 20
125.620
 30
-2.79000e-14
  70
    32
  0
VERTEX
  8
0
  5
211F
 10
-36.5698
 20
125.618
 30
-2.79000e-14
  70
    32
  0
VERTEX
  8
0
  5
2120
 10
-36.5702
 20
125.616
 30
-2.79000e-14
  70
    32
  0
VERTEX
  8
0
  5
2121
 10
-36.5706
 20
125.613
 30
-2.79000e-14
  70
    32
  0
VERTEX
  8
0
  5
2122
 10
-36.5710
 20
125.611
 30
-2.79000e-14
  70
    32
  0
VERTEX
  8
0
  5
2123
 10
-36.5714
 20
125.609
 30
-2.79000e-14
  70
    32
  0
VERTEX
  8
0
  5
2124
 10
-36.5718
 20
125.607
 30
-2.79000e-14
  70
    32
  0
VERTEX
  8
0
  5
2125
 10
-36.5722
 20
125.604
 30
-2.79000e-14
  70
    32
  0
VERTEX
  8
0
  5
2126
 10
-36.5726
 20
125.602
 30
-2.79000e-14
  70
    32
  0
VERTEX
  8
0
  5
2127
 10
-36.5729
 20
125.600
 30
-2.79000e-14
  70
    32
  0
VERTEX
  8
0
  5
2128
 10
-36.5733
 20
125.598
 30
-2.79000e-14
  70
    32
  0
VERTEX
  8
0
  5
2129
 10
-36.5737
 20
125.595
 30
-2.79000e-14
  70
    32
  0
VERTEX
  8
0
  5
212A
 10
-36.5741
 20
125.593
 30
-2.79000e-14
  70
    32
  0
VERTEX
  8
0
  5
212B
 10
-36.5745
 20
125.591
 30
-2.79000e-14
  70
    32
  0
VERTEX
  8
0
  5
212C
 10
-36.5749
 20
125.589
 30
-2.79000e-14
  70
    32
  0
VERTEX
  8
0
  5
212D
 10
-36.5753
 20
125.586
 30
-2.79000e-14
  70
    32
  0
VERTEX
  8
0
  5
212E
 10
-36.5757
 20
125.584
 30
-2.79000e-14
  70
    32
  0
VERTEX
  8
0
  5
212F
 10
-36.5761
 20
125.582
 30
-2.79000e-14
  70
    32
  0
VERTEX
  8
0
  5
2130
 10
-36.5765
 20
125.579
 30
-2.79000e-14
  70
    32
  0
VERTEX
  8
0
  5
2131
 10
-36.5769
 20
125.577
 30
-2.79000e-14
  70
    32
  0
VERTEX
  8
0
  5
2132
 10
-36.5773
 20
125.575
 30
-2.79000e-14
  70
    32
  0
VERTEX
  8
0
  5
2133
 10
-36.5777
 20
125.573
 30
-2.79000e-14
  70
    32
  0
VERTEX
  8
0
  5
2134
 10
-36.5781
 20
125.570
 30
-2.79000e-14
  70
    32
  0
VERTEX
  8
0
  5
2135
 10
-36.5785
 20
125.568
 30
-2.79000e-14
  70
    32
  0
VERTEX
  8
0
  5
2136
 10
-36.5789
 20
125.566
 30
-2.79000e-14
  70
    32
  0
VERTEX
  8
0
  5
2137
 10
-36.5793
 20
125.564
 30
-2.79000e-14
  70
    32
  0
VERTEX
  8
0
  5
2138
 10
-36.5798
 20
125.561
 30
-2.79000e-14
  70
    32
  0
VERTEX
  8
0
  5
2139
 10
-36.5802
 20
125.559
 30
-2.79000e-14
  70
    32
  0
VERTEX
  8
0
  5
213A
 10
-36.5806
 20
125.557
 30
-2.79000e-14
  70
    32
  0
SEQEND
  8
0
  5
213B
  0
POLYLINE
  8
0
  5
213C
  62
3
  66
     1
 10
0.000000
 20
0.000000
 30
0.000000
  70
     8
  0
VERTEX
  8
0
  5
213D
 10
36.5806
 20
125.557
 30
-2.79000e-14
  70
    32
  0
VERTEX
  8
0
  5
213E
 10
36.5802
 20
125.559
 30
-2.79000e-14
  70
    32
  0
VERTEX
  8
0
  5
213F
 10
36.5798
 20
125.561
 30
-2.79000e-14
  70
    32
  0
VERTEX
  8
0
  5
2140
 10
36.5793
 20
125.564
 30
-2.79000e-14
  70
    32
  0
VERTEX
  8
0
  5
2141
 10
36.5789
 20
125.566
 30
-2.79000e-14
  70
    32
  0
VERTEX
  8
0
  5
2142
 10
36.5785
 20
125.568
 30
-2.79000e-14
  70
    32
  0
VERTEX
  8
0
  5
2143
 10
36.5781
 20
125.570
 30
-2.79000e-14
  70
    32
  0
VERTEX
  8
0
  5
2144
 10
36.5777
 20
125.573
 30
-2.79000e-14
  70
    32
  0
VERTEX
  8
0
  5
2145
 10
36.5773
 20
125.575
 30
-2.79000e-14
  70
    32
  0
VERTEX
  8
0
  5
2146
 10
36.5769
 20
125.577
 30
-2.79000e-14
  70
    32
  0
VERTEX
  8
0
  5
2147
 10
36.5765
 20
125.579
 30
-2.79000e-14
  70
    32
  0
VERTEX
  8
0
  5
2148
 10
36.5761
 20
125.582
 30
-2.79000e-14
  70
    32
  0
VERTEX
  8
0
  5
2149
 10
36.5757
 20
125.584
 30
-2.79000e-14
  70
    32
  0
VERTEX
  8
0
  5
214A
 10
36.5753
 20
125.586
 30
-2.79000e-14
  70
    32
  0
VERTEX
  8
0
  5
214B
 10
36.5749
 20
125.589
 30
-2.79000e-14
  70
    32
  0
VERTEX
  8
0
  5
214C
 10
36.5745
 20
125.591
 30
-2.79000e-14
  70
    32
  0
VERTEX
  8
0
  5
214D
 10
36.5741
 20
125.593
 30
-2.79000e-14
  70
    32
  0
VERTEX
  8
0
  5
214E
 10
36.5737
 20
125.595
 30
-2.79000e-14
  70
    32
  0
VERTEX
  8
0
  5
214F
 10
36.5733
 20
125.598
 30
-2.79000e-14
  70
    32
  0
VERTEX
  8
0
  5
2150
 10
36.5729
 20
125.600
 30
-2.79000e-14
  70
    32
  0
VERTEX
  8
0
  5
2151
 10
36.5726
 20
125.602
 30
-2.79000e-14
  70
    32
  0
VERTEX
  8
0
  5
2152
 10
36.5722
 20
125.604
 30
-2.79000e-14
  70
    32
  0
VERTEX
  8
0
  5
2153
 10
36.5718
 20
125.607
 30
-2.79000e-14
  70
    32
  0
VERTEX
  8
0
  5
2154
 10
36.5714
 20
125.609
 30
-2.79000e-14
  70
    32
  0
VERTEX
  8
0
  5
2155
 10
36.5710
 20
125.611
 30
-2.79000e-14
  70
    32
  0
VERTEX
  8
0
  5
2156
 10
36.5706
 20
125.613
 30
-2.79000e-14
  70
    32
  0
VERTEX
  8
0
  5
2157
 10
36.5702
 20
125.616
 30
-2.79000e-14
  70
    32
  0
VERTEX
  8
0
  5
2158
 10
36.5698
 20
125.618
 30
-2.79000e-14
  70
    32
  0
VERTEX
  8
0
  5
2159
 10
36.5695
 20
125.620
 30
-2.79000e-14
  70
    32
  0
VERTEX
  8
0
  5
215A
 10
36.5691
 20
125.623
 30
-2.79000e-14
  70
    32
  0
VERTEX
  8
0
  5
215B
 10
36.5687
 20
125.625
 30
-2.79000e-14
  70
    32
  0
VERTEX
  8
0
  5
215C
 10
36.5683
 20
125.627
 30
-2.79000e-14
  70
    32
  0
VERTEX
  8
0
  5
215D
 10
36.5679
 20
125.629
 30
-2.79000e-14
  70
    32
  0
VERTEX
  8
0
  5
215E
 10
36.5676
 20
125.632
 30
-2.79000e-14
  70
    32
  0
VERTEX
  8
0
  5
215F
 10
36.5672
 20
125.634
 30
-2.79000e-14
  70
    32
  0
VERTEX
  8
0
  5
2160
 10
36.5668
 20
125.636
 30
-2.79000e-14
  70
    32
  0
VERTEX
  8
0
  5
2161
 10
36.5664
 20
125.639
 30
-2.79000e-14
  70
    32
  0
VERTEX
  8
0
  5
2162
 10
36.5660
 20
125.641
 30
-2.79000e-14
  70
    32
  0
VERTEX
  8
0
  5
2163
 10
36.5657
 20
125.643
 30
-2.79000e-14
  70
    32
  0
VERTEX
  8
0
  5
2164
 10
36.5653
 20
125.645
 30
-2.79000e-14
  70
    32
  0
VERTEX
  8
0
  5
2165
 10
36.5649
 20
125.648
 30
-2.79000e-14
  70
    32
  0
VERTEX
  8
0
  5
2166
 10
36.5646
 20
125.650
 30
-2.79000e-14
  70
    32
  0
VERTEX
  8
0
  5
2167
 10
36.5642
 20
125.652
 30
-2.79000e-14
  70
    32
  0
VERTEX
  8
0
  5
2168
 10
36.5638
 20
125.654
 30
-2.79000e-14
  70
    32
  0
VERTEX
  8
0
  5
2169
 10
36.5635
 20
125.657
 30
-2.79000e-14
  70
    32
  0
VERTEX
  8
0
  5
216A
 10
36.5631
 20
125.659
 30
-2.79000e-14
  70
    32
  0
VERTEX
  8
0
  5
216B
 10
36.5627
 20
125.661
 30
-2.79000e-14
  70
    32
  0
VERTEX
  8
0
  5
216C
 10
36.5624
 20
125.664
 30
-2.79000e-14
  70
    32
  0
VERTEX
  8
0
  5
216D
 10
36.5620
 20
125.666
 30
-2.79000e-14
  70
    32
  0
VERTEX
  8
0
  5
216E
 10
36.5616
 20
125.668
 30
-2.79000e-14
  70
    32
  0
VERTEX
  8
0
  5
216F
 10
36.5613
 20
125.670
 30
-2.79000e-14
  70
    32
  0
VERTEX
  8
0
  5
2170
 10
36.5609
 20
125.673
 30
-2.79000e-14
  70
    32
  0
VERTEX
  8
0
  5
2171
 10
36.5605
 20
125.675
 30
-2.79000e-14
  70
    32
  0
VERTEX
  8
0
  5
2172
 10
36.5602
 20
125.677
 30
-2.79000e-14
  70
    32
  0
VERTEX
  8
0
  5
2173
 10
36.5598
 20
125.680
 30
-2.79000e-14
  70
    32
  0
VERTEX
  8
0
  5
2174
 10
36.5595
 20
125.682
 30
-2.79000e-14
  70
    32
  0
VERTEX
  8
0
  5
2175
 10
36.5591
 20
125.684
 30
-2.79000e-14
  70
    32
  0
VERTEX
  8
0
  5
2176
 10
36.5588
 20
125.686
 30
-2.79000e-14
  70
    32
  0
VERTEX
  8
0
  5
2177
 10
36.5584
 20
125.689
 30
-2.79000e-14
  70
    32
  0
VERTEX
  8
0
  5
2178
 10
36.5581
 20
125.691
 30
-2.79000e-14
  70
    32
  0
VERTEX
  8
0
  5
2179
 10
36.5577
 20
125.693
 30
-2.79000e-14
  70
    32
  0
VERTEX
  8
0
  5
217A
 10
36.5574
 20
125.696
 30
-2.79000e-14
  70
    32
  0
VERTEX
  8
0
  5
217B
 10
36.5570
 20
125.698
 30
-2.79000e-14
  70
    32
  0
VERTEX
  8
0
  5
217C
 10
36.5567
 20
125.700
 30
-2.79000e-14
  70
    32
  0
VERTEX
  8
0
  5
217D
 10
36.5563
 20
125.703
 30
-2.79000e-14
  70
    32
  0
VERTEX
  8
0
  5
217E
 10
36.5560
 20
125.705
 30
-2.79000e-14
  70
    32
  0
VERTEX
  8
0
  5
217F
 10
36.5556
 20
125.707
 30
-2.79000e-14
  70
    32
  0
VERTEX
  8
0
  5
2180
 10
36.5553
 20
125.709
 30
-2.79000e-14
  70
    32
  0
VERTEX
  8
0
  5
2181
 10
36.5549
 20
125.712
 30
-2.79000e-14
  70
    32
  0
VERTEX
  8
0
  5
2182
 10
36.5546
 20
125.714
 30
-2.79000e-14
  70
    32
  0
VERTEX
  8
0
  5
2183
 10
36.5542
 20
125.716
 30
-2.79000e-14
  70
    32
  0
VERTEX
  8
0
  5
2184
 10
36.5539
 20
125.719
 30
-2.79000e-14
  70
    32
  0
VERTEX
  8
0
  5
2185
 10
36.5536
 20
125.721
 30
-2.79000e-14
  70
    32
  0
VERTEX
  8
0
  5
2186
 10
36.5532
 20
125.723
 30
-2.79000e-14
  70
    32
  0
VERTEX
  8
0
  5
2187
 10
36.5529
 20
125.725
 30
-2.79000e-14
  70
    32
  0
VERTEX
  8
0
  5
2188
 10
36.5526
 20
125.728
 30
-2.79000e-14
  70
    32
  0
VERTEX
  8
0
  5
2189
 10
36.5522
 20
125.730
 30
-2.79000e-14
  70
    32
  0
VERTEX
  8
0
  5
218A
 10
36.5519
 20
125.732
 30
-2.79000e-14
  70
    32
  0
VERTEX
  8
0
  5
218B
 10
36.5515
 20
125.735
 30
-2.79000e-14
  70
    32
  0
VERTEX
  8
0
  5
218C
 10
36.5512
 20
125.737
 30
-2.79000e-14
  70
    32
  0
VERTEX
  8
0
  5
218D
 10
36.5509
 20
125.739
 30
-2.79000e-14
  70
    32
  0
VERTEX
  8
0
  5
218E
 10
36.5506
 20
125.742
 30
-2.79000e-14
  70
    32
  0
VERTEX
  8
0
  5
218F
 10
36.5502
 20
125.744
 30
-2.79000e-14
  70
    32
  0
VERTEX
  8
0
  5
2190
 10
36.5499
 20
125.746
 30
-2.79000e-14
  70
    32
  0
VERTEX
  8
0
  5
2191
 10
36.5496
 20
125.748
 30
-2.79000e-14
  70
    32
  0
VERTEX
  8
0
  5
2192
 10
36.5492
 20
125.751
 30
-2.79001e-14
  70
    32
  0
VERTEX
  8
0
  5
2193
 10
36.5489
 20
125.753
 30
-2.79001e-14
  70
    32
  0
VERTEX
  8
0
  5
2194
 10
36.5486
 20
125.755
 30
-2.79001e-14
  70
    32
  0
VERTEX
  8
0
  5
2195
 10
36.5483
 20
125.758
 30
-2.79002e-14
  70
    32
  0
VERTEX
  8
0
  5
2196
 10
36.5479
 20
125.760
 30
-2.79002e-14
  70
    32
  0
VERTEX
  8
0
  5
2197
 10
36.5476
 20
125.762
 30
-2.79003e-14
  70
    32
  0
VERTEX
  8
0
  5
2198
 10
36.5473
 20
125.765
 30
-2.79003e-14
  70
    32
  0
VERTEX
  8
0
  5
2199
 10
36.5470
 20
125.767
 30
-2.79004e-14
  70
    32
  0
VERTEX
  8
0
  5
219A
 10
36.5467
 20
125.769
 30
-2.79005e-14
  70
    32
  0
VERTEX
  8
0
  5
219B
 10
36.5464
 20
125.771
 30
-2.79006e-14
  70
    32
  0
VERTEX
  8
0
  5
219C
 10
36.5460
 20
125.774
 30
-2.79007e-14
  70
    32
  0
VERTEX
  8
0
  5
219D
 10
36.5457
 20
125.776
 30
-2.79008e-14
  70
    32
  0
VERTEX
  8
0
  5
219E
 10
36.5454
 20
125.778
 30
-2.79009e-14
  70
    32
  0
VERTEX
  8
0
  5
219F
 10
36.5451
 20
125.781
 30
-2.79011e-14
  70
    32
  0
VERTEX
  8
0
  5
21A0
 10
36.5448
 20
125.783
 30
-2.79013e-14
  70
    32
  0
VERTEX
  8
0
  5
21A1
 10
36.5445
 20
125.785
 30
-2.79014e-14
  70
    32
  0
VERTEX
  8
0
  5
21A2
 10
36.5442
 20
125.788
 30
-2.79016e-14
  70
    32
  0
VERTEX
  8
0
  5
21A3
 10
36.5439
 20
125.790
 30
-2.79018e-14
  70
    32
  0
VERTEX
  8
0
  5
21A4
 10
36.5435
 20
125.792
 30
-2.79020e-14
  70
    32
  0
VERTEX
  8
0
  5
21A5
 10
36.5432
 20
125.795
 30
-2.79023e-14
  70
    32
  0
VERTEX
  8
0
  5
21A6
 10
36.5429
 20
125.797
 30
-2.79025e-14
  70
    32
  0
VERTEX
  8
0
  5
21A7
 10
36.5426
 20
125.799
 30
-2.79028e-14
  70
    32
  0
VERTEX
  8
0
  5
21A8
 10
36.5423
 20
125.802
 30
-2.79031e-14
  70
    32
  0
VERTEX
  8
0
  5
21A9
 10
36.5420
 20
125.804
 30
-2.79034e-14
  70
    32
  0
VERTEX
  8
0
  5
21AA
 10
36.5417
 20
125.806
 30
-2.79038e-14
  70
    32
  0
VERTEX
  8
0
  5
21AB
 10
36.5414
 20
125.808
 30
-2.79041e-14
  70
    32
  0
VERTEX
  8
0
  5
21AC
 10
36.5411
 20
125.811
 30
-2.79045e-14
  70
    32
  0
VERTEX
  8
0
  5
21AD
 10
36.5408
 20
125.813
 30
-2.79049e-14
  70
    32
  0
VERTEX
  8
0
  5
21AE
 10
36.5405
 20
125.815
 30
-2.79054e-14
  70
    32
  0
VERTEX
  8
0
  5
21AF
 10
36.5402
 20
125.818
 30
-2.79058e-14
  70
    32
  0
VERTEX
  8
0
  5
21B0
 10
36.5399
 20
125.820
 30
-2.79063e-14
  70
    32
  0
VERTEX
  8
0
  5
21B1
 10
36.5396
 20
125.822
 30
-2.79068e-14
  70
    32
  0
VERTEX
  8
0
  5
21B2
 10
36.5394
 20
125.825
 30
-2.79073e-14
  70
    32
  0
VERTEX
  8
0
  5
21B3
 10
36.5391
 20
125.827
 30
-2.79079e-14
  70
    32
  0
VERTEX
  8
0
  5
21B4
 10
36.5388
 20
125.829
 30
-2.79085e-14
  70
    32
  0
VERTEX
  8
0
  5
21B5
 10
36.5385
 20
125.832
 30
-2.79091e-14
  70
    32
  0
VERTEX
  8
0
  5
21B6
 10
36.5382
 20
125.834
 30
-2.79097e-14
  70
    32
  0
VERTEX
  8
0
  5
21B7
 10
36.5379
 20
125.836
 30
-2.79104e-14
  70
    32
  0
VERTEX
  8
0
  5
21B8
 10
36.5376
 20
125.839
 30
-2.79111e-14
  70
    32
  0
VERTEX
  8
0
  5
21B9
 10
36.5373
 20
125.841
 30
-2.79118e-14
  70
    32
  0
VERTEX
  8
0
  5
21BA
 10
36.5370
 20
125.843
 30
-2.79126e-14
  70
    32
  0
VERTEX
  8
0
  5
21BB
 10
36.5368
 20
125.846
 30
-2.79134e-14
  70
    32
  0
VERTEX
  8
0
  5
21BC
 10
36.5365
 20
125.848
 30
-2.79142e-14
  70
    32
  0
VERTEX
  8
0
  5
21BD
 10
36.5362
 20
125.850
 30
-2.79151e-14
  70
    32
  0
VERTEX
  8
0
  5
21BE
 10
36.5359
 20
125.852
 30
-2.79160e-14
  70
    32
  0
VERTEX
  8
0
  5
21BF
 10
36.5356
 20
125.855
 30
-2.79169e-14
  70
    32
  0
VERTEX
  8
0
  5
21C0
 10
36.5354
 20
125.857
 30
-2.79179e-14
  70
    32
  0
VERTEX
  8
0
  5
21C1
 10
36.5351
 20
125.859
 30
-2.79189e-14
  70
    32
  0
VERTEX
  8
0
  5
21C2
 10
36.5348
 20
125.862
 30
-2.79200e-14
  70
    32
  0
VERTEX
  8
0
  5
21C3
 10
36.5345
 20
125.864
 30
-2.79210e-14
  70
    32
  0
VERTEX
  8
0
  5
21C4
 10
36.5343
 20
125.866
 30
-2.79222e-14
  70
    32
  0
VERTEX
  8
0
  5
21C5
 10
36.5340
 20
125.869
 30
-2.79233e-14
  70
    32
  0
VERTEX
  8
0
  5
21C6
 10
36.5337
 20
125.871
 30
-2.79245e-14
  70
    32
  0
VERTEX
  8
0
  5
21C7
 10
36.5334
 20
125.873
 30
-2.79258e-14
  70
    32
  0
VERTEX
  8
0
  5
21C8
 10
36.5332
 20
125.876
 30
-2.79270e-14
  70
    32
  0
VERTEX
  8
0
  5
21C9
 10
36.5329
 20
125.878
 30
-2.79283e-14
  70
    32
  0
VERTEX
  8
0
  5
21CA
 10
36.5326
 20
125.880
 30
-2.79297e-14
  70
    32
  0
VERTEX
  8
0
  5
21CB
 10
36.5324
 20
125.883
 30
-2.79311e-14
  70
    32
  0
VERTEX
  8
0
  5
21CC
 10
36.5321
 20
125.885
 30
-2.79326e-14
  70
    32
  0
VERTEX
  8
0
  5
21CD
 10
36.5318
 20
125.887
 30
-2.79341e-14
  70
    32
  0
VERTEX
  8
0
  5
21CE
 10
36.5316
 20
125.890
 30
-2.79356e-14
  70
    32
  0
VERTEX
  8
0
  5
21CF
 10
36.5313
 20
125.892
 30
-2.79372e-14
  70
    32
  0
VERTEX
  8
0
  5
21D0
 10
36.5311
 20
125.894
 30
-2.79388e-14
  70
    32
  0
VERTEX
  8
0
  5
21D1
 10
36.5308
 20
125.897
 30
-2.79405e-14
  70
    32
  0
VERTEX
  8
0
  5
21D2
 10
36.5305
 20
125.899
 30
-2.79422e-14
  70
    32
  0
VERTEX
  8
0
  5
21D3
 10
36.5303
 20
125.901
 30
-2.79440e-14
  70
    32
  0
VERTEX
  8
0
  5
21D4
 10
36.5300
 20
125.904
 30
-2.79458e-14
  70
    32
  0
VERTEX
  8
0
  5
21D5
 10
36.5298
 20
125.906
 30
-2.79477e-14
  70
    32
  0
VERTEX
  8
0
  5
21D6
 10
36.5295
 20
125.908
 30
-2.79496e-14
  70
    32
  0
VERTEX
  8
0
  5
21D7
 10
36.5293
 20
125.911
 30
-2.79516e-14
  70
    32
  0
VERTEX
  8
0
  5
21D8
 10
36.5290
 20
125.913
 30
-2.79534e-14
  70
    32
  0
VERTEX
  8
0
  5
21D9
 10
36.5287
 20
125.915
 30
-2.79553e-14
  70
    32
  0
VERTEX
  8
0
  5
21DA
 10
36.5285
 20
125.918
 30
-2.79571e-14
  70
    32
  0
VERTEX
  8
0
  5
21DB
 10
36.5282
 20
125.920
 30
-2.79588e-14
  70
    32
  0
VERTEX
  8
0
  5
21DC
 10
36.5280
 20
125.922
 30
-2.79605e-14
  70
    32
  0
VERTEX
  8
0
  5
21DD
 10
36.5278
 20
125.925
 30
-2.79622e-14
  70
    32
  0
VERTEX
  8
0
  5
21DE
 10
36.5275
 20
125.927
 30
-2.79638e-14
  70
    32
  0
VERTEX
  8
0
  5
21DF
 10
36.5273
 20
125.929
 30
-2.79653e-14
  70
    32
  0
VERTEX
  8
0
  5
21E0
 10
36.5270
 20
125.932
 30
-2.79668e-14
  70
    32
  0
VERTEX
  8
0
  5
21E1
 10
36.5268
 20
125.934
 30
-2.79683e-14
  70
    32
  0
VERTEX
  8
0
  5
21E2
 10
36.5265
 20
125.936
 30
-2.79697e-14
  70
    32
  0
VERTEX
  8
0
  5
21E3
 10
36.5263
 20
125.939
 30
-2.79711e-14
  70
    32
  0
VERTEX
  8
0
  5
21E4
 10
36.5261
 20
125.941
 30
-2.79724e-14
  70
    32
  0
VERTEX
  8
0
  5
21E5
 10
36.5258
 20
125.943
 30
-2.79737e-14
  70
    32
  0
VERTEX
  8
0
  5
21E6
 10
36.5256
 20
125.946
 30
-2.79750e-14
  70
    32
  0
VERTEX
  8
0
  5
21E7
 10
36.5253
 20
125.948
 30
-2.79762e-14
  70
    32
  0
VERTEX
  8
0
  5
21E8
 10
36.5251
 20
125.950
 30
-2.79774e-14
  70
    32
  0
VERTEX
  8
0
  5
21E9
 10
36.5249
 20
125.953
 30
-2.79785e-14
  70
    32
  0
VERTEX
  8
0
  5
21EA
 10
36.5246
 20
125.955
 30
-2.79796e-14
  70
    32
  0
VERTEX
  8
0
  5
21EB
 10
36.5244
 20
125.957
 30
-2.79807e-14
  70
    32
  0
VERTEX
  8
0
  5
21EC
 10
36.5242
 20
125.960
 30
-2.79817e-14
  70
    32
  0
VERTEX
  8
0
  5
21ED
 10
36.5239
 20
125.962
 30
-2.79827e-14
  70
    32
  0
VERTEX
  8
0
  5
21EE
 10
36.5237
 20
125.964
 30
-2.79836e-14
  70
    32
  0
VERTEX
  8
0
  5
21EF
 10
36.5235
 20
125.967
 30
-2.79845e-14
  70
    32
  0
VERTEX
  8
0
  5
21F0
 10
36.5233
 20
125.969
 30
-2.79854e-14
  70
    32
  0
VERTEX
  8
0
  5
21F1
 10
36.5230
 20
125.971
 30
-2.79863e-14
  70
    32
  0
VERTEX
  8
0
  5
21F2
 10
36.5228
 20
125.974
 30
-2.79871e-14
  70
    32
  0
VERTEX
  8
0
  5
21F3
 10
36.5226
 20
125.976
 30
-2.79879e-14
  70
    32
  0
VERTEX
  8
0
  5
21F4
 10
36.5224
 20
125.978
 30
-2.79886e-14
  70
    32
  0
VERTEX
  8
0
  5
21F5
 10
36.5221
 20
125.981
 30
-2.79893e-14
  70
    32
  0
VERTEX
  8
0
  5
21F6
 10
36.5219
 20
125.983
 30
-2.79900e-14
  70
    32
  0
VERTEX
  8
0
  5
21F7
 10
36.5217
 20
125.985
 30
-2.79907e-14
  70
    32
  0
VERTEX
  8
0
  5
21F8
 10
36.5215
 20
125.988
 30
-2.79913e-14
  70
    32
  0
VERTEX
  8
0
  5
21F9
 10
36.5213
 20
125.990
 30
-2.79919e-14
  70
    32
  0
VERTEX
  8
0
  5
21FA
 10
36.5210
 20
125.992
 30
-2.79924e-14
  70
    32
  0
VERTEX
  8
0
  5
21FB
 10
36.5208
 20
125.995
 30
-2.79930e-14
  70
    32
  0
VERTEX
  8
0
  5
21FC
 10
36.5206
 20
125.997
 30
-2.79935e-14
  70
    32
  0
VERTEX
  8
0
  5
21FD
 10
36.5204
 20
125.999
 30
-2.79940e-14
  70
    32
  0
VERTEX
  8
0
  5
21FE
 10
36.5202
 20
126.002
 30
-2.79945e-14
  70
    32
  0
VERTEX
  8
0
  5
21FF
 10
36.5200
 20
126.004
 30
-2.79949e-14
  70
    32
  0
VERTEX
  8
0
  5
2200
 10
36.5198
 20
126.006
 30
-2.79953e-14
  70
    32
  0
VERTEX
  8
0
  5
2201
 10
36.5196
 20
126.009
 30
-2.79957e-14
  70
    32
  0
VERTEX
  8
0
  5
2202
 10
36.5194
 20
126.011
 30
-2.79961e-14
  70
    32
  0
VERTEX
  8
0
  5
2203
 10
36.5192
 20
126.013
 30
-2.79964e-14
  70
    32
  0
VERTEX
  8
0
  5
2204
 10
36.5189
 20
126.016
 30
-2.79967e-14
  70
    32
  0
VERTEX
  8
0
  5
2205
 10
36.5187
 20
126.018
 30
-2.79971e-14
  70
    32
  0
VERTEX
  8
0
  5
2206
 10
36.5185
 20
126.020
 30
-2.79973e-14
  70
    32
  0
VERTEX
  8
0
  5
2207
 10
36.5183
 20
126.023
 30
-2.79976e-14
  70
    32
  0
VERTEX
  8
0
  5
2208
 10
36.5181
 20
126.025
 30
-2.79979e-14
  70
    32
  0
VERTEX
  8
0
  5
2209
 10
36.5179
 20
126.028
 30
-2.79981e-14
  70
    32
  0
VERTEX
  8
0
  5
220A
 10
36.5177
 20
126.030
 30
-2.79983e-14
  70
    32
  0
VERTEX
  8
0
  5
220B
 10
36.5175
 20
126.032
 30
-2.79985e-14
  70
    32
  0
VERTEX
  8
0
  5
220C
 10
36.5173
 20
126.035
 30
-2.79987e-14
  70
    32
  0
VERTEX
  8
0
  5
220D
 10
36.5171
 20
126.037
 30
-2.79988e-14
  70
    32
  0
VERTEX
  8
0
  5
220E
 10
36.5170
 20
126.039
 30
-2.79990e-14
  70
    32
  0
VERTEX
  8
0
  5
220F
 10
36.5168
 20
126.042
 30
-2.79991e-14
  70
    32
  0
VERTEX
  8
0
  5
2210
 10
36.5166
 20
126.044
 30
-2.79993e-14
  70
    32
  0
VERTEX
  8
0
  5
2211
 10
36.5164
 20
126.046
 30
-2.79994e-14
  70
    32
  0
VERTEX
  8
0
  5
2212
 10
36.5162
 20
126.049
 30
-2.79995e-14
  70
    32
  0
VERTEX
  8
0
  5
2213
 10
36.5160
 20
126.051
 30
-2.79996e-14
  70
    32
  0
VERTEX
  8
0
  5
2214
 10
36.5158
 20
126.053
 30
-2.79996e-14
  70
    32
  0
VERTEX
  8
0
  5
2215
 10
36.5156
 20
126.056
 30
-2.79997e-14
  70
    32
  0
VERTEX
  8
0
  5
2216
 10
36.5154
 20
126.058
 30
-2.79998e-14
  70
    32
  0
VERTEX
  8
0
  5
2217
 10
36.5153
 20
126.060
 30
-2.79998e-14
  70
    32
  0
VERTEX
  8
0
  5
2218
 10
36.5151
 20
126.063
 30
-2.79999e-14
  70
    32
  0
VERTEX
  8
0
  5
2219
 10
36.5149
 20
126.065
 30
-2.79999e-14
  70
    32
  0
VERTEX
  8
0
  5
221A
 10
36.5147
 20
126.067
 30
-2.79999e-14
  70
    32
  0
VERTEX
  8
0
  5
221B
 10
36.5145
 20
126.070
 30
-2.79999e-14
  70
    32
  0
VERTEX
  8
0
  5
221C
 10
36.5143
 20
126.072
 30
-2.80000e-14
  70
    32
  0
VERTEX
  8
0
  5
221D
 10
36.5142
 20
126.074
 30
-2.80000e-14
  70
    32
  0
VERTEX
  8
0
  5
221E
 10
36.5140
 20
126.077
 30
-2.80000e-14
  70
    32
  0
VERTEX
  8
0
  5
221F
 10
36.5138
 20
126.079
 30
-2.80000e-14
  70
    32
  0
VERTEX
  8
0
  5
2220
 10
36.5136
 20
126.082
 30
-2.80000e-14
  70
    32
  0
VERTEX
  8
0
  5
2221
 10
36.5135
 20
126.084
 30
-2.80000e-14
  70
    32
  0
VERTEX
  8
0
  5
2222
 10
36.5133
 20
126.086
 30
-2.80000e-14
  70
    32
  0
VERTEX
  8
0
  5
2223
 10
36.5131
 20
126.089
 30
-2.80000e-14
  70
    32
  0
VERTEX
  8
0
  5
2224
 10
36.5130
 20
126.091
 30
-2.80000e-14
  70
    32
  0
VERTEX
  8
0
  5
2225
 10
36.5128
 20
126.093
 30
-2.80000e-14
  70
    32
  0
VERTEX
  8
0
  5
2226
 10
36.5126
 20
126.096
 30
-2.80000e-14
  70
    32
  0
VERTEX
  8
0
  5
2227
 10
36.5124
 20
126.098
 30
-2.80000e-14
  70
    32
  0
VERTEX
  8
0
  5
2228
 10
36.5123
 20
126.100
 30
-2.80000e-14
  70
    32
  0
VERTEX
  8
0
  5
2229
 10
36.5121
 20
126.103
 30
-2.80000e-14
  70
    32
  0
VERTEX
  8
0
  5
222A
 10
36.5120
 20
126.105
 30
-2.80000e-14
  70
    32
  0
VERTEX
  8
0
  5
222B
 10
36.5118
 20
126.107
 30
-2.80001e-14
  70
    32
  0
VERTEX
  8
0
  5
222C
 10
36.5116
 20
126.110
 30
-2.80001e-14
  70
    32
  0
VERTEX
  8
0
  5
222D
 10
36.5115
 20
126.112
 30
-2.80001e-14
  70
    32
  0
VERTEX
  8
0
  5
222E
 10
36.5113
 20
126.114
 30
-2.80002e-14
  70
    32
  0
VERTEX
  8
0
  5
222F
 10
36.5112
 20
126.117
 30
-2.80002e-14
  70
    32
  0
VERTEX
  8
0
  5
2230
 10
36.5110
 20
126.119
 30
-2.80003e-14
  70
    32
  0
VERTEX
  8
0
  5
2231
 10
36.5108
 20
126.122
 30
-2.80003e-14
  70
    32
  0
VERTEX
  8
0
  5
2232
 10
36.5107
 20
126.124
 30
-2.80004e-14
  70
    32
  0
VERTEX
  8
0
  5
2233
 10
36.5105
 20
126.126
 30
-2.80005e-14
  70
    32
  0
VERTEX
  8
0
  5
2234
 10
36.5104
 20
126.129
 30
-2.80006e-14
  70
    32
  0
VERTEX
  8
0
  5
2235
 10
36.5102
 20
126.131
 30
-2.80007e-14
  70
    32
  0
VERTEX
  8
0
  5
2236
 10
36.5101
 20
126.133
 30
-2.80008e-14
  70
    32
  0
VERTEX
  8
0
  5
2237
 10
36.5099
 20
126.136
 30
-2.80009e-14
  70
    32
  0
VERTEX
  8
0
  5
2238
 10
36.5098
 20
126.138
 30
-2.80011e-14
  70
    32
  0
VERTEX
  8
0
  5
2239
 10
36.5096
 20
126.140
 30
-2.80012e-14
  70
    32
  0
VERTEX
  8
0
  5
223A
 10
36.5095
 20
126.143
 30
-2.80014e-14
  70
    32
  0
VERTEX
  8
0
  5
223B
 10
36.5093
 20
126.145
 30
-2.80016e-14
  70
    32
  0
VERTEX
  8
0
  5
223C
 10
36.5092
 20
126.147
 30
-2.80018e-14
  70
    32
  0
VERTEX
  8
0
  5
223D
 10
36.5091
 20
126.150
 30
-2.80020e-14
  70
    32
  0
VERTEX
  8
0
  5
223E
 10
36.5089
 20
126.152
 30
-2.80022e-14
  70
    32
  0
VERTEX
  8
0
  5
223F
 10
36.5088
 20
126.155
 30
-2.80025e-14
  70
    32
  0
VERTEX
  8
0
  5
2240
 10
36.5086
 20
126.157
 30
-2.80028e-14
  70
    32
  0
VERTEX
  8
0
  5
2241
 10
36.5085
 20
126.159
 30
-2.80031e-14
  70
    32
  0
VERTEX
  8
0
  5
2242
 10
36.5084
 20
126.162
 30
-2.80034e-14
  70
    32
  0
VERTEX
  8
0
  5
2243
 10
36.5082
 20
126.164
 30
-2.80037e-14
  70
    32
  0
VERTEX
  8
0
  5
2244
 10
36.5081
 20
126.166
 30
-2.80041e-14
  70
    32
  0
VERTEX
  8
0
  5
2245
 10
36.5080
 20
126.169
 30
-2.80045e-14
  70
    32
  0
VERTEX
  8
0
  5
2246
 10
36.5078
 20
126.171
 30
-2.80049e-14
  70
    32
  0
VERTEX
  8
0
  5
2247
 10
36.5077
 20
126.173
 30
-2.80053e-14
  70
    32
  0
VERTEX
  8
0
  5
2248
 10
36.5076
 20
126.176
 30
-2.80057e-14
  70
    32
  0
VERTEX
  8
0
  5
2249
 10
36.5074
 20
126.178
 30
-2.80062e-14
  70
    32
  0
VERTEX
  8
0
  5
224A
 10
36.5073
 20
126.181
 30
-2.80067e-14
  70
    32
  0
VERTEX
  8
0
  5
224B
 10
36.5072
 20
126.183
 30
-2.80072e-14
  70
    32
  0
VERTEX
  8
0
  5
224C
 10
36.5070
 20
126.185
 30
-2.80078e-14
  70
    32
  0
VERTEX
  8
0
  5
224D
 10
36.5069
 20
126.188
 30
-2.80084e-14
  70
    32
  0
VERTEX
  8
0
  5
224E
 10
36.5068
 20
126.190
 30
-2.80090e-14
  70
    32
  0
VERTEX
  8
0
  5
224F
 10
36.5067
 20
126.192
 30
-2.80096e-14
  70
    32
  0
VERTEX
  8
0
  5
2250
 10
36.5066
 20
126.195
 30
-2.80103e-14
  70
    32
  0
VERTEX
  8
0
  5
2251
 10
36.5064
 20
126.197
 30
-2.80110e-14
  70
    32
  0
VERTEX
  8
0
  5
2252
 10
36.5063
 20
126.199
 30
-2.80117e-14
  70
    32
  0
VERTEX
  8
0
  5
2253
 10
36.5062
 20
126.202
 30
-2.80125e-14
  70
    32
  0
VERTEX
  8
0
  5
2254
 10
36.5061
 20
126.204
 30
-2.80132e-14
  70
    32
  0
VERTEX
  8
0
  5
2255
 10
36.5060
 20
126.206
 30
-2.80141e-14
  70
    32
  0
VERTEX
  8
0
  5
2256
 10
36.5058
 20
126.209
 30
-2.80149e-14
  70
    32
  0
VERTEX
  8
0
  5
2257
 10
36.5057
 20
126.211
 30
-2.80158e-14
  70
    32
  0
VERTEX
  8
0
  5
2258
 10
36.5056
 20
126.214
 30
-2.80168e-14
  70
    32
  0
VERTEX
  8
0
  5
2259
 10
36.5055
 20
126.216
 30
-2.80177e-14
  70
    32
  0
VERTEX
  8
0
  5
225A
 10
36.5054
 20
126.218
 30
-2.80187e-14
  70
    32
  0
VERTEX
  8
0
  5
225B
 10
36.5053
 20
126.221
 30
-2.80197e-14
  70
    32
  0
VERTEX
  8
0
  5
225C
 10
36.5052
 20
126.223
 30
-2.80208e-14
  70
    32
  0
VERTEX
  8
0
  5
225D
 10
36.5051
 20
126.225
 30
-2.80219e-14
  70
    32
  0
VERTEX
  8
0
  5
225E
 10
36.5050
 20
126.228
 30
-2.80231e-14
  70
    32
  0
VERTEX
  8
0
  5
225F
 10
36.5049
 20
126.230
 30
-2.80243e-14
  70
    32
  0
VERTEX
  8
0
  5
2260
 10
36.5048
 20
126.232
 30
-2.80255e-14
  70
    32
  0
VERTEX
  8
0
  5
2261
 10
36.5047
 20
126.235
 30
-2.80268e-14
  70
    32
  0
VERTEX
  8
0
  5
2262
 10
36.5046
 20
126.237
 30
-2.80281e-14
  70
    32
  0
VERTEX
  8
0
  5
2263
 10
36.5045
 20
126.240
 30
-2.80294e-14
  70
    32
  0
VERTEX
  8
0
  5
2264
 10
36.5044
 20
126.242
 30
-2.80308e-14
  70
    32
  0
VERTEX
  8
0
  5
2265
 10
36.5043
 20
126.244
 30
-2.80323e-14
  70
    32
  0
VERTEX
  8
0
  5
2266
 10
36.5042
 20
126.247
 30
-2.80338e-14
  70
    32
  0
VERTEX
  8
0
  5
2267
 10
36.5041
 20
126.249
 30
-2.80353e-14
  70
    32
  0
VERTEX
  8
0
  5
2268
 10
36.5040
 20
126.251
 30
-2.80369e-14
  70
    32
  0
VERTEX
  8
0
  5
2269
 10
36.5039
 20
126.254
 30
-2.80385e-14
  70
    32
  0
VERTEX
  8
0
  5
226A
 10
36.5038
 20
126.256
 30
-2.80402e-14
  70
    32
  0
VERTEX
  8
0
  5
226B
 10
36.5037
 20
126.259
 30
-2.80419e-14
  70
    32
  0
VERTEX
  8
0
  5
226C
 10
36.5036
 20
126.261
 30
-2.80436e-14
  70
    32
  0
VERTEX
  8
0
  5
226D
 10
36.5035
 20
126.263
 30
-2.80454e-14
  70
    32
  0
VERTEX
  8
0
  5
226E
 10
36.5034
 20
126.266
 30
-2.80473e-14
  70
    32
  0
VERTEX
  8
0
  5
226F
 10
36.5033
 20
126.268
 30
-2.80492e-14
  70
    32
  0
VERTEX
  8
0
  5
2270
 10
36.5032
 20
126.270
 30
-2.80512e-14
  70
    32
  0
VERTEX
  8
0
  5
2271
 10
36.5032
 20
126.273
 30
-2.80531e-14
  70
    32
  0
VERTEX
  8
0
  5
2272
 10
36.5031
 20
126.275
 30
-2.80549e-14
  70
    32
  0
VERTEX
  8
0
  5
2273
 10
36.5030
 20
126.277
 30
-2.80567e-14
  70
    32
  0
VERTEX
  8
0
  5
2274
 10
36.5029
 20
126.280
 30
-2.80585e-14
  70
    32
  0
VERTEX
  8
0
  5
2275
 10
36.5028
 20
126.282
 30
-2.80602e-14
  70
    32
  0
VERTEX
  8
0
  5
2276
 10
36.5028
 20
126.285
 30
-2.80618e-14
  70
    32
  0
VERTEX
  8
0
  5
2277
 10
36.5027
 20
126.287
 30
-2.80635e-14
  70
    32
  0
VERTEX
  8
0
  5
2278
 10
36.5026
 20
126.289
 30
-2.80650e-14
  70
    32
  0
VERTEX
  8
0
  5
2279
 10
36.5025
 20
126.292
 30
-2.80665e-14
  70
    32
  0
VERTEX
  8
0
  5
227A
 10
36.5024
 20
126.294
 30
-2.80680e-14
  70
    32
  0
VERTEX
  8
0
  5
227B
 10
36.5024
 20
126.296
 30
-2.80694e-14
  70
    32
  0
VERTEX
  8
0
  5
227C
 10
36.5023
 20
126.299
 30
-2.80708e-14
  70
    32
  0
VERTEX
  8
0
  5
227D
 10
36.5022
 20
126.301
 30
-2.80722e-14
  70
    32
  0
VERTEX
  8
0
  5
227E
 10
36.5022
 20
126.303
 30
-2.80735e-14
  70
    32
  0
VERTEX
  8
0
  5
227F
 10
36.5021
 20
126.306
 30
-2.80747e-14
  70
    32
  0
VERTEX
  8
0
  5
2280
 10
36.5020
 20
126.308
 30
-2.80760e-14
  70
    32
  0
VERTEX
  8
0
  5
2281
 10
36.5020
 20
126.311
 30
-2.80772e-14
  70
    32
  0
VERTEX
  8
0
  5
2282
 10
36.5019
 20
126.313
 30
-2.80783e-14
  70
    32
  0
VERTEX
  8
0
  5
2283
 10
36.5018
 20
126.315
 30
-2.80794e-14
  70
    32
  0
VERTEX
  8
0
  5
2284
 10
36.5018
 20
126.318
 30
-2.80805e-14
  70
    32
  0
VERTEX
  8
0
  5
2285
 10
36.5017
 20
126.320
 30
-2.80815e-14
  70
    32
  0
VERTEX
  8
0
  5
2286
 10
36.5016
 20
126.322
 30
-2.80825e-14
  70
    32
  0
VERTEX
  8
0
  5
2287
 10
36.5016
 20
126.325
 30
-2.80834e-14
  70
    32
  0
VERTEX
  8
0
  5
2288
 10
36.5015
 20
126.327
 30
-2.80844e-14
  70
    32
  0
VERTEX
  8
0
  5
2289
 10
36.5015
 20
126.330
 30
-2.80852e-14
  70
    32
  0
VERTEX
  8
0
  5
228A
 10
36.5014
 20
126.332
 30
-2.80861e-14
  70
    32
  0
VERTEX
  8
0
  5
228B
 10
36.5014
 20
126.334
 30
-2.80869e-14
  70
    32
  0
VERTEX
  8
0
  5
228C
 10
36.5013
 20
126.337
 30
-2.80877e-14
  70
    32
  0
VERTEX
  8
0
  5
228D
 10
36.5012
 20
126.339
 30
-2.80885e-14
  70
    32
  0
VERTEX
  8
0
  5
228E
 10
36.5012
 20
126.341
 30
-2.80892e-14
  70
    32
  0
VERTEX
  8
0
  5
228F
 10
36.5011
 20
126.344
 30
-2.80899e-14
  70
    32
  0
VERTEX
  8
0
  5
2290
 10
36.5011
 20
126.346
 30
-2.80905e-14
  70
    32
  0
VERTEX
  8
0
  5
2291
 10
36.5010
 20
126.348
 30
-2.80912e-14
  70
    32
  0
VERTEX
  8
0
  5
2292
 10
36.5010
 20
126.351
 30
-2.80918e-14
  70
    32
  0
VERTEX
  8
0
  5
2293
 10
36.5009
 20
126.353
 30
-2.80923e-14
  70
    32
  0
VERTEX
  8
0
  5
2294
 10
36.5009
 20
126.356
 30
-2.80929e-14
  70
    32
  0
VERTEX
  8
0
  5
2295
 10
36.5009
 20
126.358
 30
-2.80934e-14
  70
    32
  0
VERTEX
  8
0
  5
2296
 10
36.5008
 20
126.360
 30
-2.80939e-14
  70
    32
  0
VERTEX
  8
0
  5
2297
 10
36.5008
 20
126.363
 30
-2.80944e-14
  70
    32
  0
VERTEX
  8
0
  5
2298
 10
36.5007
 20
126.365
 30
-2.80948e-14
  70
    32
  0
VERTEX
  8
0
  5
2299
 10
36.5007
 20
126.367
 30
-2.80952e-14
  70
    32
  0
VERTEX
  8
0
  5
229A
 10
36.5007
 20
126.370
 30
-2.80956e-14
  70
    32
  0
VERTEX
  8
0
  5
229B
 10
36.5006
 20
126.372
 30
-2.80960e-14
  70
    32
  0
VERTEX
  8
0
  5
229C
 10
36.5006
 20
126.375
 30
-2.80964e-14
  70
    32
  0
VERTEX
  8
0
  5
229D
 10
36.5005
 20
126.377
 30
-2.80967e-14
  70
    32
  0
VERTEX
  8
0
  5
229E
 10
36.5005
 20
126.379
 30
-2.80970e-14
  70
    32
  0
VERTEX
  8
0
  5
229F
 10
36.5005
 20
126.382
 30
-2.80973e-14
  70
    32
  0
VERTEX
  8
0
  5
22A0
 10
36.5004
 20
126.384
 30
-2.80976e-14
  70
    32
  0
VERTEX
  8
0
  5
22A1
 10
36.5004
 20
126.386
 30
-2.80978e-14
  70
    32
  0
VERTEX
  8
0
  5
22A2
 10
36.5004
 20
126.389
 30
-2.80980e-14
  70
    32
  0
VERTEX
  8
0
  5
22A3
 10
36.5004
 20
126.391
 30
-2.80983e-14
  70
    32
  0
VERTEX
  8
0
  5
22A4
 10
36.5003
 20
126.394
 30
-2.80985e-14
  70
    32
  0
VERTEX
  8
0
  5
22A5
 10
36.5003
 20
126.396
 30
-2.80986e-14
  70
    32
  0
VERTEX
  8
0
  5
22A6
 10
36.5003
 20
126.398
 30
-2.80988e-14
  70
    32
  0
VERTEX
  8
0
  5
22A7
 10
36.5002
 20
126.401
 30
-2.80990e-14
  70
    32
  0
VERTEX
  8
0
  5
22A8
 10
36.5002
 20
126.403
 30
-2.80991e-14
  70
    32
  0
VERTEX
  8
0
  5
22A9
 10
36.5002
 20
126.405
 30
-2.80992e-14
  70
    32
  0
VERTEX
  8
0
  5
22AA
 10
36.5002
 20
126.408
 30
-2.80994e-14
  70
    32
  0
VERTEX
  8
0
  5
22AB
 10
36.5002
 20
126.410
 30
-2.80995e-14
  70
    32
  0
VERTEX
  8
0
  5
22AC
 10
36.5001
 20
126.412
 30
-2.80995e-14
  70
    32
  0
VERTEX
  8
0
  5
22AD
 10
36.5001
 20
126.415
 30
-2.80996e-14
  70
    32
  0
VERTEX
  8
0
  5
22AE
 10
36.5001
 20
126.417
 30
-2.80997e-14
  70
    32
  0
VERTEX
  8
0
  5
22AF
 10
36.5001
 20
126.420
 30
-2.80998e-14
  70
    32
  0
VERTEX
  8
0
  5
22B0
 10
36.5001
 20
126.422
 30
-2.80998e-14
  70
    32
  0
VERTEX
  8
0
  5
22B1
 10
36.5001
 20
126.424
 30
-2.80999e-14
  70
    32
  0
VERTEX
  8
0
  5
22B2
 10
36.5001
 20
126.427
 30
-2.80999e-14
  70
    32
  0
VERTEX
  8
0
  5
22B3
 10
36.5000
 20
126.429
 30
-2.80999e-14
  70
    32
  0
VERTEX
  8
0
  5
22B4
 10
36.5000
 20
126.431
 30
-2.80999e-14
  70
    32
  0
VERTEX
  8
0
  5
22B5
 10
36.5000
 20
126.434
 30
-2.81000e-14
  70
    32
  0
VERTEX
  8
0
  5
22B6
 10
36.5000
 20
126.436
 30
-2.81000e-14
  70
    32
  0
VERTEX
  8
0
  5
22B7
 10
36.5000
 20
126.439
 30
-2.81000e-14
  70
    32
  0
VERTEX
  8
0
  5
22B8
 10
36.5000
 20
126.441
 30
-2.81000e-14
  70
    32
  0
VERTEX
  8
0
  5
22B9
 10
36.5000
 20
126.443
 30
-2.81000e-14
  70
    32
  0
VERTEX
  8
0
  5
22BA
 10
36.5000
 20
126.446
 30
-2.81000e-14
  70
    32
  0
VERTEX
  8
0
  5
22BB
 10
36.5000
 20
126.448
 30
-2.81000e-14
  70
    32
  0
VERTEX
  8
0
  5
22BC
 10
36.5000
 20
126.450
 30
-2.81000e-14
  70
    32
  0
SEQEND
  8
0
  5
22BD
  0
ARC
  5
1F2E
  8
0
  6
CONTINUOUS
 62
     3
 10
17.1000000000002785
 20
179.4550449320375094
 30
0.0
 40
24.9999999999997797
210
0.0
220
-0.0000000000000002
230
-1.0
 50
0.0000000000001908
 51
24.958196312314989
  0
ARC
  5
1F2F
  8
0
  6
CONTINUOUS
 62
     3
 10
-17.0999999999999588
 20
179.4550449320375094
 30
0.0
 40
24.9999999999999183
210
0.0
220
-0.0000000000000002
230
-1.0
 50
155.0418036876849897
 51
179.9999999999996874
  0
LINE
  5
1F30
  8
0
  6
CONTINUOUS
 62
     3
 10
42.0999999999998877
 20
179.4550449320375947
 30
-0.0000000000000398
 11
42.0999999999999019
 21
174.6356872909545928
 31
-0.0000000000000388
210
-0.0000000000000002
220
1.0
230
-0.0000000000000002
  0
LINE
  5
1F31
  8
0
  6
CONTINUOUS
 62
     3
 10
-42.1000000000000725
 20
179.4550449320375947
 30
-0.0000000000000398
 11
-42.1000000000000725
 21
174.6356872909545928
 31
-0.0000000000000388
210
-0.0000000000000002
220
1.0
230
-0.0000000000000002
  0
ARC
  5
1F32
  8
0
  6
CONTINUOUS
 62
     3
 10
17.1000000000134911
 20
174.7039673391537065
 30
0.0
 40
25.0000932431123708
210
0.0
220
-0.0000000000000002
230
-1.0
 50
338.8168456069597028
 51
359.8435140456293198
  0
ARC
  5
1F33
  8
0
  6
CONTINUOUS
 62
     3
 10
-17.1000000000127095
 20
174.7039673391537065
 30
0.0
 40
25.0000932431129606
210
0.0
220
-0.0000000000000002
230
-1.0
 50
180.1564859543707939
 51
201.1831543930398993
  0
ARC
  5
1F34
  8
0
  6
CONTINUOUS
 62
     3
 10
51.5999999999986514
 20
161.3339673391560893
 30
0.0
 40
11.9999999999986393
210
0.0
220
-0.0000000000000002
230
-1.0
 50
158.8168456069597028
 51
179.999999999999801
  0
ARC
  5
1F35
  8
0
  6
CONTINUOUS
 62
     3
 10
-51.5999999999984666
 20
161.3339673391560893
 30
0.0
 40
11.9999999999986393
210
0.0
220
-0.0000000000000002
230
-1.0
 50
0.0000000000001272
 51
21.1831543930402901
  0
LINE
  5
1F36
  8
0
  6
CONTINUOUS
 62
     3
 10
39.5999999999998593
 20
161.333967339156203
 30
-0.0000000000000358
 11
39.5999999999998806
 21
140.39269375657301
 31
-0.0000000000000312
210
-0.0000000000000002
220
1.0
230
-0.0000000000000002
  0
LINE
  5
1F37
  8
0
  6
CONTINUOUS
 62
     3
 10
-39.6000000000000369
 20
161.333967339156203
 30
-0.0000000000000358
 11
-39.6000000000000298
 21
140.39269375657301
 31
-0.0000000000000312
210
-0.0000000000000002
220
1.0
230
-0.0000000000000002
  0
ARC
  5
1F38
  8
0
  6
CONTINUOUS
 62
     3
 10
27.5999999999992305
 20
140.3926937565732942
 30
0.0
 40
12.0000000000008296
210
0.0
220
-0.0000000000000002
230
-1.0
 50
327.6719358778382798
 51
359.9999999999988063
  0
ARC
  5
1F39
  8
0
  6
CONTINUOUS
 62
     3
 10
-27.5999999999990706
 20
140.3926937565732942
 30
0.0
 40
12.0000000000008296
210
0.0
220
-0.0000000000000002
230
-1.0
 50
180.0000000000009948
 51
212.3280641221616065
  0
ARC
  5
1F3A
  8
0
  6
CONTINUOUS
 62
     3
 10
44.5000000000000071
 20
129.6973676745874968
 30
0.0
 40
7.9999999999999796
210
0.0
220
-0.0000000000000002
230
-1.0
 50
147.6719358778381945
 51
180.000000000000199
  0
ARC
  5
1F3B
  8
0
  6
CONTINUOUS
 62
     3
 10
-44.4999999999998579
 20
129.6973676745874968
 30
0.0
 40
7.9999999999999867
210
0.0
220
-0.0000000000000002
230
-1.0
 50
359.9999999999997726
 51
32.3280641221617628
  0
LINE
  5
1F3C
  8
0
  6
CONTINUOUS
 62
     3
 10
36.4999999999998934
 20
129.6973676745874968
 30
-0.0000000000000288
 11
36.4999999999998934
 21
126.4504194939451054
 31
-0.0000000000000281
210
-0.0000000000000002
220
1.0
230
-0.0000000000000002
  0
LINE
  5
1F3D
  8
0
  6
CONTINUOUS
 62
     3
 10
-36.5000000000000426
 20
129.6973676745874968
 30
-0.0000000000000288
 11
-36.5000000000000426
 21
126.4504194939450059
 31
-0.0000000000000281
210
-0.0000000000000002
220
1.0
230
-0.0000000000000002
  0
LINE
  5
1F3E
  8
0
  6
CONTINUOUS
 62
     3
 10
36.5805722339461212
 20
125.5568527132960952
 30
-0.0000000000000279
 11
44.4999999999999787
 21
82.0000000000000853
 31
-0.0000000000000182
210
-0.0000000000000002
220
1.0
230
-0.0000000000000002
  0
LINE
  5
1F3F
  8
0
  6
CONTINUOUS
 62
     3
 10
-44.5000000000000497
 20
82.0000000000000142
 30
-0.0000000000000182
 11
-36.5805722339462704
 21
125.5568527132959957
 31
-0.0000000000000279
210
-0.0000000000000002
220
1.0
230
-0.0000000000000002
  0
LINE
  5
1F40
  8
0
  6
CONTINUOUS
 62
     3
 10
-44.5000000000000995
 20
82.0000000000000142
 30
-0.0000000000000182
 11
44.4999999999999574
 21
82.0000000000000568
 31
-0.0000000000000182
210
-0.0000000000000002
220
1.0
230
-0.0000000000000002
  0
LINE
  5
1F41
  8
0
  6
CONTINUOUS
 62
     3
 10
-43.6251133647410896
 20
-0.0000000000000124
 30
0.0
 11
-0.0000000000000213
 21
0.0
 31
0.0
210
-0.0000000000000002
220
1.0
230
-0.0000000000000002
  0
LINE
  5
1F42
  8
0
  6
CONTINUOUS
 62
     3
 10
-0.0000000000000072
 20
0.0
 30
0.0
 11
43.6251133647410683
 21
0.0000000000000124
 31
0.0
210
-0.0000000000000002
220
1.0
230
-0.0000000000000002
  0
ARC
  5
1F43
  8
0
  6
CONTINUOUS
 62
     3
 10
32.8999999999954582
 20
10.5064669377358193
 30
0.0
 40
11.6000000000045596
210
0.0
220
-0.0000000000000002
230
-1.0
 50
355.0000000000014211
 51
359.9999999999989768
  0
ARC
  5
1F44
  8
0
  6
CONTINUOUS
 62
     3
 10
-32.8999999999955506
 20
10.5064669377358406
 30
0.0
 40
11.6000000000044405
210
0.0
220
-0.0000000000000002
230
-1.0
 50
180.0000000000007958
 51
184.9999999999986073
  0
LINE
  5
1F45
  8
0
  6
CONTINUOUS
 62
     3
 10
-43.6251133647410967
 20
-0.0000000000000124
 30
0.0
 11
-44.455858497864277
 21
9.4954603218628684
 31
-0.0000000000000021
210
-0.0000000000000002
220
1.0
230
-0.0000000000000002
  0
LINE
  5
1F46
  8
0
  6
CONTINUOUS
 62
     3
 10
43.6251133647410683
 20
0.0000000000000124
 30
0.0
 11
44.4558584978642415
 21
9.4954603218628968
 31
-0.0000000000000021
210
-0.0000000000000002
220
1.0
230
-0.0000000000000002
  0
LINE
  5
1F47
  8
0
  6
CONTINUOUS
 62
     3
 10
44.4999999999999574
 20
82.0000000000000568
 30
-0.0000000000000182
 11
44.4999999999999787
 21
10.5064669377356505
 31
-0.0000000000000023
210
-0.0000000000000002
220
1.0
230
-0.0000000000000002
  0
LINE
  5
1F48
  8
0
  6
CONTINUOUS
 62
     3
 10
-44.5000000000000497
 20
82.0000000000000142
 30
-0.0000000000000182
 11
-44.5000000000000213
 21
10.5064669377356292
 31
-0.0000000000000023
210
-0.0000000000000002
220
1.0
230
-0.0000000000000002
  0
LINE
  5
1F49
  8
0
  6
VERDECKT
 62
     1
 10
-38.3148118992656634
 20
189.3288363051005945
 30
-0.000000000000042
 11
-0.000000000000106
 21
189.3288363051005945
 31
-0.000000000000042
210
-0.0000000000000002
220
1.0
230
-0.0000000000000002
  0
LINE
  5
1F4A
  8
0
  6
VERDECKT
 62
     1
 10
-0.0000000000000895
 20
189.3288363051005945
 30
-0.000000000000042
 11
38.3148118992655498
 21
189.3288363051005945
 31
-0.000000000000042
210
-0.0000000000000002
220
1.0
230
-0.0000000000000002
  0
POLYLINE
  8
0
  5
22BE
  62
1
  66
     1
 10
0.000000
 20
0.000000
 30
0.000000
  70
     8
  0
VERTEX
  8
0
  5
22BF
 10
-34.9000
 20
126.594
 30
-2.81000e-14
  70
    32
  0
VERTEX
  8
0
  5
22C0
 10
-34.9000
 20
126.591
 30
-2.81000e-14
  70
    32
  0
VERTEX
  8
0
  5
22C1
 10
-34.9000
 20
126.588
 30
-2.81000e-14
  70
    32
  0
VERTEX
  8
0
  5
22C2
 10
-34.9000
 20
126.585
 30
-2.81000e-14
  70
    32
  0
VERTEX
  8
0
  5
22C3
 10
-34.9000
 20
126.582
 30
-2.81000e-14
  70
    32
  0
VERTEX
  8
0
  5
22C4
 10
-34.9000
 20
126.579
 30
-2.81000e-14
  70
    32
  0
VERTEX
  8
0
  5
22C5
 10
-34.9000
 20
126.576
 30
-2.81000e-14
  70
    32
  0
VERTEX
  8
0
  5
22C6
 10
-34.9000
 20
126.572
 30
-2.81000e-14
  70
    32
  0
VERTEX
  8
0
  5
22C7
 10
-34.9000
 20
126.569
 30
-2.80999e-14
  70
    32
  0
VERTEX
  8
0
  5
22C8
 10
-34.9001
 20
126.566
 30
-2.80999e-14
  70
    32
  0
VERTEX
  8
0
  5
22C9
 10
-34.9001
 20
126.563
 30
-2.80999e-14
  70
    32
  0
VERTEX
  8
0
  5
22CA
 10
-34.9001
 20
126.560
 30
-2.80999e-14
  70
    32
  0
VERTEX
  8
0
  5
22CB
 10
-34.9001
 20
126.557
 30
-2.80998e-14
  70
    32
  0
VERTEX
  8
0
  5
22CC
 10
-34.9001
 20
126.554
 30
-2.80998e-14
  70
    32
  0
VERTEX
  8
0
  5
22CD
 10
-34.9001
 20
126.551
 30
-2.80997e-14
  70
    32
  0
VERTEX
  8
0
  5
22CE
 10
-34.9002
 20
126.547
 30
-2.80996e-14
  70
    32
  0
VERTEX
  8
0
  5
22CF
 10
-34.9002
 20
126.544
 30
-2.80995e-14
  70
    32
  0
VERTEX
  8
0
  5
22D0
 10
-34.9002
 20
126.541
 30
-2.80995e-14
  70
    32
  0
VERTEX
  8
0
  5
22D1
 10
-34.9002
 20
126.538
 30
-2.80994e-14
  70
    32
  0
VERTEX
  8
0
  5
22D2
 10
-34.9003
 20
126.535
 30
-2.80992e-14
  70
    32
  0
VERTEX
  8
0
  5
22D3
 10
-34.9003
 20
126.532
 30
-2.80991e-14
  70
    32
  0
VERTEX
  8
0
  5
22D4
 10
-34.9003
 20
126.529
 30
-2.80990e-14
  70
    32
  0
VERTEX
  8
0
  5
22D5
 10
-34.9004
 20
126.526
 30
-2.80988e-14
  70
    32
  0
VERTEX
  8
0
  5
22D6
 10
-34.9004
 20
126.522
 30
-2.80986e-14
  70
    32
  0
VERTEX
  8
0
  5
22D7
 10
-34.9004
 20
126.519
 30
-2.80985e-14
  70
    32
  0
VERTEX
  8
0
  5
22D8
 10
-34.9005
 20
126.516
 30
-2.80983e-14
  70
    32
  0
VERTEX
  8
0
  5
22D9
 10
-34.9005
 20
126.513
 30
-2.80980e-14
  70
    32
  0
VERTEX
  8
0
  5
22DA
 10
-34.9005
 20
126.510
 30
-2.80978e-14
  70
    32
  0
VERTEX
  8
0
  5
22DB
 10
-34.9006
 20
126.507
 30
-2.80976e-14
  70
    32
  0
VERTEX
  8
0
  5
22DC
 10
-34.9006
 20
126.504
 30
-2.80973e-14
  70
    32
  0
VERTEX
  8
0
  5
22DD
 10
-34.9007
 20
126.501
 30
-2.80970e-14
  70
    32
  0
VERTEX
  8
0
  5
22DE
 10
-34.9007
 20
126.497
 30
-2.80967e-14
  70
    32
  0
VERTEX
  8
0
  5
22DF
 10
-34.9008
 20
126.494
 30
-2.80964e-14
  70
    32
  0
VERTEX
  8
0
  5
22E0
 10
-34.9008
 20
126.491
 30
-2.80960e-14
  70
    32
  0
VERTEX
  8
0
  5
22E1
 10
-34.9009
 20
126.488
 30
-2.80956e-14
  70
    32
  0
VERTEX
  8
0
  5
22E2
 10
-34.9009
 20
126.485
 30
-2.80952e-14
  70
    32
  0
VERTEX
  8
0
  5
22E3
 10
-34.9010
 20
126.482
 30
-2.80948e-14
  70
    32
  0
VERTEX
  8
0
  5
22E4
 10
-34.9010
 20
126.479
 30
-2.80944e-14
  70
    32
  0
VERTEX
  8
0
  5
22E5
 10
-34.9011
 20
126.475
 30
-2.80939e-14
  70
    32
  0
VERTEX
  8
0
  5
22E6
 10
-34.9011
 20
126.472
 30
-2.80934e-14
  70
    32
  0
VERTEX
  8
0
  5
22E7
 10
-34.9012
 20
126.469
 30
-2.80929e-14
  70
    32
  0
VERTEX
  8
0
  5
22E8
 10
-34.9012
 20
126.466
 30
-2.80923e-14
  70
    32
  0
VERTEX
  8
0
  5
22E9
 10
-34.9013
 20
126.463
 30
-2.80918e-14
  70
    32
  0
VERTEX
  8
0
  5
22EA
 10
-34.9014
 20
126.460
 30
-2.80912e-14
  70
    32
  0
VERTEX
  8
0
  5
22EB
 10
-34.9014
 20
126.457
 30
-2.80905e-14
  70
    32
  0
VERTEX
  8
0
  5
22EC
 10
-34.9015
 20
126.454
 30
-2.80899e-14
  70
    32
  0
VERTEX
  8
0
  5
22ED
 10
-34.9016
 20
126.450
 30
-2.80892e-14
  70
    32
  0
VERTEX
  8
0
  5
22EE
 10
-34.9016
 20
126.447
 30
-2.80885e-14
  70
    32
  0
VERTEX
  8
0
  5
22EF
 10
-34.9017
 20
126.444
 30
-2.80877e-14
  70
    32
  0
VERTEX
  8
0
  5
22F0
 10
-34.9018
 20
126.441
 30
-2.80869e-14
  70
    32
  0
VERTEX
  8
0
  5
22F1
 10
-34.9019
 20
126.438
 30
-2.80861e-14
  70
    32
  0
VERTEX
  8
0
  5
22F2
 10
-34.9019
 20
126.435
 30
-2.80852e-14
  70
    32
  0
VERTEX
  8
0
  5
22F3
 10
-34.9020
 20
126.432
 30
-2.80844e-14
  70
    32
  0
VERTEX
  8
0
  5
22F4
 10
-34.9021
 20
126.429
 30
-2.80834e-14
  70
    32
  0
VERTEX
  8
0
  5
22F5
 10
-34.9022
 20
126.425
 30
-2.80825e-14
  70
    32
  0
VERTEX
  8
0
  5
22F6
 10
-34.9022
 20
126.422
 30
-2.80815e-14
  70
    32
  0
VERTEX
  8
0
  5
22F7
 10
-34.9023
 20
126.419
 30
-2.80805e-14
  70
    32
  0
VERTEX
  8
0
  5
22F8
 10
-34.9024
 20
126.416
 30
-2.80794e-14
  70
    32
  0
VERTEX
  8
0
  5
22F9
 10
-34.9025
 20
126.413
 30
-2.80783e-14
  70
    32
  0
VERTEX
  8
0
  5
22FA
 10
-34.9026
 20
126.410
 30
-2.80772e-14
  70
    32
  0
VERTEX
  8
0
  5
22FB
 10
-34.9027
 20
126.407
 30
-2.80760e-14
  70
    32
  0
VERTEX
  8
0
  5
22FC
 10
-34.9028
 20
126.404
 30
-2.80747e-14
  70
    32
  0
VERTEX
  8
0
  5
22FD
 10
-34.9029
 20
126.400
 30
-2.80735e-14
  70
    32
  0
VERTEX
  8
0
  5
22FE
 10
-34.9029
 20
126.397
 30
-2.80722e-14
  70
    32
  0
VERTEX
  8
0
  5
22FF
 10
-34.9030
 20
126.394
 30
-2.80708e-14
  70
    32
  0
VERTEX
  8
0
  5
2300
 10
-34.9031
 20
126.391
 30
-2.80694e-14
  70
    32
  0
VERTEX
  8
0
  5
2301
 10
-34.9032
 20
126.388
 30
-2.80680e-14
  70
    32
  0
VERTEX
  8
0
  5
2302
 10
-34.9033
 20
126.385
 30
-2.80665e-14
  70
    32
  0
VERTEX
  8
0
  5
2303
 10
-34.9034
 20
126.382
 30
-2.80650e-14
  70
    32
  0
VERTEX
  8
0
  5
2304
 10
-34.9035
 20
126.379
 30
-2.80635e-14
  70
    32
  0
VERTEX
  8
0
  5
2305
 10
-34.9036
 20
126.375
 30
-2.80618e-14
  70
    32
  0
VERTEX
  8
0
  5
2306
 10
-34.9037
 20
126.372
 30
-2.80602e-14
  70
    32
  0
VERTEX
  8
0
  5
2307
 10
-34.9038
 20
126.369
 30
-2.80585e-14
  70
    32
  0
VERTEX
  8
0
  5
2308
 10
-34.9040
 20
126.366
 30
-2.80567e-14
  70
    32
  0
VERTEX
  8
0
  5
2309
 10
-34.9041
 20
126.363
 30
-2.80549e-14
  70
    32
  0
VERTEX
  8
0
  5
230A
 10
-34.9042
 20
126.360
 30
-2.80531e-14
  70
    32
  0
VERTEX
  8
0
  5
230B
 10
-34.9043
 20
126.357
 30
-2.80512e-14
  70
    32
  0
VERTEX
  8
0
  5
230C
 10
-34.9044
 20
126.354
 30
-2.80492e-14
  70
    32
  0
VERTEX
  8
0
  5
230D
 10
-34.9045
 20
126.350
 30
-2.80473e-14
  70
    32
  0
VERTEX
  8
0
  5
230E
 10
-34.9046
 20
126.347
 30
-2.80454e-14
  70
    32
  0
VERTEX
  8
0
  5
230F
 10
-34.9047
 20
126.344
 30
-2.80436e-14
  70
    32
  0
VERTEX
  8
0
  5
2310
 10
-34.9049
 20
126.341
 30
-2.80419e-14
  70
    32
  0
VERTEX
  8
0
  5
2311
 10
-34.9050
 20
126.338
 30
-2.80402e-14
  70
    32
  0
VERTEX
  8
0
  5
2312
 10
-34.9051
 20
126.335
 30
-2.80385e-14
  70
    32
  0
VERTEX
  8
0
  5
2313
 10
-34.9052
 20
126.332
 30
-2.80369e-14
  70
    32
  0
VERTEX
  8
0
  5
2314
 10
-34.9054
 20
126.329
 30
-2.80353e-14
  70
    32
  0
VERTEX
  8
0
  5
2315
 10
-34.9055
 20
126.325
 30
-2.80338e-14
  70
    32
  0
VERTEX
  8
0
  5
2316
 10
-34.9056
 20
126.322
 30
-2.80323e-14
  70
    32
  0
VERTEX
  8
0
  5
2317
 10
-34.9057
 20
126.319
 30
-2.80308e-14
  70
    32
  0
VERTEX
  8
0
  5
2318
 10
-34.9059
 20
126.316
 30
-2.80294e-14
  70
    32
  0
VERTEX
  8
0
  5
2319
 10
-34.9060
 20
126.313
 30
-2.80281e-14
  70
    32
  0
VERTEX
  8
0
  5
231A
 10
-34.9061
 20
126.310
 30
-2.80268e-14
  70
    32
  0
VERTEX
  8
0
  5
231B
 10
-34.9063
 20
126.307
 30
-2.80255e-14
  70
    32
  0
VERTEX
  8
0
  5
231C
 10
-34.9064
 20
126.304
 30
-2.80243e-14
  70
    32
  0
VERTEX
  8
0
  5
231D
 10
-34.9066
 20
126.301
 30
-2.80231e-14
  70
    32
  0
VERTEX
  8
0
  5
231E
 10
-34.9067
 20
126.297
 30
-2.80219e-14
  70
    32
  0
VERTEX
  8
0
  5
231F
 10
-34.9068
 20
126.294
 30
-2.80208e-14
  70
    32
  0
VERTEX
  8
0
  5
2320
 10
-34.9070
 20
126.291
 30
-2.80197e-14
  70
    32
  0
VERTEX
  8
0
  5
2321
 10
-34.9071
 20
126.288
 30
-2.80187e-14
  70
    32
  0
VERTEX
  8
0
  5
2322
 10
-34.9073
 20
126.285
 30
-2.80177e-14
  70
    32
  0
VERTEX
  8
0
  5
2323
 10
-34.9074
 20
126.282
 30
-2.80168e-14
  70
    32
  0
VERTEX
  8
0
  5
2324
 10
-34.9076
 20
126.279
 30
-2.80158e-14
  70
    32
  0
VERTEX
  8
0
  5
2325
 10
-34.9077
 20
126.276
 30
-2.80149e-14
  70
    32
  0
VERTEX
  8
0
  5
2326
 10
-34.9079
 20
126.272
 30
-2.80141e-14
  70
    32
  0
VERTEX
  8
0
  5
2327
 10
-34.9080
 20
126.269
 30
-2.80132e-14
  70
    32
  0
VERTEX
  8
0
  5
2328
 10
-34.9082
 20
126.266
 30
-2.80125e-14
  70
    32
  0
VERTEX
  8
0
  5
2329
 10
-34.9083
 20
126.263
 30
-2.80117e-14
  70
    32
  0
VERTEX
  8
0
  5
232A
 10
-34.9085
 20
126.260
 30
-2.80110e-14
  70
    32
  0
VERTEX
  8
0
  5
232B
 10
-34.9086
 20
126.257
 30
-2.80103e-14
  70
    32
  0
VERTEX
  8
0
  5
232C
 10
-34.9088
 20
126.254
 30
-2.80096e-14
  70
    32
  0
VERTEX
  8
0
  5
232D
 10
-34.9090
 20
126.251
 30
-2.80090e-14
  70
    32
  0
VERTEX
  8
0
  5
232E
 10
-34.9091
 20
126.248
 30
-2.80084e-14
  70
    32
  0
VERTEX
  8
0
  5
232F
 10
-34.9093
 20
126.244
 30
-2.80078e-14
  70
    32
  0
VERTEX
  8
0
  5
2330
 10
-34.9095
 20
126.241
 30
-2.80072e-14
  70
    32
  0
VERTEX
  8
0
  5
2331
 10
-34.9096
 20
126.238
 30
-2.80067e-14
  70
    32
  0
VERTEX
  8
0
  5
2332
 10
-34.9098
 20
126.235
 30
-2.80062e-14
  70
    32
  0
VERTEX
  8
0
  5
2333
 10
-34.9100
 20
126.232
 30
-2.80057e-14
  70
    32
  0
VERTEX
  8
0
  5
2334
 10
-34.9101
 20
126.229
 30
-2.80053e-14
  70
    32
  0
VERTEX
  8
0
  5
2335
 10
-34.9103
 20
126.226
 30
-2.80049e-14
  70
    32
  0
VERTEX
  8
0
  5
2336
 10
-34.9105
 20
126.223
 30
-2.80045e-14
  70
    32
  0
VERTEX
  8
0
  5
2337
 10
-34.9107
 20
126.219
 30
-2.80041e-14
  70
    32
  0
VERTEX
  8
0
  5
2338
 10
-34.9108
 20
126.216
 30
-2.80037e-14
  70
    32
  0
VERTEX
  8
0
  5
2339
 10
-34.9110
 20
126.213
 30
-2.80034e-14
  70
    32
  0
VERTEX
  8
0
  5
233A
 10
-34.9112
 20
126.210
 30
-2.80031e-14
  70
    32
  0
VERTEX
  8
0
  5
233B
 10
-34.9114
 20
126.207
 30
-2.80028e-14
  70
    32
  0
VERTEX
  8
0
  5
233C
 10
-34.9116
 20
126.204
 30
-2.80025e-14
  70
    32
  0
VERTEX
  8
0
  5
233D
 10
-34.9118
 20
126.201
 30
-2.80022e-14
  70
    32
  0
VERTEX
  8
0
  5
233E
 10
-34.9119
 20
126.198
 30
-2.80020e-14
  70
    32
  0
VERTEX
  8
0
  5
233F
 10
-34.9121
 20
126.195
 30
-2.80018e-14
  70
    32
  0
VERTEX
  8
0
  5
2340
 10
-34.9123
 20
126.191
 30
-2.80016e-14
  70
    32
  0
VERTEX
  8
0
  5
2341
 10
-34.9125
 20
126.188
 30
-2.80014e-14
  70
    32
  0
VERTEX
  8
0
  5
2342
 10
-34.9127
 20
126.185
 30
-2.80012e-14
  70
    32
  0
VERTEX
  8
0
  5
2343
 10
-34.9129
 20
126.182
 30
-2.80011e-14
  70
    32
  0
VERTEX
  8
0
  5
2344
 10
-34.9131
 20
126.179
 30
-2.80009e-14
  70
    32
  0
VERTEX
  8
0
  5
2345
 10
-34.9133
 20
126.176
 30
-2.80008e-14
  70
    32
  0
VERTEX
  8
0
  5
2346
 10
-34.9135
 20
126.173
 30
-2.80007e-14
  70
    32
  0
VERTEX
  8
0
  5
2347
 10
-34.9137
 20
126.170
 30
-2.80006e-14
  70
    32
  0
VERTEX
  8
0
  5
2348
 10
-34.9139
 20
126.167
 30
-2.80005e-14
  70
    32
  0
VERTEX
  8
0
  5
2349
 10
-34.9141
 20
126.163
 30
-2.80004e-14
  70
    32
  0
VERTEX
  8
0
  5
234A
 10
-34.9143
 20
126.160
 30
-2.80003e-14
  70
    32
  0
VERTEX
  8
0
  5
234B
 10
-34.9145
 20
126.157
 30
-2.80003e-14
  70
    32
  0
VERTEX
  8
0
  5
234C
 10
-34.9147
 20
126.154
 30
-2.80002e-14
  70
    32
  0
VERTEX
  8
0
  5
234D
 10
-34.9149
 20
126.151
 30
-2.80002e-14
  70
    32
  0
VERTEX
  8
0
  5
234E
 10
-34.9151
 20
126.148
 30
-2.80001e-14
  70
    32
  0
VERTEX
  8
0
  5
234F
 10
-34.9153
 20
126.145
 30
-2.80001e-14
  70
    32
  0
VERTEX
  8
0
  5
2350
 10
-34.9156
 20
126.142
 30
-2.80001e-14
  70
    32
  0
VERTEX
  8
0
  5
2351
 10
-34.9158
 20
126.139
 30
-2.80000e-14
  70
    32
  0
VERTEX
  8
0
  5
2352
 10
-34.9160
 20
126.136
 30
-2.80000e-14
  70
    32
  0
VERTEX
  8
0
  5
2353
 10
-34.9162
 20
126.132
 30
-2.80000e-14
  70
    32
  0
VERTEX
  8
0
  5
2354
 10
-34.9164
 20
126.129
 30
-2.80000e-14
  70
    32
  0
VERTEX
  8
0
  5
2355
 10
-34.9166
 20
126.126
 30
-2.80000e-14
  70
    32
  0
VERTEX
  8
0
  5
2356
 10
-34.9169
 20
126.123
 30
-2.80000e-14
  70
    32
  0
VERTEX
  8
0
  5
2357
 10
-34.9171
 20
126.120
 30
-2.80000e-14
  70
    32
  0
VERTEX
  8
0
  5
2358
 10
-34.9173
 20
126.117
 30
-2.80000e-14
  70
    32
  0
VERTEX
  8
0
  5
2359
 10
-34.9175
 20
126.114
 30
-2.80000e-14
  70
    32
  0
VERTEX
  8
0
  5
235A
 10
-34.9178
 20
126.111
 30
-2.80000e-14
  70
    32
  0
VERTEX
  8
0
  5
235B
 10
-34.9180
 20
126.108
 30
-2.80000e-14
  70
    32
  0
VERTEX
  8
0
  5
235C
 10
-34.9182
 20
126.104
 30
-2.80000e-14
  70
    32
  0
VERTEX
  8
0
  5
235D
 10
-34.9185
 20
126.101
 30
-2.80000e-14
  70
    32
  0
VERTEX
  8
0
  5
235E
 10
-34.9187
 20
126.098
 30
-2.80000e-14
  70
    32
  0
VERTEX
  8
0
  5
235F
 10
-34.9189
 20
126.095
 30
-2.80000e-14
  70
    32
  0
VERTEX
  8
0
  5
2360
 10
-34.9192
 20
126.092
 30
-2.79999e-14
  70
    32
  0
VERTEX
  8
0
  5
2361
 10
-34.9194
 20
126.089
 30
-2.79999e-14
  70
    32
  0
VERTEX
  8
0
  5
2362
 10
-34.9196
 20
126.086
 30
-2.79999e-14
  70
    32
  0
VERTEX
  8
0
  5
2363
 10
-34.9199
 20
126.083
 30
-2.79999e-14
  70
    32
  0
VERTEX
  8
0
  5
2364
 10
-34.9201
 20
126.080
 30
-2.79998e-14
  70
    32
  0
VERTEX
  8
0
  5
2365
 10
-34.9204
 20
126.077
 30
-2.79998e-14
  70
    32
  0
VERTEX
  8
0
  5
2366
 10
-34.9206
 20
126.073
 30
-2.79997e-14
  70
    32
  0
VERTEX
  8
0
  5
2367
 10
-34.9209
 20
126.070
 30
-2.79996e-14
  70
    32
  0
VERTEX
  8
0
  5
2368
 10
-34.9211
 20
126.067
 30
-2.79996e-14
  70
    32
  0
VERTEX
  8
0
  5
2369
 10
-34.9214
 20
126.064
 30
-2.79995e-14
  70
    32
  0
VERTEX
  8
0
  5
236A
 10
-34.9216
 20
126.061
 30
-2.79994e-14
  70
    32
  0
VERTEX
  8
0
  5
236B
 10
-34.9219
 20
126.058
 30
-2.79993e-14
  70
    32
  0
VERTEX
  8
0
  5
236C
 10
-34.9221
 20
126.055
 30
-2.79991e-14
  70
    32
  0
VERTEX
  8
0
  5
236D
 10
-34.9224
 20
126.052
 30
-2.79990e-14
  70
    32
  0
VERTEX
  8
0
  5
236E
 10
-34.9226
 20
126.049
 30
-2.79988e-14
  70
    32
  0
VERTEX
  8
0
  5
236F
 10
-34.9229
 20
126.046
 30
-2.79987e-14
  70
    32
  0
VERTEX
  8
0
  5
2370
 10
-34.9231
 20
126.042
 30
-2.79985e-14
  70
    32
  0
VERTEX
  8
0
  5
2371
 10
-34.9234
 20
126.039
 30
-2.79983e-14
  70
    32
  0
VERTEX
  8
0
  5
2372
 10
-34.9237
 20
126.036
 30
-2.79981e-14
  70
    32
  0
VERTEX
  8
0
  5
2373
 10
-34.9239
 20
126.033
 30
-2.79979e-14
  70
    32
  0
VERTEX
  8
0
  5
2374
 10
-34.9242
 20
126.030
 30
-2.79976e-14
  70
    32
  0
VERTEX
  8
0
  5
2375
 10
-34.9245
 20
126.027
 30
-2.79973e-14
  70
    32
  0
VERTEX
  8
0
  5
2376
 10
-34.9247
 20
126.024
 30
-2.79971e-14
  70
    32
  0
VERTEX
  8
0
  5
2377
 10
-34.9250
 20
126.021
 30
-2.79967e-14
  70
    32
  0
VERTEX
  8
0
  5
2378
 10
-34.9253
 20
126.018
 30
-2.79964e-14
  70
    32
  0
VERTEX
  8
0
  5
2379
 10
-34.9255
 20
126.015
 30
-2.79961e-14
  70
    32
  0
VERTEX
  8
0
  5
237A
 10
-34.9258
 20
126.012
 30
-2.79957e-14
  70
    32
  0
VERTEX
  8
0
  5
237B
 10
-34.9261
 20
126.008
 30
-2.79953e-14
  70
    32
  0
VERTEX
  8
0
  5
237C
 10
-34.9264
 20
126.005
 30
-2.79949e-14
  70
    32
  0
VERTEX
  8
0
  5
237D
 10
-34.9266
 20
126.002
 30
-2.79945e-14
  70
    32
  0
VERTEX
  8
0
  5
237E
 10
-34.9269
 20
125.999
 30
-2.79940e-14
  70
    32
  0
VERTEX
  8
0
  5
237F
 10
-34.9272
 20
125.996
 30
-2.79935e-14
  70
    32
  0
VERTEX
  8
0
  5
2380
 10
-34.9275
 20
125.993
 30
-2.79930e-14
  70
    32
  0
VERTEX
  8
0
  5
2381
 10
-34.9278
 20
125.990
 30
-2.79924e-14
  70
    32
  0
VERTEX
  8
0
  5
2382
 10
-34.9281
 20
125.987
 30
-2.79919e-14
  70
    32
  0
VERTEX
  8
0
  5
2383
 10
-34.9283
 20
125.984
 30
-2.79913e-14
  70
    32
  0
VERTEX
  8
0
  5
2384
 10
-34.9286
 20
125.981
 30
-2.79907e-14
  70
    32
  0
VERTEX
  8
0
  5
2385
 10
-34.9289
 20
125.978
 30
-2.79900e-14
  70
    32
  0
VERTEX
  8
0
  5
2386
 10
-34.9292
 20
125.974
 30
-2.79893e-14
  70
    32
  0
VERTEX
  8
0
  5
2387
 10
-34.9295
 20
125.971
 30
-2.79886e-14
  70
    32
  0
VERTEX
  8
0
  5
2388
 10
-34.9298
 20
125.968
 30
-2.79879e-14
  70
    32
  0
VERTEX
  8
0
  5
2389
 10
-34.9301
 20
125.965
 30
-2.79871e-14
  70
    32
  0
VERTEX
  8
0
  5
238A
 10
-34.9304
 20
125.962
 30
-2.79863e-14
  70
    32
  0
VERTEX
  8
0
  5
238B
 10
-34.9307
 20
125.959
 30
-2.79854e-14
  70
    32
  0
VERTEX
  8
0
  5
238C
 10
-34.9310
 20
125.956
 30
-2.79845e-14
  70
    32
  0
VERTEX
  8
0
  5
238D
 10
-34.9313
 20
125.953
 30
-2.79836e-14
  70
    32
  0
VERTEX
  8
0
  5
238E
 10
-34.9316
 20
125.950
 30
-2.79827e-14
  70
    32
  0
VERTEX
  8
0
  5
238F
 10
-34.9319
 20
125.947
 30
-2.79817e-14
  70
    32
  0
VERTEX
  8
0
  5
2390
 10
-34.9322
 20
125.944
 30
-2.79807e-14
  70
    32
  0
VERTEX
  8
0
  5
2391
 10
-34.9325
 20
125.940
 30
-2.79796e-14
  70
    32
  0
VERTEX
  8
0
  5
2392
 10
-34.9328
 20
125.937
 30
-2.79785e-14
  70
    32
  0
VERTEX
  8
0
  5
2393
 10
-34.9331
 20
125.934
 30
-2.79774e-14
  70
    32
  0
VERTEX
  8
0
  5
2394
 10
-34.9334
 20
125.931
 30
-2.79762e-14
  70
    32
  0
VERTEX
  8
0
  5
2395
 10
-34.9338
 20
125.928
 30
-2.79750e-14
  70
    32
  0
VERTEX
  8
0
  5
2396
 10
-34.9341
 20
125.925
 30
-2.79737e-14
  70
    32
  0
VERTEX
  8
0
  5
2397
 10
-34.9344
 20
125.922
 30
-2.79724e-14
  70
    32
  0
VERTEX
  8
0
  5
2398
 10
-34.9347
 20
125.919
 30
-2.79711e-14
  70
    32
  0
VERTEX
  8
0
  5
2399
 10
-34.9350
 20
125.916
 30
-2.79697e-14
  70
    32
  0
VERTEX
  8
0
  5
239A
 10
-34.9353
 20
125.913
 30
-2.79683e-14
  70
    32
  0
VERTEX
  8
0
  5
239B
 10
-34.9357
 20
125.910
 30
-2.79668e-14
  70
    32
  0
VERTEX
  8
0
  5
239C
 10
-34.9360
 20
125.907
 30
-2.79653e-14
  70
    32
  0
VERTEX
  8
0
  5
239D
 10
-34.9363
 20
125.904
 30
-2.79638e-14
  70
    32
  0
VERTEX
  8
0
  5
239E
 10
-34.9366
 20
125.900
 30
-2.79622e-14
  70
    32
  0
VERTEX
  8
0
  5
239F
 10
-34.9370
 20
125.897
 30
-2.79605e-14
  70
    32
  0
VERTEX
  8
0
  5
23A0
 10
-34.9373
 20
125.894
 30
-2.79588e-14
  70
    32
  0
VERTEX
  8
0
  5
23A1
 10
-34.9376
 20
125.891
 30
-2.79571e-14
  70
    32
  0
VERTEX
  8
0
  5
23A2
 10
-34.9379
 20
125.888
 30
-2.79553e-14
  70
    32
  0
VERTEX
  8
0
  5
23A3
 10
-34.9383
 20
125.885
 30
-2.79534e-14
  70
    32
  0
VERTEX
  8
0
  5
23A4
 10
-34.9386
 20
125.882
 30
-2.79516e-14
  70
    32
  0
VERTEX
  8
0
  5
23A5
 10
-34.9389
 20
125.879
 30
-2.79496e-14
  70
    32
  0
VERTEX
  8
0
  5
23A6
 10
-34.9393
 20
125.876
 30
-2.79477e-14
  70
    32
  0
VERTEX
  8
0
  5
23A7
 10
-34.9396
 20
125.873
 30
-2.79458e-14
  70
    32
  0
VERTEX
  8
0
  5
23A8
 10
-34.9400
 20
125.870
 30
-2.79440e-14
  70
    32
  0
VERTEX
  8
0
  5
23A9
 10
-34.9403
 20
125.867
 30
-2.79422e-14
  70
    32
  0
VERTEX
  8
0
  5
23AA
 10
-34.9406
 20
125.864
 30
-2.79405e-14
  70
    32
  0
VERTEX
  8
0
  5
23AB
 10
-34.9410
 20
125.860
 30
-2.79388e-14
  70
    32
  0
VERTEX
  8
0
  5
23AC
 10
-34.9413
 20
125.857
 30
-2.79372e-14
  70
    32
  0
VERTEX
  8
0
  5
23AD
 10
-34.9417
 20
125.854
 30
-2.79356e-14
  70
    32
  0
VERTEX
  8
0
  5
23AE
 10
-34.9420
 20
125.851
 30
-2.79341e-14
  70
    32
  0
VERTEX
  8
0
  5
23AF
 10
-34.9424
 20
125.848
 30
-2.79326e-14
  70
    32
  0
VERTEX
  8
0
  5
23B0
 10
-34.9427
 20
125.845
 30
-2.79311e-14
  70
    32
  0
VERTEX
  8
0
  5
23B1
 10
-34.9431
 20
125.842
 30
-2.79297e-14
  70
    32
  0
VERTEX
  8
0
  5
23B2
 10
-34.9434
 20
125.839
 30
-2.79283e-14
  70
    32
  0
VERTEX
  8
0
  5
23B3
 10
-34.9438
 20
125.836
 30
-2.79270e-14
  70
    32
  0
VERTEX
  8
0
  5
23B4
 10
-34.9441
 20
125.833
 30
-2.79258e-14
  70
    32
  0
VERTEX
  8
0
  5
23B5
 10
-34.9445
 20
125.830
 30
-2.79245e-14
  70
    32
  0
VERTEX
  8
0
  5
23B6
 10
-34.9449
 20
125.827
 30
-2.79233e-14
  70
    32
  0
VERTEX
  8
0
  5
23B7
 10
-34.9452
 20
125.824
 30
-2.79222e-14
  70
    32
  0
VERTEX
  8
0
  5
23B8
 10
-34.9456
 20
125.821
 30
-2.79210e-14
  70
    32
  0
VERTEX
  8
0
  5
23B9
 10
-34.9459
 20
125.818
 30
-2.79200e-14
  70
    32
  0
VERTEX
  8
0
  5
23BA
 10
-34.9463
 20
125.814
 30
-2.79189e-14
  70
    32
  0
VERTEX
  8
0
  5
23BB
 10
-34.9467
 20
125.811
 30
-2.79179e-14
  70
    32
  0
VERTEX
  8
0
  5
23BC
 10
-34.9470
 20
125.808
 30
-2.79169e-14
  70
    32
  0
VERTEX
  8
0
  5
23BD
 10
-34.9474
 20
125.805
 30
-2.79160e-14
  70
    32
  0
VERTEX
  8
0
  5
23BE
 10
-34.9478
 20
125.802
 30
-2.79151e-14
  70
    32
  0
VERTEX
  8
0
  5
23BF
 10
-34.9481
 20
125.799
 30
-2.79142e-14
  70
    32
  0
VERTEX
  8
0
  5
23C0
 10
-34.9485
 20
125.796
 30
-2.79134e-14
  70
    32
  0
VERTEX
  8
0
  5
23C1
 10
-34.9489
 20
125.793
 30
-2.79126e-14
  70
    32
  0
VERTEX
  8
0
  5
23C2
 10
-34.9493
 20
125.790
 30
-2.79118e-14
  70
    32
  0
VERTEX
  8
0
  5
23C3
 10
-34.9496
 20
125.787
 30
-2.79111e-14
  70
    32
  0
VERTEX
  8
0
  5
23C4
 10
-34.9500
 20
125.784
 30
-2.79104e-14
  70
    32
  0
VERTEX
  8
0
  5
23C5
 10
-34.9504
 20
125.781
 30
-2.79097e-14
  70
    32
  0
VERTEX
  8
0
  5
23C6
 10
-34.9508
 20
125.778
 30
-2.79091e-14
  70
    32
  0
VERTEX
  8
0
  5
23C7
 10
-34.9512
 20
125.775
 30
-2.79085e-14
  70
    32
  0
VERTEX
  8
0
  5
23C8
 10
-34.9515
 20
125.772
 30
-2.79079e-14
  70
    32
  0
VERTEX
  8
0
  5
23C9
 10
-34.9519
 20
125.769
 30
-2.79073e-14
  70
    32
  0
VERTEX
  8
0
  5
23CA
 10
-34.9523
 20
125.766
 30
-2.79068e-14
  70
    32
  0
VERTEX
  8
0
  5
23CB
 10
-34.9527
 20
125.762
 30
-2.79063e-14
  70
    32
  0
VERTEX
  8
0
  5
23CC
 10
-34.9531
 20
125.759
 30
-2.79058e-14
  70
    32
  0
VERTEX
  8
0
  5
23CD
 10
-34.9535
 20
125.756
 30
-2.79054e-14
  70
    32
  0
VERTEX
  8
0
  5
23CE
 10
-34.9539
 20
125.753
 30
-2.79049e-14
  70
    32
  0
VERTEX
  8
0
  5
23CF
 10
-34.9543
 20
125.750
 30
-2.79045e-14
  70
    32
  0
VERTEX
  8
0
  5
23D0
 10
-34.9547
 20
125.747
 30
-2.79041e-14
  70
    32
  0
VERTEX
  8
0
  5
23D1
 10
-34.9551
 20
125.744
 30
-2.79038e-14
  70
    32
  0
VERTEX
  8
0
  5
23D2
 10
-34.9555
 20
125.741
 30
-2.79034e-14
  70
    32
  0
VERTEX
  8
0
  5
23D3
 10
-34.9559
 20
125.738
 30
-2.79031e-14
  70
    32
  0
VERTEX
  8
0
  5
23D4
 10
-34.9563
 20
125.735
 30
-2.79028e-14
  70
    32
  0
VERTEX
  8
0
  5
23D5
 10
-34.9567
 20
125.732
 30
-2.79025e-14
  70
    32
  0
VERTEX
  8
0
  5
23D6
 10
-34.9571
 20
125.729
 30
-2.79023e-14
  70
    32
  0
VERTEX
  8
0
  5
23D7
 10
-34.9575
 20
125.726
 30
-2.79020e-14
  70
    32
  0
VERTEX
  8
0
  5
23D8
 10
-34.9579
 20
125.723
 30
-2.79018e-14
  70
    32
  0
VERTEX
  8
0
  5
23D9
 10
-34.9583
 20
125.720
 30
-2.79016e-14
  70
    32
  0
VERTEX
  8
0
  5
23DA
 10
-34.9587
 20
125.717
 30
-2.79014e-14
  70
    32
  0
VERTEX
  8
0
  5
23DB
 10
-34.9591
 20
125.714
 30
-2.79013e-14
  70
    32
  0
VERTEX
  8
0
  5
23DC
 10
-34.9595
 20
125.711
 30
-2.79011e-14
  70
    32
  0
VERTEX
  8
0
  5
23DD
 10
-34.9599
 20
125.708
 30
-2.79009e-14
  70
    32
  0
VERTEX
  8
0
  5
23DE
 10
-34.9603
 20
125.705
 30
-2.79008e-14
  70
    32
  0
VERTEX
  8
0
  5
23DF
 10
-34.9608
 20
125.701
 30
-2.79007e-14
  70
    32
  0
VERTEX
  8
0
  5
23E0
 10
-34.9612
 20
125.698
 30
-2.79006e-14
  70
    32
  0
VERTEX
  8
0
  5
23E1
 10
-34.9616
 20
125.695
 30
-2.79005e-14
  70
    32
  0
VERTEX
  8
0
  5
23E2
 10
-34.9620
 20
125.692
 30
-2.79004e-14
  70
    32
  0
VERTEX
  8
0
  5
23E3
 10
-34.9624
 20
125.689
 30
-2.79003e-14
  70
    32
  0
VERTEX
  8
0
  5
23E4
 10
-34.9629
 20
125.686
 30
-2.79003e-14
  70
    32
  0
VERTEX
  8
0
  5
23E5
 10
-34.9633
 20
125.683
 30
-2.79002e-14
  70
    32
  0
VERTEX
  8
0
  5
23E6
 10
-34.9637
 20
125.680
 30
-2.79002e-14
  70
    32
  0
VERTEX
  8
0
  5
23E7
 10
-34.9641
 20
125.677
 30
-2.79001e-14
  70
    32
  0
VERTEX
  8
0
  5
23E8
 10
-34.9646
 20
125.674
 30
-2.79001e-14
  70
    32
  0
VERTEX
  8
0
  5
23E9
 10
-34.9650
 20
125.671
 30
-2.79001e-14
  70
    32
  0
VERTEX
  8
0
  5
23EA
 10
-34.9654
 20
125.668
 30
-2.79000e-14
  70
    32
  0
VERTEX
  8
0
  5
23EB
 10
-34.9658
 20
125.665
 30
-2.79000e-14
  70
    32
  0
VERTEX
  8
0
  5
23EC
 10
-34.9663
 20
125.662
 30
-2.79000e-14
  70
    32
  0
VERTEX
  8
0
  5
23ED
 10
-34.9667
 20
125.659
 30
-2.79000e-14
  70
    32
  0
VERTEX
  8
0
  5
23EE
 10
-34.9671
 20
125.656
 30
-2.79000e-14
  70
    32
  0
VERTEX
  8
0
  5
23EF
 10
-34.9676
 20
125.653
 30
-2.79000e-14
  70
    32
  0
VERTEX
  8
0
  5
23F0
 10
-34.9680
 20
125.650
 30
-2.79000e-14
  70
    32
  0
VERTEX
  8
0
  5
23F1
 10
-34.9685
 20
125.647
 30
-2.79000e-14
  70
    32
  0
VERTEX
  8
0
  5
23F2
 10
-34.9689
 20
125.644
 30
-2.79000e-14
  70
    32
  0
VERTEX
  8
0
  5
23F3
 10
-34.9693
 20
125.641
 30
-2.79000e-14
  70
    32
  0
VERTEX
  8
0
  5
23F4
 10
-34.9698
 20
125.638
 30
-2.79000e-14
  70
    32
  0
VERTEX
  8
0
  5
23F5
 10
-34.9702
 20
125.635
 30
-2.79000e-14
  70
    32
  0
VERTEX
  8
0
  5
23F6
 10
-34.9707
 20
125.632
 30
-2.79000e-14
  70
    32
  0
VERTEX
  8
0
  5
23F7
 10
-34.9711
 20
125.629
 30
-2.79000e-14
  70
    32
  0
VERTEX
  8
0
  5
23F8
 10
-34.9716
 20
125.626
 30
-2.78999e-14
  70
    32
  0
VERTEX
  8
0
  5
23F9
 10
-34.9720
 20
125.623
 30
-2.78999e-14
  70
    32
  0
VERTEX
  8
0
  5
23FA
 10
-34.9725
 20
125.620
 30
-2.78999e-14
  70
    32
  0
VERTEX
  8
0
  5
23FB
 10
-34.9729
 20
125.616
 30
-2.78998e-14
  70
    32
  0
VERTEX
  8
0
  5
23FC
 10
-34.9734
 20
125.613
 30
-2.78997e-14
  70
    32
  0
VERTEX
  8
0
  5
23FD
 10
-34.9738
 20
125.610
 30
-2.78997e-14
  70
    32
  0
VERTEX
  8
0
  5
23FE
 10
-34.9743
 20
125.607
 30
-2.78996e-14
  70
    32
  0
VERTEX
  8
0
  5
23FF
 10
-34.9748
 20
125.604
 30
-2.78994e-14
  70
    32
  0
VERTEX
  8
0
  5
2400
 10
-34.9752
 20
125.601
 30
-2.78993e-14
  70
    32
  0
VERTEX
  8
0
  5
2401
 10
-34.9757
 20
125.598
 30
-2.78992e-14
  70
    32
  0
VERTEX
  8
0
  5
2402
 10
-34.9761
 20
125.595
 30
-2.78990e-14
  70
    32
  0
VERTEX
  8
0
  5
2403
 10
-34.9766
 20
125.592
 30
-2.78988e-14
  70
    32
  0
VERTEX
  8
0
  5
2404
 10
-34.9771
 20
125.589
 30
-2.78986e-14
  70
    32
  0
VERTEX
  8
0
  5
2405
 10
-34.9775
 20
125.586
 30
-2.78983e-14
  70
    32
  0
VERTEX
  8
0
  5
2406
 10
-34.9780
 20
125.583
 30
-2.78981e-14
  70
    32
  0
VERTEX
  8
0
  5
2407
 10
-34.9785
 20
125.580
 30
-2.78978e-14
  70
    32
  0
VERTEX
  8
0
  5
2408
 10
-34.9790
 20
125.577
 30
-2.78974e-14
  70
    32
  0
VERTEX
  8
0
  5
2409
 10
-34.9794
 20
125.574
 30
-2.78971e-14
  70
    32
  0
VERTEX
  8
0
  5
240A
 10
-34.9799
 20
125.571
 30
-2.78967e-14
  70
    32
  0
VERTEX
  8
0
  5
240B
 10
-34.9804
 20
125.568
 30
-2.78963e-14
  70
    32
  0
VERTEX
  8
0
  5
240C
 10
-34.9808
 20
125.565
 30
-2.78958e-14
  70
    32
  0
VERTEX
  8
0
  5
240D
 10
-34.9813
 20
125.562
 30
-2.78953e-14
  70
    32
  0
VERTEX
  8
0
  5
240E
 10
-34.9818
 20
125.559
 30
-2.78948e-14
  70
    32
  0
VERTEX
  8
0
  5
240F
 10
-34.9823
 20
125.556
 30
-2.78942e-14
  70
    32
  0
VERTEX
  8
0
  5
2410
 10
-34.9828
 20
125.553
 30
-2.78936e-14
  70
    32
  0
VERTEX
  8
0
  5
2411
 10
-34.9832
 20
125.550
 30
-2.78930e-14
  70
    32
  0
VERTEX
  8
0
  5
2412
 10
-34.9837
 20
125.547
 30
-2.78923e-14
  70
    32
  0
VERTEX
  8
0
  5
2413
 10
-34.9842
 20
125.544
 30
-2.78916e-14
  70
    32
  0
VERTEX
  8
0
  5
2414
 10
-34.9847
 20
125.541
 30
-2.78908e-14
  70
    32
  0
VERTEX
  8
0
  5
2415
 10
-34.9852
 20
125.538
 30
-2.78900e-14
  70
    32
  0
VERTEX
  8
0
  5
2416
 10
-34.9857
 20
125.535
 30
-2.78891e-14
  70
    32
  0
VERTEX
  8
0
  5
2417
 10
-34.9862
 20
125.532
 30
-2.78882e-14
  70
    32
  0
VERTEX
  8
0
  5
2418
 10
-34.9867
 20
125.529
 30
-2.78872e-14
  70
    32
  0
VERTEX
  8
0
  5
2419
 10
-34.9872
 20
125.526
 30
-2.78862e-14
  70
    32
  0
VERTEX
  8
0
  5
241A
 10
-34.9877
 20
125.523
 30
-2.78851e-14
  70
    32
  0
VERTEX
  8
0
  5
241B
 10
-34.9881
 20
125.520
 30
-2.78840e-14
  70
    32
  0
VERTEX
  8
0
  5
241C
 10
-34.9886
 20
125.517
 30
-2.78828e-14
  70
    32
  0
VERTEX
  8
0
  5
241D
 10
-34.9891
 20
125.514
 30
-2.78816e-14
  70
    32
  0
VERTEX
  8
0
  5
241E
 10
-34.9896
 20
125.511
 30
-2.78803e-14
  70
    32
  0
VERTEX
  8
0
  5
241F
 10
-34.9901
 20
125.508
 30
-2.78789e-14
  70
    32
  0
VERTEX
  8
0
  5
2420
 10
-34.9906
 20
125.505
 30
-2.78775e-14
  70
    32
  0
VERTEX
  8
0
  5
2421
 10
-34.9912
 20
125.502
 30
-2.78760e-14
  70
    32
  0
VERTEX
  8
0
  5
2422
 10
-34.9917
 20
125.499
 30
-2.78745e-14
  70
    32
  0
VERTEX
  8
0
  5
2423
 10
-34.9922
 20
125.496
 30
-2.78729e-14
  70
    32
  0
VERTEX
  8
0
  5
2424
 10
-34.9927
 20
125.493
 30
-2.78712e-14
  70
    32
  0
VERTEX
  8
0
  5
2425
 10
-34.9932
 20
125.490
 30
-2.78694e-14
  70
    32
  0
VERTEX
  8
0
  5
2426
 10
-34.9937
 20
125.487
 30
-2.78676e-14
  70
    32
  0
VERTEX
  8
0
  5
2427
 10
-34.9942
 20
125.484
 30
-2.78657e-14
  70
    32
  0
VERTEX
  8
0
  5
2428
 10
-34.9947
 20
125.481
 30
-2.78638e-14
  70
    32
  0
VERTEX
  8
0
  5
2429
 10
-34.9952
 20
125.478
 30
-2.78618e-14
  70
    32
  0
VERTEX
  8
0
  5
242A
 10
-34.9957
 20
125.475
 30
-2.78597e-14
  70
    32
  0
VERTEX
  8
0
  5
242B
 10
-34.9963
 20
125.472
 30
-2.78575e-14
  70
    32
  0
VERTEX
  8
0
  5
242C
 10
-34.9968
 20
125.469
 30
-2.78552e-14
  70
    32
  0
VERTEX
  8
0
  5
242D
 10
-34.9973
 20
125.466
 30
-2.78529e-14
  70
    32
  0
VERTEX
  8
0
  5
242E
 10
-34.9978
 20
125.463
 30
-2.78505e-14
  70
    32
  0
VERTEX
  8
0
  5
242F
 10
-34.9983
 20
125.460
 30
-2.78480e-14
  70
    32
  0
VERTEX
  8
0
  5
2430
 10
-34.9989
 20
125.457
 30
-2.78454e-14
  70
    32
  0
VERTEX
  8
0
  5
2431
 10
-34.9994
 20
125.454
 30
-2.78428e-14
  70
    32
  0
VERTEX
  8
0
  5
2432
 10
-34.9999
 20
125.451
 30
-2.78400e-14
  70
    32
  0
VERTEX
  8
0
  5
2433
 10
-35.0004
 20
125.448
 30
-2.78372e-14
  70
    32
  0
VERTEX
  8
0
  5
2434
 10
-35.0010
 20
125.445
 30
-2.78343e-14
  70
    32
  0
VERTEX
  8
0
  5
2435
 10
-35.0015
 20
125.442
 30
-2.78313e-14
  70
    32
  0
VERTEX
  8
0
  5
2436
 10
-35.0020
 20
125.439
 30
-2.78282e-14
  70
    32
  0
VERTEX
  8
0
  5
2437
 10
-35.0026
 20
125.436
 30
-2.78250e-14
  70
    32
  0
VERTEX
  8
0
  5
2438
 10
-35.0031
 20
125.433
 30
-2.78217e-14
  70
    32
  0
VERTEX
  8
0
  5
2439
 10
-35.0036
 20
125.430
 30
-2.78183e-14
  70
    32
  0
VERTEX
  8
0
  5
243A
 10
-35.0042
 20
125.427
 30
-2.78149e-14
  70
    32
  0
VERTEX
  8
0
  5
243B
 10
-35.0047
 20
125.424
 30
-2.78113e-14
  70
    32
  0
VERTEX
  8
0
  5
243C
 10
-35.0052
 20
125.421
 30
-2.78076e-14
  70
    32
  0
VERTEX
  8
0
  5
243D
 10
-35.0058
 20
125.418
 30
-2.78039e-14
  70
    32
  0
VERTEX
  8
0
  5
243E
 10
-35.0063
 20
125.415
 30
-2.78000e-14
  70
    32
  0
SEQEND
  8
0
  5
243F
  0
POLYLINE
  8
0
  5
2440
  62
1
  66
     1
 10
0.000000
 20
0.000000
 30
0.000000
  70
     8
  0
VERTEX
  8
0
  5
2441
 10
35.0063
 20
125.415
 30
-2.78000e-14
  70
    32
  0
VERTEX
  8
0
  5
2442
 10
35.0058
 20
125.418
 30
-2.78039e-14
  70
    32
  0
VERTEX
  8
0
  5
2443
 10
35.0052
 20
125.421
 30
-2.78076e-14
  70
    32
  0
VERTEX
  8
0
  5
2444
 10
35.0047
 20
125.424
 30
-2.78113e-14
  70
    32
  0
VERTEX
  8
0
  5
2445
 10
35.0042
 20
125.427
 30
-2.78149e-14
  70
    32
  0
VERTEX
  8
0
  5
2446
 10
35.0036
 20
125.430
 30
-2.78183e-14
  70
    32
  0
VERTEX
  8
0
  5
2447
 10
35.0031
 20
125.433
 30
-2.78217e-14
  70
    32
  0
VERTEX
  8
0
  5
2448
 10
35.0026
 20
125.436
 30
-2.78250e-14
  70
    32
  0
VERTEX
  8
0
  5
2449
 10
35.0020
 20
125.439
 30
-2.78282e-14
  70
    32
  0
VERTEX
  8
0
  5
244A
 10
35.0015
 20
125.442
 30
-2.78313e-14
  70
    32
  0
VERTEX
  8
0
  5
244B
 10
35.0010
 20
125.445
 30
-2.78343e-14
  70
    32
  0
VERTEX
  8
0
  5
244C
 10
35.0004
 20
125.448
 30
-2.78372e-14
  70
    32
  0
VERTEX
  8
0
  5
244D
 10
34.9999
 20
125.451
 30
-2.78400e-14
  70
    32
  0
VERTEX
  8
0
  5
244E
 10
34.9994
 20
125.454
 30
-2.78428e-14
  70
    32
  0
VERTEX
  8
0
  5
244F
 10
34.9989
 20
125.457
 30
-2.78454e-14
  70
    32
  0
VERTEX
  8
0
  5
2450
 10
34.9983
 20
125.460
 30
-2.78480e-14
  70
    32
  0
VERTEX
  8
0
  5
2451
 10
34.9978
 20
125.463
 30
-2.78505e-14
  70
    32
  0
VERTEX
  8
0
  5
2452
 10
34.9973
 20
125.466
 30
-2.78529e-14
  70
    32
  0
VERTEX
  8
0
  5
2453
 10
34.9968
 20
125.469
 30
-2.78552e-14
  70
    32
  0
VERTEX
  8
0
  5
2454
 10
34.9963
 20
125.472
 30
-2.78575e-14
  70
    32
  0
VERTEX
  8
0
  5
2455
 10
34.9957
 20
125.475
 30
-2.78597e-14
  70
    32
  0
VERTEX
  8
0
  5
2456
 10
34.9952
 20
125.478
 30
-2.78618e-14
  70
    32
  0
VERTEX
  8
0
  5
2457
 10
34.9947
 20
125.481
 30
-2.78638e-14
  70
    32
  0
VERTEX
  8
0
  5
2458
 10
34.9942
 20
125.484
 30
-2.78657e-14
  70
    32
  0
VERTEX
  8
0
  5
2459
 10
34.9937
 20
125.487
 30
-2.78676e-14
  70
    32
  0
VERTEX
  8
0
  5
245A
 10
34.9932
 20
125.490
 30
-2.78694e-14
  70
    32
  0
VERTEX
  8
0
  5
245B
 10
34.9927
 20
125.493
 30
-2.78712e-14
  70
    32
  0
VERTEX
  8
0
  5
245C
 10
34.9922
 20
125.496
 30
-2.78729e-14
  70
    32
  0
VERTEX
  8
0
  5
245D
 10
34.9917
 20
125.499
 30
-2.78745e-14
  70
    32
  0
VERTEX
  8
0
  5
245E
 10
34.9911
 20
125.502
 30
-2.78760e-14
  70
    32
  0
VERTEX
  8
0
  5
245F
 10
34.9906
 20
125.505
 30
-2.78775e-14
  70
    32
  0
VERTEX
  8
0
  5
2460
 10
34.9901
 20
125.508
 30
-2.78789e-14
  70
    32
  0
VERTEX
  8
0
  5
2461
 10
34.9896
 20
125.511
 30
-2.78803e-14
  70
    32
  0
VERTEX
  8
0
  5
2462
 10
34.9891
 20
125.514
 30
-2.78816e-14
  70
    32
  0
VERTEX
  8
0
  5
2463
 10
34.9886
 20
125.517
 30
-2.78828e-14
  70
    32
  0
VERTEX
  8
0
  5
2464
 10
34.9881
 20
125.520
 30
-2.78840e-14
  70
    32
  0
VERTEX
  8
0
  5
2465
 10
34.9876
 20
125.523
 30
-2.78851e-14
  70
    32
  0
VERTEX
  8
0
  5
2466
 10
34.9872
 20
125.526
 30
-2.78862e-14
  70
    32
  0
VERTEX
  8
0
  5
2467
 10
34.9867
 20
125.529
 30
-2.78872e-14
  70
    32
  0
VERTEX
  8
0
  5
2468
 10
34.9862
 20
125.532
 30
-2.78882e-14
  70
    32
  0
VERTEX
  8
0
  5
2469
 10
34.9857
 20
125.535
 30
-2.78891e-14
  70
    32
  0
VERTEX
  8
0
  5
246A
 10
34.9852
 20
125.538
 30
-2.78900e-14
  70
    32
  0
VERTEX
  8
0
  5
246B
 10
34.9847
 20
125.541
 30
-2.78908e-14
  70
    32
  0
VERTEX
  8
0
  5
246C
 10
34.9842
 20
125.544
 30
-2.78916e-14
  70
    32
  0
VERTEX
  8
0
  5
246D
 10
34.9837
 20
125.547
 30
-2.78923e-14
  70
    32
  0
VERTEX
  8
0
  5
246E
 10
34.9832
 20
125.550
 30
-2.78930e-14
  70
    32
  0
VERTEX
  8
0
  5
246F
 10
34.9828
 20
125.553
 30
-2.78936e-14
  70
    32
  0
VERTEX
  8
0
  5
2470
 10
34.9823
 20
125.556
 30
-2.78942e-14
  70
    32
  0
VERTEX
  8
0
  5
2471
 10
34.9818
 20
125.559
 30
-2.78948e-14
  70
    32
  0
VERTEX
  8
0
  5
2472
 10
34.9813
 20
125.562
 30
-2.78953e-14
  70
    32
  0
VERTEX
  8
0
  5
2473
 10
34.9808
 20
125.565
 30
-2.78958e-14
  70
    32
  0
VERTEX
  8
0
  5
2474
 10
34.9804
 20
125.568
 30
-2.78963e-14
  70
    32
  0
VERTEX
  8
0
  5
2475
 10
34.9799
 20
125.571
 30
-2.78967e-14
  70
    32
  0
VERTEX
  8
0
  5
2476
 10
34.9794
 20
125.574
 30
-2.78971e-14
  70
    32
  0
VERTEX
  8
0
  5
2477
 10
34.9789
 20
125.577
 30
-2.78974e-14
  70
    32
  0
VERTEX
  8
0
  5
2478
 10
34.9785
 20
125.580
 30
-2.78978e-14
  70
    32
  0
VERTEX
  8
0
  5
2479
 10
34.9780
 20
125.583
 30
-2.78981e-14
  70
    32
  0
VERTEX
  8
0
  5
247A
 10
34.9775
 20
125.586
 30
-2.78983e-14
  70
    32
  0
VERTEX
  8
0
  5
247B
 10
34.9771
 20
125.589
 30
-2.78986e-14
  70
    32
  0
VERTEX
  8
0
  5
247C
 10
34.9766
 20
125.592
 30
-2.78988e-14
  70
    32
  0
VERTEX
  8
0
  5
247D
 10
34.9761
 20
125.595
 30
-2.78990e-14
  70
    32
  0
VERTEX
  8
0
  5
247E
 10
34.9757
 20
125.598
 30
-2.78992e-14
  70
    32
  0
VERTEX
  8
0
  5
247F
 10
34.9752
 20
125.601
 30
-2.78993e-14
  70
    32
  0
VERTEX
  8
0
  5
2480
 10
34.9748
 20
125.604
 30
-2.78994e-14
  70
    32
  0
VERTEX
  8
0
  5
2481
 10
34.9743
 20
125.607
 30
-2.78996e-14
  70
    32
  0
VERTEX
  8
0
  5
2482
 10
34.9738
 20
125.610
 30
-2.78997e-14
  70
    32
  0
VERTEX
  8
0
  5
2483
 10
34.9734
 20
125.613
 30
-2.78997e-14
  70
    32
  0
VERTEX
  8
0
  5
2484
 10
34.9729
 20
125.617
 30
-2.78998e-14
  70
    32
  0
VERTEX
  8
0
  5
2485
 10
34.9725
 20
125.620
 30
-2.78999e-14
  70
    32
  0
VERTEX
  8
0
  5
2486
 10
34.9720
 20
125.623
 30
-2.78999e-14
  70
    32
  0
VERTEX
  8
0
  5
2487
 10
34.9716
 20
125.626
 30
-2.78999e-14
  70
    32
  0
VERTEX
  8
0
  5
2488
 10
34.9711
 20
125.629
 30
-2.79000e-14
  70
    32
  0
VERTEX
  8
0
  5
2489
 10
34.9707
 20
125.632
 30
-2.79000e-14
  70
    32
  0
VERTEX
  8
0
  5
248A
 10
34.9702
 20
125.635
 30
-2.79000e-14
  70
    32
  0
VERTEX
  8
0
  5
248B
 10
34.9698
 20
125.638
 30
-2.79000e-14
  70
    32
  0
VERTEX
  8
0
  5
248C
 10
34.9693
 20
125.641
 30
-2.79000e-14
  70
    32
  0
VERTEX
  8
0
  5
248D
 10
34.9689
 20
125.644
 30
-2.79000e-14
  70
    32
  0
VERTEX
  8
0
  5
248E
 10
34.9685
 20
125.647
 30
-2.79000e-14
  70
    32
  0
VERTEX
  8
0
  5
248F
 10
34.9680
 20
125.650
 30
-2.79000e-14
  70
    32
  0
VERTEX
  8
0
  5
2490
 10
34.9676
 20
125.653
 30
-2.79000e-14
  70
    32
  0
VERTEX
  8
0
  5
2491
 10
34.9671
 20
125.656
 30
-2.79000e-14
  70
    32
  0
VERTEX
  8
0
  5
2492
 10
34.9667
 20
125.659
 30
-2.79000e-14
  70
    32
  0
VERTEX
  8
0
  5
2493
 10
34.9663
 20
125.662
 30
-2.79000e-14
  70
    32
  0
VERTEX
  8
0
  5
2494
 10
34.9658
 20
125.665
 30
-2.79000e-14
  70
    32
  0
VERTEX
  8
0
  5
2495
 10
34.9654
 20
125.668
 30
-2.79000e-14
  70
    32
  0
VERTEX
  8
0
  5
2496
 10
34.9650
 20
125.671
 30
-2.79001e-14
  70
    32
  0
VERTEX
  8
0
  5
2497
 10
34.9646
 20
125.674
 30
-2.79001e-14
  70
    32
  0
VERTEX
  8
0
  5
2498
 10
34.9641
 20
125.677
 30
-2.79001e-14
  70
    32
  0
VERTEX
  8
0
  5
2499
 10
34.9637
 20
125.680
 30
-2.79002e-14
  70
    32
  0
VERTEX
  8
0
  5
249A
 10
34.9633
 20
125.683
 30
-2.79002e-14
  70
    32
  0
VERTEX
  8
0
  5
249B
 10
34.9628
 20
125.686
 30
-2.79003e-14
  70
    32
  0
VERTEX
  8
0
  5
249C
 10
34.9624
 20
125.689
 30
-2.79003e-14
  70
    32
  0
VERTEX
  8
0
  5
249D
 10
34.9620
 20
125.692
 30
-2.79004e-14
  70
    32
  0
VERTEX
  8
0
  5
249E
 10
34.9616
 20
125.695
 30
-2.79005e-14
  70
    32
  0
VERTEX
  8
0
  5
249F
 10
34.9612
 20
125.698
 30
-2.79006e-14
  70
    32
  0
VERTEX
  8
0
  5
24A0
 10
34.9607
 20
125.702
 30
-2.79007e-14
  70
    32
  0
VERTEX
  8
0
  5
24A1
 10
34.9603
 20
125.705
 30
-2.79008e-14
  70
    32
  0
VERTEX
  8
0
  5
24A2
 10
34.9599
 20
125.708
 30
-2.79009e-14
  70
    32
  0
VERTEX
  8
0
  5
24A3
 10
34.9595
 20
125.711
 30
-2.79011e-14
  70
    32
  0
VERTEX
  8
0
  5
24A4
 10
34.9591
 20
125.714
 30
-2.79013e-14
  70
    32
  0
VERTEX
  8
0
  5
24A5
 10
34.9587
 20
125.717
 30
-2.79014e-14
  70
    32
  0
VERTEX
  8
0
  5
24A6
 10
34.9583
 20
125.720
 30
-2.79016e-14
  70
    32
  0
VERTEX
  8
0
  5
24A7
 10
34.9579
 20
125.723
 30
-2.79018e-14
  70
    32
  0
VERTEX
  8
0
  5
24A8
 10
34.9575
 20
125.726
 30
-2.79020e-14
  70
    32
  0
VERTEX
  8
0
  5
24A9
 10
34.9571
 20
125.729
 30
-2.79023e-14
  70
    32
  0
VERTEX
  8
0
  5
24AA
 10
34.9567
 20
125.732
 30
-2.79025e-14
  70
    32
  0
VERTEX
  8
0
  5
24AB
 10
34.9563
 20
125.735
 30
-2.79028e-14
  70
    32
  0
VERTEX
  8
0
  5
24AC
 10
34.9559
 20
125.738
 30
-2.79031e-14
  70
    32
  0
VERTEX
  8
0
  5
24AD
 10
34.9555
 20
125.741
 30
-2.79034e-14
  70
    32
  0
VERTEX
  8
0
  5
24AE
 10
34.9551
 20
125.744
 30
-2.79038e-14
  70
    32
  0
VERTEX
  8
0
  5
24AF
 10
34.9547
 20
125.747
 30
-2.79041e-14
  70
    32
  0
VERTEX
  8
0
  5
24B0
 10
34.9543
 20
125.750
 30
-2.79045e-14
  70
    32
  0
VERTEX
  8
0
  5
24B1
 10
34.9539
 20
125.753
 30
-2.79049e-14
  70
    32
  0
VERTEX
  8
0
  5
24B2
 10
34.9535
 20
125.756
 30
-2.79054e-14
  70
    32
  0
VERTEX
  8
0
  5
24B3
 10
34.9531
 20
125.759
 30
-2.79058e-14
  70
    32
  0
VERTEX
  8
0
  5
24B4
 10
34.9527
 20
125.762
 30
-2.79063e-14
  70
    32
  0
VERTEX
  8
0
  5
24B5
 10
34.9523
 20
125.766
 30
-2.79068e-14
  70
    32
  0
VERTEX
  8
0
  5
24B6
 10
34.9519
 20
125.769
 30
-2.79073e-14
  70
    32
  0
VERTEX
  8
0
  5
24B7
 10
34.9515
 20
125.772
 30
-2.79079e-14
  70
    32
  0
VERTEX
  8
0
  5
24B8
 10
34.9512
 20
125.775
 30
-2.79085e-14
  70
    32
  0
VERTEX
  8
0
  5
24B9
 10
34.9508
 20
125.778
 30
-2.79091e-14
  70
    32
  0
VERTEX
  8
0
  5
24BA
 10
34.9504
 20
125.781
 30
-2.79097e-14
  70
    32
  0
VERTEX
  8
0
  5
24BB
 10
34.9500
 20
125.784
 30
-2.79104e-14
  70
    32
  0
VERTEX
  8
0
  5
24BC
 10
34.9496
 20
125.787
 30
-2.79111e-14
  70
    32
  0
VERTEX
  8
0
  5
24BD
 10
34.9493
 20
125.790
 30
-2.79118e-14
  70
    32
  0
VERTEX
  8
0
  5
24BE
 10
34.9489
 20
125.793
 30
-2.79126e-14
  70
    32
  0
VERTEX
  8
0
  5
24BF
 10
34.9485
 20
125.796
 30
-2.79134e-14
  70
    32
  0
VERTEX
  8
0
  5
24C0
 10
34.9481
 20
125.799
 30
-2.79142e-14
  70
    32
  0
VERTEX
  8
0
  5
24C1
 10
34.9478
 20
125.802
 30
-2.79151e-14
  70
    32
  0
VERTEX
  8
0
  5
24C2
 10
34.9474
 20
125.805
 30
-2.79160e-14
  70
    32
  0
VERTEX
  8
0
  5
24C3
 10
34.9470
 20
125.808
 30
-2.79169e-14
  70
    32
  0
VERTEX
  8
0
  5
24C4
 10
34.9467
 20
125.811
 30
-2.79179e-14
  70
    32
  0
VERTEX
  8
0
  5
24C5
 10
34.9463
 20
125.815
 30
-2.79189e-14
  70
    32
  0
VERTEX
  8
0
  5
24C6
 10
34.9459
 20
125.818
 30
-2.79200e-14
  70
    32
  0
VERTEX
  8
0
  5
24C7
 10
34.9456
 20
125.821
 30
-2.79210e-14
  70
    32
  0
VERTEX
  8
0
  5
24C8
 10
34.9452
 20
125.824
 30
-2.79222e-14
  70
    32
  0
VERTEX
  8
0
  5
24C9
 10
34.9448
 20
125.827
 30
-2.79233e-14
  70
    32
  0
VERTEX
  8
0
  5
24CA
 10
34.9445
 20
125.830
 30
-2.79245e-14
  70
    32
  0
VERTEX
  8
0
  5
24CB
 10
34.9441
 20
125.833
 30
-2.79258e-14
  70
    32
  0
VERTEX
  8
0
  5
24CC
 10
34.9438
 20
125.836
 30
-2.79270e-14
  70
    32
  0
VERTEX
  8
0
  5
24CD
 10
34.9434
 20
125.839
 30
-2.79283e-14
  70
    32
  0
VERTEX
  8
0
  5
24CE
 10
34.9431
 20
125.842
 30
-2.79297e-14
  70
    32
  0
VERTEX
  8
0
  5
24CF
 10
34.9427
 20
125.845
 30
-2.79311e-14
  70
    32
  0
VERTEX
  8
0
  5
24D0
 10
34.9424
 20
125.848
 30
-2.79326e-14
  70
    32
  0
VERTEX
  8
0
  5
24D1
 10
34.9420
 20
125.851
 30
-2.79341e-14
  70
    32
  0
VERTEX
  8
0
  5
24D2
 10
34.9417
 20
125.854
 30
-2.79356e-14
  70
    32
  0
VERTEX
  8
0
  5
24D3
 10
34.9413
 20
125.857
 30
-2.79372e-14
  70
    32
  0
VERTEX
  8
0
  5
24D4
 10
34.9410
 20
125.861
 30
-2.79388e-14
  70
    32
  0
VERTEX
  8
0
  5
24D5
 10
34.9406
 20
125.864
 30
-2.79405e-14
  70
    32
  0
VERTEX
  8
0
  5
24D6
 10
34.9403
 20
125.867
 30
-2.79422e-14
  70
    32
  0
VERTEX
  8
0
  5
24D7
 10
34.9400
 20
125.870
 30
-2.79440e-14
  70
    32
  0
VERTEX
  8
0
  5
24D8
 10
34.9396
 20
125.873
 30
-2.79458e-14
  70
    32
  0
VERTEX
  8
0
  5
24D9
 10
34.9393
 20
125.876
 30
-2.79477e-14
  70
    32
  0
VERTEX
  8
0
  5
24DA
 10
34.9389
 20
125.879
 30
-2.79496e-14
  70
    32
  0
VERTEX
  8
0
  5
24DB
 10
34.9386
 20
125.882
 30
-2.79516e-14
  70
    32
  0
VERTEX
  8
0
  5
24DC
 10
34.9383
 20
125.885
 30
-2.79534e-14
  70
    32
  0
VERTEX
  8
0
  5
24DD
 10
34.9379
 20
125.888
 30
-2.79553e-14
  70
    32
  0
VERTEX
  8
0
  5
24DE
 10
34.9376
 20
125.891
 30
-2.79571e-14
  70
    32
  0
VERTEX
  8
0
  5
24DF
 10
34.9373
 20
125.894
 30
-2.79588e-14
  70
    32
  0
VERTEX
  8
0
  5
24E0
 10
34.9369
 20
125.897
 30
-2.79605e-14
  70
    32
  0
VERTEX
  8
0
  5
24E1
 10
34.9366
 20
125.900
 30
-2.79622e-14
  70
    32
  0
VERTEX
  8
0
  5
24E2
 10
34.9363
 20
125.904
 30
-2.79638e-14
  70
    32
  0
VERTEX
  8
0
  5
24E3
 10
34.9360
 20
125.907
 30
-2.79653e-14
  70
    32
  0
VERTEX
  8
0
  5
24E4
 10
34.9357
 20
125.910
 30
-2.79668e-14
  70
    32
  0
VERTEX
  8
0
  5
24E5
 10
34.9353
 20
125.913
 30
-2.79683e-14
  70
    32
  0
VERTEX
  8
0
  5
24E6
 10
34.9350
 20
125.916
 30
-2.79697e-14
  70
    32
  0
VERTEX
  8
0
  5
24E7
 10
34.9347
 20
125.919
 30
-2.79711e-14
  70
    32
  0
VERTEX
  8
0
  5
24E8
 10
34.9344
 20
125.922
 30
-2.79724e-14
  70
    32
  0
VERTEX
  8
0
  5
24E9
 10
34.9341
 20
125.925
 30
-2.79737e-14
  70
    32
  0
VERTEX
  8
0
  5
24EA
 10
34.9337
 20
125.928
 30
-2.79750e-14
  70
    32
  0
VERTEX
  8
0
  5
24EB
 10
34.9334
 20
125.931
 30
-2.79762e-14
  70
    32
  0
VERTEX
  8
0
  5
24EC
 10
34.9331
 20
125.934
 30
-2.79774e-14
  70
    32
  0
VERTEX
  8
0
  5
24ED
 10
34.9328
 20
125.937
 30
-2.79785e-14
  70
    32
  0
VERTEX
  8
0
  5
24EE
 10
34.9325
 20
125.941
 30
-2.79796e-14
  70
    32
  0
VERTEX
  8
0
  5
24EF
 10
34.9322
 20
125.944
 30
-2.79807e-14
  70
    32
  0
VERTEX
  8
0
  5
24F0
 10
34.9319
 20
125.947
 30
-2.79817e-14
  70
    32
  0
VERTEX
  8
0
  5
24F1
 10
34.9316
 20
125.950
 30
-2.79827e-14
  70
    32
  0
VERTEX
  8
0
  5
24F2
 10
34.9313
 20
125.953
 30
-2.79836e-14
  70
    32
  0
VERTEX
  8
0
  5
24F3
 10
34.9310
 20
125.956
 30
-2.79845e-14
  70
    32
  0
VERTEX
  8
0
  5
24F4
 10
34.9307
 20
125.959
 30
-2.79854e-14
  70
    32
  0
VERTEX
  8
0
  5
24F5
 10
34.9304
 20
125.962
 30
-2.79863e-14
  70
    32
  0
VERTEX
  8
0
  5
24F6
 10
34.9301
 20
125.965
 30
-2.79871e-14
  70
    32
  0
VERTEX
  8
0
  5
24F7
 10
34.9298
 20
125.968
 30
-2.79879e-14
  70
    32
  0
VERTEX
  8
0
  5
24F8
 10
34.9295
 20
125.971
 30
-2.79886e-14
  70
    32
  0
VERTEX
  8
0
  5
24F9
 10
34.9292
 20
125.974
 30
-2.79893e-14
  70
    32
  0
VERTEX
  8
0
  5
24FA
 10
34.9289
 20
125.978
 30
-2.79900e-14
  70
    32
  0
VERTEX
  8
0
  5
24FB
 10
34.9286
 20
125.981
 30
-2.79907e-14
  70
    32
  0
VERTEX
  8
0
  5
24FC
 10
34.9283
 20
125.984
 30
-2.79913e-14
  70
    32
  0
VERTEX
  8
0
  5
24FD
 10
34.9281
 20
125.987
 30
-2.79919e-14
  70
    32
  0
VERTEX
  8
0
  5
24FE
 10
34.9278
 20
125.990
 30
-2.79924e-14
  70
    32
  0
VERTEX
  8
0
  5
24FF
 10
34.9275
 20
125.993
 30
-2.79930e-14
  70
    32
  0
VERTEX
  8
0
  5
2500
 10
34.9272
 20
125.996
 30
-2.79935e-14
  70
    32
  0
VERTEX
  8
0
  5
2501
 10
34.9269
 20
125.999
 30
-2.79940e-14
  70
    32
  0
VERTEX
  8
0
  5
2502
 10
34.9266
 20
126.002
 30
-2.79945e-14
  70
    32
  0
VERTEX
  8
0
  5
2503
 10
34.9264
 20
126.005
 30
-2.79949e-14
  70
    32
  0
VERTEX
  8
0
  5
2504
 10
34.9261
 20
126.008
 30
-2.79953e-14
  70
    32
  0
VERTEX
  8
0
  5
2505
 10
34.9258
 20
126.012
 30
-2.79957e-14
  70
    32
  0
VERTEX
  8
0
  5
2506
 10
34.9255
 20
126.015
 30
-2.79961e-14
  70
    32
  0
VERTEX
  8
0
  5
2507
 10
34.9253
 20
126.018
 30
-2.79964e-14
  70
    32
  0
VERTEX
  8
0
  5
2508
 10
34.9250
 20
126.021
 30
-2.79967e-14
  70
    32
  0
VERTEX
  8
0
  5
2509
 10
34.9247
 20
126.024
 30
-2.79971e-14
  70
    32
  0
VERTEX
  8
0
  5
250A
 10
34.9245
 20
126.027
 30
-2.79973e-14
  70
    32
  0
VERTEX
  8
0
  5
250B
 10
34.9242
 20
126.030
 30
-2.79976e-14
  70
    32
  0
VERTEX
  8
0
  5
250C
 10
34.9239
 20
126.033
 30
-2.79979e-14
  70
    32
  0
VERTEX
  8
0
  5
250D
 10
34.9237
 20
126.036
 30
-2.79981e-14
  70
    32
  0
VERTEX
  8
0
  5
250E
 10
34.9234
 20
126.039
 30
-2.79983e-14
  70
    32
  0
VERTEX
  8
0
  5
250F
 10
34.9231
 20
126.043
 30
-2.79985e-14
  70
    32
  0
VERTEX
  8
0
  5
2510
 10
34.9229
 20
126.046
 30
-2.79987e-14
  70
    32
  0
VERTEX
  8
0
  5
2511
 10
34.9226
 20
126.049
 30
-2.79988e-14
  70
    32
  0
VERTEX
  8
0
  5
2512
 10
34.9224
 20
126.052
 30
-2.79990e-14
  70
    32
  0
VERTEX
  8
0
  5
2513
 10
34.9221
 20
126.055
 30
-2.79991e-14
  70
    32
  0
VERTEX
  8
0
  5
2514
 10
34.9219
 20
126.058
 30
-2.79993e-14
  70
    32
  0
VERTEX
  8
0
  5
2515
 10
34.9216
 20
126.061
 30
-2.79994e-14
  70
    32
  0
VERTEX
  8
0
  5
2516
 10
34.9214
 20
126.064
 30
-2.79995e-14
  70
    32
  0
VERTEX
  8
0
  5
2517
 10
34.9211
 20
126.067
 30
-2.79996e-14
  70
    32
  0
VERTEX
  8
0
  5
2518
 10
34.9209
 20
126.070
 30
-2.79996e-14
  70
    32
  0
VERTEX
  8
0
  5
2519
 10
34.9206
 20
126.073
 30
-2.79997e-14
  70
    32
  0
VERTEX
  8
0
  5
251A
 10
34.9204
 20
126.077
 30
-2.79998e-14
  70
    32
  0
VERTEX
  8
0
  5
251B
 10
34.9201
 20
126.080
 30
-2.79998e-14
  70
    32
  0
VERTEX
  8
0
  5
251C
 10
34.9199
 20
126.083
 30
-2.79999e-14
  70
    32
  0
VERTEX
  8
0
  5
251D
 10
34.9196
 20
126.086
 30
-2.79999e-14
  70
    32
  0
VERTEX
  8
0
  5
251E
 10
34.9194
 20
126.089
 30
-2.79999e-14
  70
    32
  0
VERTEX
  8
0
  5
251F
 10
34.9192
 20
126.092
 30
-2.79999e-14
  70
    32
  0
VERTEX
  8
0
  5
2520
 10
34.9189
 20
126.095
 30
-2.80000e-14
  70
    32
  0
VERTEX
  8
0
  5
2521
 10
34.9187
 20
126.098
 30
-2.80000e-14
  70
    32
  0
VERTEX
  8
0
  5
2522
 10
34.9185
 20
126.101
 30
-2.80000e-14
  70
    32
  0
VERTEX
  8
0
  5
2523
 10
34.9182
 20
126.105
 30
-2.80000e-14
  70
    32
  0
VERTEX
  8
0
  5
2524
 10
34.9180
 20
126.108
 30
-2.80000e-14
  70
    32
  0
VERTEX
  8
0
  5
2525
 10
34.9178
 20
126.111
 30
-2.80000e-14
  70
    32
  0
VERTEX
  8
0
  5
2526
 10
34.9175
 20
126.114
 30
-2.80000e-14
  70
    32
  0
VERTEX
  8
0
  5
2527
 10
34.9173
 20
126.117
 30
-2.80000e-14
  70
    32
  0
VERTEX
  8
0
  5
2528
 10
34.9171
 20
126.120
 30
-2.80000e-14
  70
    32
  0
VERTEX
  8
0
  5
2529
 10
34.9169
 20
126.123
 30
-2.80000e-14
  70
    32
  0
VERTEX
  8
0
  5
252A
 10
34.9166
 20
126.126
 30
-2.80000e-14
  70
    32
  0
VERTEX
  8
0
  5
252B
 10
34.9164
 20
126.129
 30
-2.80000e-14
  70
    32
  0
VERTEX
  8
0
  5
252C
 10
34.9162
 20
126.132
 30
-2.80000e-14
  70
    32
  0
VERTEX
  8
0
  5
252D
 10
34.9160
 20
126.136
 30
-2.80000e-14
  70
    32
  0
VERTEX
  8
0
  5
252E
 10
34.9158
 20
126.139
 30
-2.80000e-14
  70
    32
  0
VERTEX
  8
0
  5
252F
 10
34.9156
 20
126.142
 30
-2.80001e-14
  70
    32
  0
VERTEX
  8
0
  5
2530
 10
34.9153
 20
126.145
 30
-2.80001e-14
  70
    32
  0
VERTEX
  8
0
  5
2531
 10
34.9151
 20
126.148
 30
-2.80001e-14
  70
    32
  0
VERTEX
  8
0
  5
2532
 10
34.9149
 20
126.151
 30
-2.80002e-14
  70
    32
  0
VERTEX
  8
0
  5
2533
 10
34.9147
 20
126.154
 30
-2.80002e-14
  70
    32
  0
VERTEX
  8
0
  5
2534
 10
34.9145
 20
126.157
 30
-2.80003e-14
  70
    32
  0
VERTEX
  8
0
  5
2535
 10
34.9143
 20
126.160
 30
-2.80003e-14
  70
    32
  0
VERTEX
  8
0
  5
2536
 10
34.9141
 20
126.164
 30
-2.80004e-14
  70
    32
  0
VERTEX
  8
0
  5
2537
 10
34.9139
 20
126.167
 30
-2.80005e-14
  70
    32
  0
VERTEX
  8
0
  5
2538
 10
34.9137
 20
126.170
 30
-2.80006e-14
  70
    32
  0
VERTEX
  8
0
  5
2539
 10
34.9135
 20
126.173
 30
-2.80007e-14
  70
    32
  0
VERTEX
  8
0
  5
253A
 10
34.9133
 20
126.176
 30
-2.80008e-14
  70
    32
  0
VERTEX
  8
0
  5
253B
 10
34.9131
 20
126.179
 30
-2.80009e-14
  70
    32
  0
VERTEX
  8
0
  5
253C
 10
34.9129
 20
126.182
 30
-2.80011e-14
  70
    32
  0
VERTEX
  8
0
  5
253D
 10
34.9127
 20
126.185
 30
-2.80012e-14
  70
    32
  0
VERTEX
  8
0
  5
253E
 10
34.9125
 20
126.188
 30
-2.80014e-14
  70
    32
  0
VERTEX
  8
0
  5
253F
 10
34.9123
 20
126.192
 30
-2.80016e-14
  70
    32
  0
VERTEX
  8
0
  5
2540
 10
34.9121
 20
126.195
 30
-2.80018e-14
  70
    32
  0
VERTEX
  8
0
  5
2541
 10
34.9119
 20
126.198
 30
-2.80020e-14
  70
    32
  0
VERTEX
  8
0
  5
2542
 10
34.9118
 20
126.201
 30
-2.80022e-14
  70
    32
  0
VERTEX
  8
0
  5
2543
 10
34.9116
 20
126.204
 30
-2.80025e-14
  70
    32
  0
VERTEX
  8
0
  5
2544
 10
34.9114
 20
126.207
 30
-2.80028e-14
  70
    32
  0
VERTEX
  8
0
  5
2545
 10
34.9112
 20
126.210
 30
-2.80031e-14
  70
    32
  0
VERTEX
  8
0
  5
2546
 10
34.9110
 20
126.213
 30
-2.80034e-14
  70
    32
  0
VERTEX
  8
0
  5
2547
 10
34.9108
 20
126.216
 30
-2.80037e-14
  70
    32
  0
VERTEX
  8
0
  5
2548
 10
34.9107
 20
126.220
 30
-2.80041e-14
  70
    32
  0
VERTEX
  8
0
  5
2549
 10
34.9105
 20
126.223
 30
-2.80045e-14
  70
    32
  0
VERTEX
  8
0
  5
254A
 10
34.9103
 20
126.226
 30
-2.80049e-14
  70
    32
  0
VERTEX
  8
0
  5
254B
 10
34.9101
 20
126.229
 30
-2.80053e-14
  70
    32
  0
VERTEX
  8
0
  5
254C
 10
34.9100
 20
126.232
 30
-2.80057e-14
  70
    32
  0
VERTEX
  8
0
  5
254D
 10
34.9098
 20
126.235
 30
-2.80062e-14
  70
    32
  0
VERTEX
  8
0
  5
254E
 10
34.9096
 20
126.238
 30
-2.80067e-14
  70
    32
  0
VERTEX
  8
0
  5
254F
 10
34.9095
 20
126.241
 30
-2.80072e-14
  70
    32
  0
VERTEX
  8
0
  5
2550
 10
34.9093
 20
126.244
 30
-2.80078e-14
  70
    32
  0
VERTEX
  8
0
  5
2551
 10
34.9091
 20
126.248
 30
-2.80084e-14
  70
    32
  0
VERTEX
  8
0
  5
2552
 10
34.9090
 20
126.251
 30
-2.80090e-14
  70
    32
  0
VERTEX
  8
0
  5
2553
 10
34.9088
 20
126.254
 30
-2.80096e-14
  70
    32
  0
VERTEX
  8
0
  5
2554
 10
34.9086
 20
126.257
 30
-2.80103e-14
  70
    32
  0
VERTEX
  8
0
  5
2555
 10
34.9085
 20
126.260
 30
-2.80110e-14
  70
    32
  0
VERTEX
  8
0
  5
2556
 10
34.9083
 20
126.263
 30
-2.80117e-14
  70
    32
  0
VERTEX
  8
0
  5
2557
 10
34.9082
 20
126.266
 30
-2.80125e-14
  70
    32
  0
VERTEX
  8
0
  5
2558
 10
34.9080
 20
126.269
 30
-2.80132e-14
  70
    32
  0
VERTEX
  8
0
  5
2559
 10
34.9079
 20
126.272
 30
-2.80141e-14
  70
    32
  0
VERTEX
  8
0
  5
255A
 10
34.9077
 20
126.276
 30
-2.80149e-14
  70
    32
  0
VERTEX
  8
0
  5
255B
 10
34.9076
 20
126.279
 30
-2.80158e-14
  70
    32
  0
VERTEX
  8
0
  5
255C
 10
34.9074
 20
126.282
 30
-2.80168e-14
  70
    32
  0
VERTEX
  8
0
  5
255D
 10
34.9073
 20
126.285
 30
-2.80177e-14
  70
    32
  0
VERTEX
  8
0
  5
255E
 10
34.9071
 20
126.288
 30
-2.80187e-14
  70
    32
  0
VERTEX
  8
0
  5
255F
 10
34.9070
 20
126.291
 30
-2.80197e-14
  70
    32
  0
VERTEX
  8
0
  5
2560
 10
34.9068
 20
126.294
 30
-2.80208e-14
  70
    32
  0
VERTEX
  8
0
  5
2561
 10
34.9067
 20
126.297
 30
-2.80219e-14
  70
    32
  0
VERTEX
  8
0
  5
2562
 10
34.9066
 20
126.301
 30
-2.80231e-14
  70
    32
  0
VERTEX
  8
0
  5
2563
 10
34.9064
 20
126.304
 30
-2.80243e-14
  70
    32
  0
VERTEX
  8
0
  5
2564
 10
34.9063
 20
126.307
 30
-2.80255e-14
  70
    32
  0
VERTEX
  8
0
  5
2565
 10
34.9061
 20
126.310
 30
-2.80268e-14
  70
    32
  0
VERTEX
  8
0
  5
2566
 10
34.9060
 20
126.313
 30
-2.80281e-14
  70
    32
  0
VERTEX
  8
0
  5
2567
 10
34.9059
 20
126.316
 30
-2.80294e-14
  70
    32
  0
VERTEX
  8
0
  5
2568
 10
34.9057
 20
126.319
 30
-2.80308e-14
  70
    32
  0
VERTEX
  8
0
  5
2569
 10
34.9056
 20
126.322
 30
-2.80323e-14
  70
    32
  0
VERTEX
  8
0
  5
256A
 10
34.9055
 20
126.326
 30
-2.80338e-14
  70
    32
  0
VERTEX
  8
0
  5
256B
 10
34.9054
 20
126.329
 30
-2.80353e-14
  70
    32
  0
VERTEX
  8
0
  5
256C
 10
34.9052
 20
126.332
 30
-2.80369e-14
  70
    32
  0
VERTEX
  8
0
  5
256D
 10
34.9051
 20
126.335
 30
-2.80385e-14
  70
    32
  0
VERTEX
  8
0
  5
256E
 10
34.9050
 20
126.338
 30
-2.80402e-14
  70
    32
  0
VERTEX
  8
0
  5
256F
 10
34.9049
 20
126.341
 30
-2.80419e-14
  70
    32
  0
VERTEX
  8
0
  5
2570
 10
34.9047
 20
126.344
 30
-2.80436e-14
  70
    32
  0
VERTEX
  8
0
  5
2571
 10
34.9046
 20
126.347
 30
-2.80454e-14
  70
    32
  0
VERTEX
  8
0
  5
2572
 10
34.9045
 20
126.350
 30
-2.80473e-14
  70
    32
  0
VERTEX
  8
0
  5
2573
 10
34.9044
 20
126.354
 30
-2.80492e-14
  70
    32
  0
VERTEX
  8
0
  5
2574
 10
34.9043
 20
126.357
 30
-2.80512e-14
  70
    32
  0
VERTEX
  8
0
  5
2575
 10
34.9042
 20
126.360
 30
-2.80531e-14
  70
    32
  0
VERTEX
  8
0
  5
2576
 10
34.9041
 20
126.363
 30
-2.80549e-14
  70
    32
  0
VERTEX
  8
0
  5
2577
 10
34.9040
 20
126.366
 30
-2.80567e-14
  70
    32
  0
VERTEX
  8
0
  5
2578
 10
34.9038
 20
126.369
 30
-2.80585e-14
  70
    32
  0
VERTEX
  8
0
  5
2579
 10
34.9037
 20
126.372
 30
-2.80602e-14
  70
    32
  0
VERTEX
  8
0
  5
257A
 10
34.9036
 20
126.375
 30
-2.80618e-14
  70
    32
  0
VERTEX
  8
0
  5
257B
 10
34.9035
 20
126.379
 30
-2.80635e-14
  70
    32
  0
VERTEX
  8
0
  5
257C
 10
34.9034
 20
126.382
 30
-2.80650e-14
  70
    32
  0
VERTEX
  8
0
  5
257D
 10
34.9033
 20
126.385
 30
-2.80665e-14
  70
    32
  0
VERTEX
  8
0
  5
257E
 10
34.9032
 20
126.388
 30
-2.80680e-14
  70
    32
  0
VERTEX
  8
0
  5
257F
 10
34.9031
 20
126.391
 30
-2.80694e-14
  70
    32
  0
VERTEX
  8
0
  5
2580
 10
34.9030
 20
126.394
 30
-2.80708e-14
  70
    32
  0
VERTEX
  8
0
  5
2581
 10
34.9029
 20
126.397
 30
-2.80722e-14
  70
    32
  0
VERTEX
  8
0
  5
2582
 10
34.9029
 20
126.400
 30
-2.80735e-14
  70
    32
  0
VERTEX
  8
0
  5
2583
 10
34.9028
 20
126.404
 30
-2.80747e-14
  70
    32
  0
VERTEX
  8
0
  5
2584
 10
34.9027
 20
126.407
 30
-2.80760e-14
  70
    32
  0
VERTEX
  8
0
  5
2585
 10
34.9026
 20
126.410
 30
-2.80772e-14
  70
    32
  0
VERTEX
  8
0
  5
2586
 10
34.9025
 20
126.413
 30
-2.80783e-14
  70
    32
  0
VERTEX
  8
0
  5
2587
 10
34.9024
 20
126.416
 30
-2.80794e-14
  70
    32
  0
VERTEX
  8
0
  5
2588
 10
34.9023
 20
126.419
 30
-2.80805e-14
  70
    32
  0
VERTEX
  8
0
  5
2589
 10
34.9022
 20
126.422
 30
-2.80815e-14
  70
    32
  0
VERTEX
  8
0
  5
258A
 10
34.9022
 20
126.425
 30
-2.80825e-14
  70
    32
  0
VERTEX
  8
0
  5
258B
 10
34.9021
 20
126.429
 30
-2.80834e-14
  70
    32
  0
VERTEX
  8
0
  5
258C
 10
34.9020
 20
126.432
 30
-2.80844e-14
  70
    32
  0
VERTEX
  8
0
  5
258D
 10
34.9019
 20
126.435
 30
-2.80852e-14
  70
    32
  0
VERTEX
  8
0
  5
258E
 10
34.9019
 20
126.438
 30
-2.80861e-14
  70
    32
  0
VERTEX
  8
0
  5
258F
 10
34.9018
 20
126.441
 30
-2.80869e-14
  70
    32
  0
VERTEX
  8
0
  5
2590
 10
34.9017
 20
126.444
 30
-2.80877e-14
  70
    32
  0
VERTEX
  8
0
  5
2591
 10
34.9016
 20
126.447
 30
-2.80885e-14
  70
    32
  0
VERTEX
  8
0
  5
2592
 10
34.9016
 20
126.450
 30
-2.80892e-14
  70
    32
  0
VERTEX
  8
0
  5
2593
 10
34.9015
 20
126.454
 30
-2.80899e-14
  70
    32
  0
VERTEX
  8
0
  5
2594
 10
34.9014
 20
126.457
 30
-2.80905e-14
  70
    32
  0
VERTEX
  8
0
  5
2595
 10
34.9014
 20
126.460
 30
-2.80912e-14
  70
    32
  0
VERTEX
  8
0
  5
2596
 10
34.9013
 20
126.463
 30
-2.80918e-14
  70
    32
  0
VERTEX
  8
0
  5
2597
 10
34.9012
 20
126.466
 30
-2.80923e-14
  70
    32
  0
VERTEX
  8
0
  5
2598
 10
34.9012
 20
126.469
 30
-2.80929e-14
  70
    32
  0
VERTEX
  8
0
  5
2599
 10
34.9011
 20
126.472
 30
-2.80934e-14
  70
    32
  0
VERTEX
  8
0
  5
259A
 10
34.9011
 20
126.476
 30
-2.80939e-14
  70
    32
  0
VERTEX
  8
0
  5
259B
 10
34.9010
 20
126.479
 30
-2.80944e-14
  70
    32
  0
VERTEX
  8
0
  5
259C
 10
34.9010
 20
126.482
 30
-2.80948e-14
  70
    32
  0
VERTEX
  8
0
  5
259D
 10
34.9009
 20
126.485
 30
-2.80952e-14
  70
    32
  0
VERTEX
  8
0
  5
259E
 10
34.9009
 20
126.488
 30
-2.80956e-14
  70
    32
  0
VERTEX
  8
0
  5
259F
 10
34.9008
 20
126.491
 30
-2.80960e-14
  70
    32
  0
VERTEX
  8
0
  5
25A0
 10
34.9008
 20
126.494
 30
-2.80964e-14
  70
    32
  0
VERTEX
  8
0
  5
25A1
 10
34.9007
 20
126.497
 30
-2.80967e-14
  70
    32
  0
VERTEX
  8
0
  5
25A2
 10
34.9007
 20
126.501
 30
-2.80970e-14
  70
    32
  0
VERTEX
  8
0
  5
25A3
 10
34.9006
 20
126.504
 30
-2.80973e-14
  70
    32
  0
VERTEX
  8
0
  5
25A4
 10
34.9006
 20
126.507
 30
-2.80976e-14
  70
    32
  0
VERTEX
  8
0
  5
25A5
 10
34.9005
 20
126.510
 30
-2.80978e-14
  70
    32
  0
VERTEX
  8
0
  5
25A6
 10
34.9005
 20
126.513
 30
-2.80980e-14
  70
    32
  0
VERTEX
  8
0
  5
25A7
 10
34.9005
 20
126.516
 30
-2.80983e-14
  70
    32
  0
VERTEX
  8
0
  5
25A8
 10
34.9004
 20
126.519
 30
-2.80985e-14
  70
    32
  0
VERTEX
  8
0
  5
25A9
 10
34.9004
 20
126.522
 30
-2.80986e-14
  70
    32
  0
VERTEX
  8
0
  5
25AA
 10
34.9004
 20
126.526
 30
-2.80988e-14
  70
    32
  0
VERTEX
  8
0
  5
25AB
 10
34.9003
 20
126.529
 30
-2.80990e-14
  70
    32
  0
VERTEX
  8
0
  5
25AC
 10
34.9003
 20
126.532
 30
-2.80991e-14
  70
    32
  0
VERTEX
  8
0
  5
25AD
 10
34.9003
 20
126.535
 30
-2.80992e-14
  70
    32
  0
VERTEX
  8
0
  5
25AE
 10
34.9002
 20
126.538
 30
-2.80994e-14
  70
    32
  0
VERTEX
  8
0
  5
25AF
 10
34.9002
 20
126.541
 30
-2.80995e-14
  70
    32
  0
VERTEX
  8
0
  5
25B0
 10
34.9002
 20
126.544
 30
-2.80995e-14
  70
    32
  0
VERTEX
  8
0
  5
25B1
 10
34.9002
 20
126.547
 30
-2.80996e-14
  70
    32
  0
VERTEX
  8
0
  5
25B2
 10
34.9001
 20
126.551
 30
-2.80997e-14
  70
    32
  0
VERTEX
  8
0
  5
25B3
 10
34.9001
 20
126.554
 30
-2.80998e-14
  70
    32
  0
VERTEX
  8
0
  5
25B4
 10
34.9001
 20
126.557
 30
-2.80998e-14
  70
    32
  0
VERTEX
  8
0
  5
25B5
 10
34.9001
 20
126.560
 30
-2.80999e-14
  70
    32
  0
VERTEX
  8
0
  5
25B6
 10
34.9001
 20
126.563
 30
-2.80999e-14
  70
    32
  0
VERTEX
  8
0
  5
25B7
 10
34.9001
 20
126.566
 30
-2.80999e-14
  70
    32
  0
VERTEX
  8
0
  5
25B8
 10
34.9000
 20
126.569
 30
-2.80999e-14
  70
    32
  0
VERTEX
  8
0
  5
25B9
 10
34.9000
 20
126.572
 30
-2.81000e-14
  70
    32
  0
VERTEX
  8
0
  5
25BA
 10
34.9000
 20
126.576
 30
-2.81000e-14
  70
    32
  0
VERTEX
  8
0
  5
25BB
 10
34.9000
 20
126.579
 30
-2.81000e-14
  70
    32
  0
VERTEX
  8
0
  5
25BC
 10
34.9000
 20
126.582
 30
-2.81000e-14
  70
    32
  0
VERTEX
  8
0
  5
25BD
 10
34.9000
 20
126.585
 30
-2.81000e-14
  70
    32
  0
VERTEX
  8
0
  5
25BE
 10
34.9000
 20
126.588
 30
-2.81000e-14
  70
    32
  0
VERTEX
  8
0
  5
25BF
 10
34.9000
 20
126.591
 30
-2.81000e-14
  70
    32
  0
VERTEX
  8
0
  5
25C0
 10
34.9000
 20
126.594
 30
-2.81000e-14
  70
    32
  0
SEQEND
  8
0
  5
25C1
  0
LINE
  5
1F4D
  8
0
  6
VERDECKT
 62
     1
 10
34.8999999999999275
 20
129.6973676745874968
 30
-0.0000000000000288
 11
34.8999999999999275
 21
126.5943724478371024
 31
-0.0000000000000281
210
-0.0000000000000002
220
1.0
230
-0.0000000000000002
  0
LINE
  5
1F4E
  8
0
  6
VERDECKT
 62
     1
 10
-34.9000000000000909
 20
129.6973676745874968
 30
-0.0000000000000288
 11
-34.9000000000000909
 21
126.5943724478371024
 31
-0.0000000000000281
210
-0.0000000000000002
220
1.0
230
-0.0000000000000002
  0
ARC
  5
1F4F
  8
0
  6
VERDECKT
 62
     1
 10
44.500000000000199
 20
129.6973676745876105
 30
0.0
 40
9.6000000000000991
210
0.0
220
-0.0000000000000002
230
-1.0
 50
147.6719358778385072
 51
180.0000000000001137
  0
ARC
  5
1F50
  8
0
  6
VERDECKT
 62
     1
 10
-44.5000000000001279
 20
129.6973676745874968
 30
0.0
 40
9.6000000000002021
210
0.0
220
-0.0000000000000002
230
-1.0
 50
0.0
 51
32.328064122161372
  0
ARC
  5
1F51
  8
0
  6
VERDECKT
 62
     1
 10
27.6000000000000689
 20
140.39269375657301
 30
0.0
 40
10.3999999999999595
210
0.0
220
-0.0000000000000002
230
-1.0
 50
327.6719358778381093
 51
0.000000000000458
  0
ARC
  5
1F52
  8
0
  6
VERDECKT
 62
     1
 10
-27.5999999999998202
 20
140.39269375657301
 30
0.0
 40
10.4000000000000501
210
0.0
220
-0.0000000000000002
230
-1.0
 50
179.9999999999996874
 51
212.3280641221616918
  0
LINE
  5
1F53
  8
0
  6
VERDECKT
 62
     1
 10
37.9999999999998721
 20
161.333967339156203
 30
-0.0000000000000358
 11
37.9999999999998792
 21
140.39269375657301
 31
-0.0000000000000312
210
-0.0000000000000002
220
1.0
230
-0.0000000000000002
  0
LINE
  5
1F54
  8
0
  6
VERDECKT
 62
     1
 10
-38.0000000000000426
 20
161.333967339156203
 30
-0.0000000000000358
 11
-38.0000000000000426
 21
140.39269375657301
 31
-0.0000000000000312
210
-0.0000000000000002
220
1.0
230
-0.0000000000000002
  0
ARC
  5
1F55
  8
0
  6
VERDECKT
 62
     1
 10
51.5999999999992482
 20
161.3339673391560893
 30
0.0
 40
13.5999999999992092
210
0.0
220
-0.0000000000000002
230
-1.0
 50
158.8168456069614081
 51
180.0
  0
ARC
  5
1F56
  8
0
  6
VERDECKT
 62
     1
 10
-51.5999999999990706
 20
161.3339673391560893
 30
0.0
 40
13.5999999999992003
210
0.0
220
-0.0000000000000002
230
-1.0
 50
0.0
 51
21.1831543930385813
  0
ARC
  5
1F57
  8
0
  6
VERDECKT
 62
     1
 10
17.1000000000082295
 20
174.7039673391545875
 30
0.0
 40
23.4000932431176096
210
0.0
220
-0.0000000000000002
230
-1.0
 50
338.8168456069615218
 51
359.8382525687346174
  0
ARC
  5
1F58
  8
0
  6
VERDECKT
 62
     1
 10
-17.1000000000080483
 20
174.7039673391545875
 30
0.0
 40
23.4000932431176096
210
0.0
220
-0.0000000000000002
230
-1.0
 50
180.1617474312652973
 51
201.183154393038393
  0
LINE
  5
1F59
  8
0
  6
VERDECKT
 62
     1
 10
40.4999999999999076
 20
179.4550449320377936
 30
-0.0000000000000398
 11
40.4999999999999218
 21
174.63790837323549
 31
-0.0000000000000388
210
-0.0000000000000002
220
1.0
230
-0.0000000000000002
  0
LINE
  5
1F5A
  8
0
  6
VERDECKT
 62
     1
 10
-40.5000000000000995
 20
179.4550449320377936
 30
-0.0000000000000398
 11
-40.5000000000000924
 21
174.63790837323549
 31
-0.0000000000000388
210
-0.0000000000000002
220
1.0
230
-0.0000000000000002
  0
ARC
  5
1F5B
  8
0
  6
VERDECKT
 62
     1
 10
17.1000000000001613
 20
179.4550449320373957
 30
0.0
 40
23.3999999999998991
210
0.0
220
-0.0000000000000002
230
-1.0
 50
0.0000000000008906
 51
24.9581963123155788
  0
ARC
  5
1F5C
  8
0
  6
VERDECKT
 62
     1
 10
-17.0999999999999801
 20
179.4550449320373957
 30
0.0
 40
23.3999999999998991
210
0.0
220
-0.0000000000000002
230
-1.0
 50
155.0418036876843928
 51
179.9999999999990905
  0
LINE
  5
1F5D
  8
0
  6
VERDECKT
 62
     1
 10
-38.3148118992657416
 20
189.3288363051005945
 30
-0.000000000000042
 11
-39.765397328275462
 21
190.0039673391559063
 31
-0.0000000000000422
210
-0.0000000000000002
220
1.0
230
-0.0000000000000002
  0
LINE
  5
1F5E
  8
0
  6
VERDECKT
 62
     1
 10
38.3148118992655426
 20
189.3288363051005945
 30
-0.000000000000042
 11
39.7653973282752702
 21
190.0039673391559063
 31
-0.0000000000000422
210
-0.0000000000000002
220
1.0
230
-0.0000000000000002
  0
LINE
  5
1F5F
  8
0
  6
VERDECKT
 62
     1
 10
35.0063223949043021
 20
125.4152268280261069
 30
-0.0000000000000278
 11
42.8999999999999631
 21
82.0000000000000853
 31
-0.0000000000000182
210
-0.0000000000000002
220
1.0
230
-0.0000000000000002
  0
LINE
  5
1F60
  8
0
  6
VERDECKT
 62
     1
 10
-42.9000000000000767
 20
82.0000000000000142
 30
-0.0000000000000182
 11
-35.0063223949044513
 21
125.4152268280261069
 31
-0.0000000000000278
210
-0.0000000000000002
220
1.0
230
-0.0000000000000002
  0
ARC
  5
1F61
  8
0
  6
VERDECKT
 62
     1
 10
32.9000000000016328
 20
10.5064669377368993
 30
0.0
 40
9.9999999999983746
210
0.0
220
-0.0000000000000002
230
-1.0
 50
354.9999999999998863
 51
0.0000000000005216
  0
ARC
  5
1F62
  8
0
  6
VERDECKT
 62
     1
 10
-32.8999999999940513
 20
10.5064669377372493
 30
0.0
 40
10.0000000000059206
210
0.0
220
-0.0000000000000002
230
-1.0
 50
180.0000000000013074
 51
184.9999999999980957
  0
LINE
  5
1F63
  8
0
  6
VERDECKT
 62
     1
 10
-42.0190016246716169
 20
0.0000000000000511
 30
0.0
 11
-42.8619469809174589
 21
9.6349095102604476
 31
-0.0000000000000021
210
-0.0000000000000002
220
1.0
230
-0.0000000000000002
  0
LINE
  5
1F64
  8
0
  6
VERDECKT
 62
     1
 10
42.0190016246715885
 20
0.0000000000000751
 30
0.0
 11
42.8619469809174305
 21
9.6349095102604672
 31
-0.0000000000000021
210
-0.0000000000000002
220
1.0
230
-0.0000000000000002
  0
LINE
  5
1F65
  8
0
  6
VERDECKT
 62
     1
 10
42.8999999999999417
 20
82.0000000000000568
 30
-0.0000000000000182
 11
42.8999999999999631
 21
10.5064669377370201
 31
-0.0000000000000023
210
-0.0000000000000002
220
1.0
230
-0.0000000000000002
  0
LINE
  5
1F66
  8
0
  6
VERDECKT
 62
     1
 10
-42.9000000000000199
 20
82.0000000000000142
 30
-0.0000000000000182
 11
-42.8999999999999986
 21
10.5064669377370006
 31
-0.0000000000000023
210
-0.0000000000000002
220
1.0
230
-0.0000000000000002
  0
ENDBLK
  5
1F68
  8
0
  0
ENDSEC
  0
SECTION
  2
ENTITIES
  0
TEXT
  5
8F
  8
VOLL
 10
78.076754716981128
 20
31.025947764705851
 30
0.0
 40
1.8
  1

  7
GREEKS
  0
INSERT
  5
18D0
  8
ADSK_ASSOC_ENTITY_BACKUPS
  2
*S2
 10
0.0
 20
0.0
 30
0.0
  0
INSERT
  5
1EE7
  8
0
  2
A$C383B0D99
 10
-8.0
 20
-109.9897120798615049
 30
129.6973676745874968
  0
INSERT
  5
1F25
  8
0
  2
A$C7D172125
 10
-8.0
 20
0.0000000000000665
 30
129.6973676745874968
  0
INSERT
  5
1F69
  8
0
  2
A$C1A0A23E8
 10
163.3954975842372903
 20
0.0000000000006182
 30
129.6973676745874968
  0
VIEWPORT
  5
1797
 67
     1
  8
0
 10
21.5920476176330602
 20
-32.0889939847628511
 30
0.0
 40
572.3684152410824026
 41
299.2528445006321931
 68
     1
 69
     1
1001
ACAD
1000
MVIEW
1002
{
1070
    16
1010
0.0
1020
0.0
1030
0.0
1010
0.0
1020
0.0
1030
1.0
1040
0.0
1040
299.2528445006321931
1040
21.5920476176330602
1040
-32.0889939847628511
1040
50.0
1040
0.0
1040
0.0
1070
     0
1070
  1500
1070
     1
1070
     1
1070
     0
1070
     0
1070
     0
1070
     0
1040
0.0
1040
0.0
1040
0.0
1040
10.0
1040
10.0
1040
10.0
1040
10.0
1070
     0
1002
{
1002
}
1002
}
  0
TEXT
  5
195D
 67
     1
  8
VOLL
 10
186.9093930296764938
 20
-29.9623408633761983
 30
0.0
 40
1.8
  1

  7
GREEKS
  0
ENDSEC
  0
EOF
