  0
SECTION
  2
HEADER
  9
$ACADVER
  1
AC1009
  9
$INSBASE
 10
0.0
 20
0.0
 30
0.0
  9
$EXTMIN
 10
-63.5640851646355429
 20
-132.282646422478507
 30
72.2061147937720733
  9
$EXTMAX
 10
176.9273476915282117
 20
172.0
 30
72.2061147937721159
  9
$LIMMIN
 10
0.0
 20
0.0
  9
$LIMMAX
 10
419.9999999999998863
 20
594.0
  9
$ORTHOMODE
 70
     1
  9
$REGENMODE
 70
     1
  9
$FILLMODE
 70
     1
  9
$QTEXTMODE
 70
     0
  9
$MIRRTEXT
 70
     1
  9
$DRAGMODE
 70
     2
  9
$LTSCALE
 40
10.0
  9
$OSMODE
 70
  1327
  9
$ATTMODE
 70
     1
  9
$TEXTSIZE
 40
3.5
  9
$TRACEWID
 40
0.5
  9
$TEXTSTYLE
  7
STANDARD
  9
$CLAYER
  8
0
  9
$CELTYPE
  6
BYLAYER
  9
$CECOLOR
 62
   256
  9
$DIMSCALE
 40
1.0
  9
$DIMASZ
 40
3.5
  9
$DIMEXO
 40
1.0
  9
$DIMDLI
 40
7.0
  9
$DIMRND
 40
0.0
  9
$DIMDLE
 40
0.0
  9
$DIMEXE
 40
1.0
  9
$DIMTP
 40
0.0
  9
$DIMTM
 40
0.0
  9
$DIMTXT
 40
3.5
  9
$DIMCEN
 40
1.5
  9
$DIMTSZ
 40
0.0
  9
$DIMTOL
 70
     0
  9
$DIMLIM
 70
     0
  9
$DIMTIH
 70
     0
  9
$DIMTOH
 70
     0
  9
$DIMSE1
 70
     0
  9
$DIMSE2
 70
     0
  9
$DIMTAD
 70
     1
  9
$DIMZIN
 70
     8
  9
$DIMBLK
  1

  9
$DIMASO
 70
     1
  9
$DIMSHO
 70
     0
  9
$DIMPOST
  1

  9
$DIMAPOST
  1

  9
$DIMALT
 70
     0
  9
$DIMALTD
 70
     2
  9
$DIMALTF
 40
25.3999999999999986
  9
$DIMLFAC
 40
2.0
  9
$DIMTOFL
 70
     1
  9
$DIMTVP
 40
0.0
  9
$DIMTIX
 70
     0
  9
$DIMSOXD
 70
     0
  9
$DIMSAH
 70
     0
  9
$DIMBLK1
  1

  9
$DIMBLK2
  1

  9
$DIMSTYLE
  2
STANDARD
  9
$DIMCLRD
 70
     0
  9
$DIMCLRE
 70
     0
  9
$DIMCLRT
 70
     1
  9
$DIMTFAC
 40
0.5142857142857143
  9
$DIMGAP
 40
1.5
  9
$LUNITS
 70
     2
  9
$LUPREC
 70
     2
  9
$SKETCHINC
 40
1.0
  9
$FILLETRAD
 40
0.0
  9
$AUNITS
 70
     0
  9
$AUPREC
 70
     0
  9
$MENU
  1
ACAD
  9
$ELEVATION
 40
0.0
  9
$PELEVATION
 40
0.0
  9
$THICKNESS
 40
0.0
  9
$LIMCHECK
 70
     0
  9
$BLIPMODE
 70
     0
  9
$CHAMFERA
 40
0.0
  9
$CHAMFERB
 40
0.0
  9
$SKPOLY
 70
     0
  9
$TDCREATE
 40
2455397.8646990740671754
  9
$TDUPDATE
 40
2458646.4945254628546536
  9
$TDINDWG
 40
0.2330286574
  9
$TDUSRTIMER
 40
0.2330286574
  9
$USRTIMER
 70
     1
  9
$ANGBASE
 50
0.0
  9
$ANGDIR
 70
     0
  9
$PDMODE
 70
     0
  9
$PDSIZE
 40
0.0
  9
$PLINEWID
 40
0.0
  9
$COORDS
 70
     1
  9
$SPLFRAME
 70
     0
  9
$SPLINETYPE
 70
     6
  9
$SPLINESEGS
 70
     8
  9
$ATTDIA
 70
     0
  9
$ATTREQ
 70
     0
  9
$HANDLING
 70
     1
  9
$HANDSEED
  5
206C
  9
$SURFTAB1
 70
     6
  9
$SURFTAB2
 70
     6
  9
$SURFTYPE
 70
     6
  9
$SURFU
 70
     6
  9
$SURFV
 70
     6
  9
$UCSNAME
  2

  9
$UCSORG
 10
0.0
 20
0.0
 30
0.0
  9
$UCSXDIR
 10
1.0
 20
0.0
 30
0.0
  9
$UCSYDIR
 10
0.0
 20
1.0
 30
0.0
  9
$PUCSNAME
  2

  9
$PUCSORG
 10
0.0
 20
0.0
 30
0.0
  9
$PUCSXDIR
 10
1.0
 20
0.0
 30
0.0
  9
$PUCSYDIR
 10
0.0
 20
1.0
 30
0.0
  9
$USERI1
 70
     0
  9
$USERI2
 70
     0
  9
$USERI3
 70
     0
  9
$USERI4
 70
     0
  9
$USERI5
 70
     0
  9
$USERR1
 40
0.0
  9
$USERR2
 40
0.0
  9
$USERR3
 40
0.0
  9
$USERR4
 40
0.0
  9
$USERR5
 40
0.0
  9
$WORLDVIEW
 70
     1
  9
$SHADEDGE
 70
     3
  9
$SHADEDIF
 70
    70
  9
$TILEMODE
 70
     1
  9
$MAXACTVP
 70
    16
  9
$PLIMCHECK
 70
     0
  9
$PEXTMIN
 10
1.0000000000000000E+20
 20
1.0000000000000000E+20
 30
1.0000000000000000E+20
  9
$PEXTMAX
 10
-1.0000000000000000E+20
 20
-1.0000000000000000E+20
 30
-1.0000000000000000E+20
  9
$PLIMMIN
 10
-84.5739032814343261
 20
-174.889519216166093
  9
$PLIMMAX
 10
125.4260967185657023
 20
122.110480783833907
  9
$UNITMODE
 70
     0
  9
$VISRETAIN
 70
     0
  9
$PLINEGEN
 70
     0
  9
$PSLTSCALE
 70
     0
  0
ENDSEC
  0
SECTION
  2
TABLES
  0
TABLE
  2
VPORT
 70
     1
  0
VPORT
  2
*ACTIVE
 70
     0
 10
0.0
 20
0.0
 11
1.0
 21
1.0
 12
62.4205623627235582
 22
-40.6413270259365476
 13
0.0
 23
0.0
 14
1.0
 24
1.0
 15
10.0
 25
10.0
 16
0.0000000000001501
 26
0.0
 36
674.0775765872522243
 17
-5.7389310992772273
 27
60.5000038146972798
 37
100.5393939770575997
 40
306.5907322360498029
 41
1.912658227848101
 42
50.0
 43
0.0
 44
0.0
 50
0.0
 51
0.0
 71
     0
 72
  1500
 73
     1
 74
     0
 75
     0
 76
     0
 77
     0
 78
     0
  0
ENDTAB
  0
TABLE
  2
LTYPE
 70
     6
  0
LTYPE
  2
CONTINUOUS
 70
     0
  3
Solid line
 72
    65
 73
     0
 40
0.0
  0
LTYPE
  2
VERDECKT
 70
     0
  3
Verdeckt __ __ __ __ __ __ __ __ __ __ __ __ __
 72
    65
 73
     2
 40
0.375
 49
0.25
 49
-0.125
  0
ENDTAB
  0
TABLE
  2
LAYER
 70
    14
  0
LAYER
  2
0
 70
     0
 62
     7
  6
CONTINUOUS
  0
LAYER
  2
VOLL
 70
     0
 62
     1
  6
CONTINUOUS
  0
LAYER
  2
DEFPOINTS
 70
     0
 62
     7
  6
CONTINUOUS
  0
LAYER
  2
ADSK_ASSOC_ENTITY_BACKUPS
 70
     1
 62
    -7
  6
CONTINUOUS
  0
ENDTAB
  0
TABLE
  2
STYLE
 70
     4
  0
STYLE
  2
STANDARD
 70
     0
 40
0.0
 41
0.8
 50
0.0
 71
     0
 42
3.5
  3
simplex.shx
  4

  0
STYLE
  2
GREEKS
 70
     0
 40
0.0
 41
0.8
 50
0.0
 71
     0
 42
2.5
  3
SIMPLEX.shx
  4

  0
ENDTAB
  0
TABLE
  2
VIEW
 70
     1
  0
ENDTAB
  0
TABLE
  2
UCS
 70
     0
  0
ENDTAB
  0
TABLE
  2
APPID
 70
    17
  0
APPID
  2
ACAD
 70
     0
  0
APPID
  2
ACAECLAYERSTANDARD
 70
     0
  0
APPID
  2
ACCMTRANSPARENCY
 70
     0
  0
APPID
  2
ACAD_NAV_VCDISPLAY
 70
     0
  0
APPID
  2
ACAD_PSEXT
 70
     0
  0
APPID
  2
ACAD_MLEADERVER
 70
     0
  0
APPID
  2
ACAD_OBJECT_CHANGE_GUID
 70
     0
  0
APPID
  2
ACAD_STEPID
 70
     0
  0
APPID
  2
ACAD_EXEMPT_FROM_CAD_STANDARDS
 70
     0
  0
APPID
  2
ACSYNERGY
 70
     0
  0
APPID
  2
SYNERGY_BODY_TBR_ID
 70
     0
  0
APPID
  2
ACAD_VIEW_EDGE_ID
 70
     0
  0
APPID
  2
ACSYNERGYSKETCH
 70
     0
  0
APPID
  2
ACAD_MODELDOC_XFORM
 70
     0
  0
APPID
  2
ACAD_DSTYLE_DIMJAG
 70
     0
  0
APPID
  2
ACAD_DSTYLE_DIMTALN
 70
     0
  0
APPID
  2
ACADANNOMONITORALERTICONDI
 70
     0
  0
ENDTAB
  0
TABLE
  2
DIMSTYLE
 70
     2
  0
DIMSTYLE
  2
STANDARD
 70
     0
  3

  4

  5

  6

  7

 40
1.0
 41
0.18
 42
0.0625
 43
0.38
 44
0.18
 45
0.0
 46
0.0
 47
0.0
 48
0.0
140
0.18
141
0.09
142
0.0
143
25.3999999999999986
144
1.0
145
0.0
146
1.0
147
0.09
 71
     0
 72
     0
 73
     1
 74
     1
 75
     0
 76
     0
 77
     0
 78
     0
170
     0
171
     2
172
     0
173
     0
174
     0
175
     0
176
     0
177
     0
178
     0
  0
ENDTAB
  0
ENDSEC
  0
SECTION
  2
BLOCKS
  0
BLOCK
  8
0
  2
$MODEL_SPACE
 70
     0
 10
0.0
 20
0.0
 30
0.0
  3
$MODEL_SPACE
  1

  0
ENDBLK
  5
36
  8
0
  0
BLOCK
 67
     1
  8
0
  2
$PAPER_SPACE
 70
     0
 10
0.0
 20
0.0
 30
0.0
  3
$PAPER_SPACE
  1

  0
ENDBLK
  5
34
 67
     1
  8
0
  0
BLOCK
  8
0
  2
*S2
 70
     1
 10
0.0
 20
0.0
 30
0.0
  3
*S2
  1

  0
ENDBLK
  5
173D
  8
0
  0
BLOCK
  8
0
  2
A$C2171654E
 70
     0
 10
0.0
 20
0.0
 30
0.0
  3
A$C2171654E
  1

  0
CIRCLE
  5
1F89
  8
0
  6
CONTINUOUS
 62
     3
 10
-24.499999999999801
 20
0.0000000000000257
 30
0.0
 40
25.0
  0
CIRCLE
  5
1F8A
  8
0
  6
CONTINUOUS
 62
     3
 10
-24.4999999999998117
 20
0.0000000000000283
 30
0.0
 40
27.9290197827829196
  0
CIRCLE
  5
1F8B
  8
0
  6
CONTINUOUS
 62
     3
 10
-24.4999999999998117
 20
0.0000000000000283
 30
0.0
 40
29.6063531499368118
  0
CIRCLE
  5
1F8C
  8
0
  6
CONTINUOUS
 62
     3
 10
-24.4999999999998117
 20
0.0000000000000278
 30
0.0
 40
31.4999999999998899
  0
CIRCLE
  5
1F8D
  8
0
  6
CONTINUOUS
 62
     3
 10
-24.4999999999998117
 20
0.0000000000000275
 30
0.0
 40
31.5000320571281591
  0
ARC
  5
1F8E
  8
0
  6
CONTINUOUS
 62
     3
 10
-0.0000000000000277
 20
0.0000000000000183
 30
0.0
 40
50.9999999999997726
 50
0.0000000000000127
 51
152.1229234536286015
  0
ARC
  5
1F8F
  8
0
  6
CONTINUOUS
 62
     3
 10
-0.0000000000000277
 20
0.0000000000000645
 30
0.0
 40
50.9999999999997584
 50
207.8770765463713133
 51
359.9999999999998863
  0
ARC
  5
1F90
  8
0
  6
CONTINUOUS
 62
     3
 10
-0.0000000000126192
 20
0.0000000000014913
 30
0.0
 40
48.3799396802193016
 50
167.6623527516134118
 51
180.0000000000017053
  0
ARC
  5
1F91
  8
0
  6
CONTINUOUS
 62
     3
 10
-0.000000000013074
 20
-0.0000000000014779
 30
0.0
 40
48.3799396802188468
 50
179.9999999999982094
 51
192.3376472483865882
  0
ARC
  5
1F92
  8
0
  6
CONTINUOUS
 62
     3
 10
-0.0000000000267433
 20
0.0000000000020014
 30
0.0
 40
48.9999999999731699
 50
171.7661504875179048
 51
180.0000000000021885
  0
ARC
  5
1F93
  8
0
  6
CONTINUOUS
 62
     3
 10
-0.0000000000267433
 20
-0.0000000000019512
 30
0.0
 40
48.9999999999731628
 50
179.9999999999976978
 51
188.2338495124820099
  0
CIRCLE
  5
1F94
  8
0
  6
VERDECKT
 62
     1
 10
-24.4999999999998117
 20
0.0000000000000268
 30
0.0
 40
28.0
  0
CIRCLE
  5
1F95
  8
0
  6
VERDECKT
 62
     1
 10
-24.4999999999998117
 20
0.0000000000000278
 30
0.0
 40
30.0
  0
CIRCLE
  5
1F96
  8
0
  6
VERDECKT
 62
     1
 10
-24.4999999999998117
 20
0.0000000000000268
 30
0.0
 40
29.5
  0
CIRCLE
  5
1F97
  8
0
  6
VERDECKT
 62
     1
 10
-24.499999999999801
 20
0.0000000000000257
 30
0.0
 40
26.5
  0
CIRCLE
  5
1F98
  8
0
  6
VERDECKT
 62
     1
 10
-24.4999999999998117
 20
0.0000000000000275
 30
0.0
 40
30.0000320571282195
  0
ARC
  5
1F99
  8
0
  6
VERDECKT
 62
     1
 10
-0.0000000000002551
 20
0.0000000000000396
 30
0.0
 40
50.9999999999995524
 50
152.1229234536284878
 51
207.8770765463713985
  0
CIRCLE
  5
1F9A
  8
0
  6
VERDECKT
 62
     1
 10
0.0
 20
0.0000000000000178
 30
0.0
 40
50.387579355318671
  0
ARC
  5
1F9B
  8
0
  6
VERDECKT
 62
     1
 10
0.0
 20
0.0000000000000267
 30
0.0
 40
48.3799396802319421
 50
192.3376472483849966
 51
167.6623527516148897
  0
ARC
  5
1F9C
  8
0
  6
VERDECKT
 62
     1
 10
-0.0000000000000268
 20
0.0000000000000252
 30
0.0
 40
48.9999999999998934
 50
188.233849512479793
 51
171.7661504875200933
  0
ENDBLK
  5
1F9E
  8
0
  0
BLOCK
  8
0
  2
A$C60825316
 70
     0
 10
0.0
 20
0.0
 30
0.0
  3
A$C60825316
  1

  0
LINE
  5
1FA2
  8
0
  6
CONTINUOUS
 62
     3
 10
-54.1063531499365808
 20
172.0
 30
-0.0000000000000382
 11
5.1063531499370347
 21
172.0
 31
-0.0000000000000382
210
0.0
220
1.0
230
-0.0000000000000002
  0
ARC
  5
1FA3
  8
0
  6
CONTINUOUS
 62
     3
 10
36.4999999999914593
 20
163.6174986573373076
 30
0.0
 40
19.5000000000082991
210
0.0
220
-0.0000000000000002
230
-1.0
 50
0.0000000000055214
 51
25.4594285688138484
  0
ARC
  5
1FA4
  8
0
  6
CONTINUOUS
 62
     3
 10
12.5000000000078799
 20
163.6174986573373928
 30
0.0
 40
19.5000000000081002
210
0.0
220
-0.0000000000000002
230
-1.0
 50
154.5405714311860095
 51
179.9999999999945999
  0
LINE
  5
1FA5
  8
0
  6
CONTINUOUS
 62
     3
 10
7.0000000000002274
 20
163.6174986573392118
 30
-0.0000000000000363
 11
7.0000000000002274
 21
159.2020357020082884
 31
-0.0000000000000353
210
0.0
220
1.0
230
-0.0000000000000002
  0
LINE
  5
1FA6
  8
0
  6
CONTINUOUS
 62
     3
 10
-55.9999999999997726
 20
163.6174986573392118
 30
-0.0000000000000363
 11
-55.9999999999997726
 21
159.2020357020082884
 31
-0.0000000000000353
210
0.0
220
1.0
230
-0.0000000000000002
  0
ARC
  5
1FA7
  8
0
  6
CONTINUOUS
 62
     3
 10
30.9999999999995914
 20
159.1619999999996935
 30
0.0
 40
25.0000320571283297
210
0.0
220
-0.0000000000000002
230
-1.0
 50
340.5369005553080228
 51
0.0917549917600735
  0
ARC
  5
1FA8
  8
0
  6
CONTINUOUS
 62
     3
 10
17.9999999999999609
 20
159.1619999999996935
 30
0.0
 40
25.0000320571283403
210
0.0
220
-0.0000000000000002
230
-1.0
 50
179.9082450082399021
 51
199.4630994446918919
  0
ARC
  5
1FA9
  8
0
  6
CONTINUOUS
 62
     3
 10
63.9999999999943512
 20
147.5000000000005969
 30
0.0
 40
9.9999999999945945
210
0.0
220
-0.0000000000000002
230
-1.0
 50
160.5369005553139061
 51
180.0000000000034959
  0
ARC
  5
1FAA
  8
0
  6
CONTINUOUS
 62
     3
 10
-14.9999999999948006
 20
147.5000000000005969
 30
0.0
 40
9.999999999994575
210
0.0
220
-0.0000000000000002
230
-1.0
 50
359.9999999999961915
 51
19.4630994446858985
  0
LINE
  5
1FAB
  8
0
  6
CONTINUOUS
 62
     3
 10
5.0000000000002274
 20
147.5
 30
-0.0000000000000328
 11
5.0000000000002274
 21
139.4083269131959071
 31
-0.000000000000031
210
0.0
220
1.0
230
-0.0000000000000002
  0
LINE
  5
1FAC
  8
0
  6
CONTINUOUS
 62
     3
 10
-53.9999999999997726
 20
147.5
 30
-0.0000000000000328
 11
-53.9999999999997726
 21
139.4083269131959071
 31
-0.000000000000031
210
0.0
220
1.0
230
-0.0000000000000002
  0
ARC
  5
1FAD
  8
0
  6
CONTINUOUS
 62
     3
 10
42.0000000000009877
 20
139.4083269131955944
 30
0.0
 40
11.9999999999987708
210
0.0
220
-0.0000000000000002
230
-1.0
 50
328.2116693829491965
 51
0.0000000000016144
  0
ARC
  5
1FAE
  8
0
  6
CONTINUOUS
 62
     3
 10
6.999999999998554
 20
139.4083269131955944
 30
0.0
 40
11.9999999999987796
210
0.0
220
-0.0000000000000002
230
-1.0
 50
179.9999999999984084
 51
211.7883306170508035
  0
ARC
  5
1FAF
  8
0
  6
CONTINUOUS
 62
     3
 10
59.0000000000020606
 20
128.8726731603426003
 30
0.0
 40
8.0000000000022666
210
0.0
220
-0.0000000000000002
230
-1.0
 50
148.2116693829495091
 51
179.9999999999957083
  0
ARC
  5
1FB0
  8
0
  6
CONTINUOUS
 62
     3
 10
-10.0000000000023697
 20
128.8726731603426003
 30
0.0
 40
8.0000000000021299
210
0.0
220
-0.0000000000000002
230
-1.0
 50
0.0000000000040711
 51
31.7883306170507893
  0
LINE
  5
1FB1
  8
0
  6
CONTINUOUS
 62
     3
 10
2.0000000000002269
 20
128.8726731603431972
 30
-0.0000000000000286
 11
2.0000000000002269
 21
125.0
 31
-0.0000000000000278
210
0.0
220
1.0
230
-0.0000000000000002
  0
LINE
  5
1FB2
  8
0
  6
CONTINUOUS
 62
     3
 10
-50.9999999999997726
 20
128.8726731603431972
 30
-0.0000000000000286
 11
-50.9999999999997726
 21
125.0
 31
-0.0000000000000278
210
0.0
220
1.0
230
-0.0000000000000002
  0
LINE
  5
1FB3
  8
0
  6
CONTINUOUS
 62
     3
 10
50.9999999999997726
 20
121.0
 30
-0.0000000000000269
 11
-50.9999999999997726
 21
121.0
 31
-0.0000000000000269
210
0.0
220
1.0
230
-0.0000000000000002
  0
LINE
  5
1FB4
  8
0
  6
CONTINUOUS
 62
     3
 10
50.9999999999997726
 20
125.0
 30
-0.0000000000000278
 11
-50.9999999999997726
 21
125.0
 31
-0.0000000000000278
210
0.0
220
1.0
230
-0.0000000000000002
  0
LINE
  5
1FB5
  8
0
  6
CONTINUOUS
 62
     3
 10
-50.9999999999997726
 20
121.0
 30
-0.0000000000000269
 11
-50.9999999999997726
 21
125.0
 31
-0.0000000000000278
210
0.0
220
1.0
230
-0.0000000000000002
  0
LINE
  5
1FB6
  8
0
  6
CONTINUOUS
 62
     3
 10
50.9999999999997726
 20
121.0
 30
-0.0000000000000269
 11
50.9999999999997726
 21
125.0
 31
-0.0000000000000278
210
0.0
220
1.0
230
-0.0000000000000002
  0
LINE
  5
1FB7
  8
0
  6
CONTINUOUS
 62
     3
 10
-50.9999999999996518
 20
120.9999999999999005
 30
-0.0000000000000269
 11
50.9999999999996518
 21
121.0000000000000995
 31
-0.0000000000000269
210
0.0
220
1.0
230
-0.0000000000000002
  0
LINE
  5
1FB8
  8
0
  6
CONTINUOUS
 62
     3
 10
-50.3875793553186213
 20
-0.0000000000001705
 30
0.0
 11
50.3875793553186213
 21
0.0000000000000568
 31
0.0
210
0.0
220
1.0
230
-0.0000000000000002
  0
ARC
  5
1FB9
  8
0
  6
CONTINUOUS
 62
     3
 10
39.0000000000014566
 20
7.5239313148993867
 30
0.0
 40
11.9999999999984297
210
0.0
220
-0.0000000000000002
230
-1.0
 50
354.9999999999990905
 51
0.0000000000001399
  0
ARC
  5
1FBA
  8
0
  6
CONTINUOUS
 62
     3
 10
-38.9999999999980531
 20
7.5239313148995688
 30
0.0
 40
12.0000000000018296
210
0.0
220
-0.0000000000000002
230
-1.0
 50
180.000000000000199
 51
184.9999999999996874
  0
LINE
  5
1FBB
  8
0
  6
CONTINUOUS
 62
     3
 10
50.9999999999998295
 20
121.0
 30
-0.0000000000000269
 11
50.9999999999999432
 21
7.5239313148995146
 31
-0.0000000000000017
210
0.0
220
1.0
230
-0.0000000000000002
  0
LINE
  5
1FBC
  8
0
  6
CONTINUOUS
 62
     3
 10
-50.9999999999999432
 20
120.9999999999999005
 30
-0.0000000000000269
 11
-50.9999999999998295
 21
7.523931314899416
 31
-0.0000000000000017
210
0.0
220
1.0
230
-0.0000000000000002
  0
LINE
  5
1FBD
  8
0
  6
CONTINUOUS
 62
     3
 10
-50.3875793553186213
 20
-0.0000000000000564
 30
0.0
 11
-50.9543363771008302
 21
6.4780624019274473
 31
-0.0000000000000014
210
0.0
220
1.0
230
-0.0000000000000002
  0
LINE
  5
1FBE
  8
0
  6
CONTINUOUS
 62
     3
 10
50.3875793553186284
 20
0.0000000000000457
 30
0.0
 11
50.9543363771008302
 21
6.4780624019275619
 31
-0.0000000000000014
210
0.0
220
1.0
230
-0.0000000000000002
  0
LINE
  5
1FBF
  8
0
  6
VERDECKT
 62
     1
 10
0.5000000000002274
 20
128.8726731603431119
 30
-0.0000000000000286
 11
0.5000000000002274
 21
125.0000000000000995
 31
-0.0000000000000278
210
0.0
220
1.0
230
-0.0000000000000002
  0
LINE
  5
1FC0
  8
0
  6
VERDECKT
 62
     1
 10
-49.4999999999997726
 20
128.8726731603431119
 30
-0.0000000000000286
 11
-49.4999999999997726
 21
125.0000000000000995
 31
-0.0000000000000278
210
0.0
220
1.0
230
-0.0000000000000002
  0
ARC
  5
1FC1
  8
0
  6
VERDECKT
 62
     1
 10
58.9999999999994671
 20
128.8726731603433109
 30
0.0
 40
9.4999999999996962
210
0.0
220
-0.0000000000000002
230
-1.0
 50
148.2116693829514986
 51
180.0000000000007958
  0
ARC
  5
1FC2
  8
0
  6
VERDECKT
 62
     1
 10
-9.9999999999999787
 20
128.8726731603431972
 30
0.0
 40
9.4999999999997513
210
0.0
220
-0.0000000000000002
230
-1.0
 50
359.9999999999992042
 51
31.7883306170484694
  0
ARC
  5
1FC3
  8
0
  6
VERDECKT
 62
     1
 10
41.9999999999983089
 20
139.408326913196305
 30
0.0
 40
10.5000000000014602
210
0.0
220
-0.0000000000000002
230
-1.0
 50
328.2116693829474912
 51
359.9999999999977831
  0
ARC
  5
1FC4
  8
0
  6
VERDECKT
 62
     1
 10
7.0000000000012541
 20
139.4083269131963903
 30
0.0
 40
10.5000000000014797
210
0.0
220
-0.0000000000000002
230
-1.0
 50
180.0000000000023022
 51
211.7883306170525941
  0
LINE
  5
1FC5
  8
0
  6
VERDECKT
 62
     1
 10
3.5000000000002269
 20
147.5
 30
-0.0000000000000328
 11
3.5000000000002269
 21
139.4083269131959071
 31
-0.000000000000031
210
0.0
220
1.0
230
-0.0000000000000002
  0
LINE
  5
1FC6
  8
0
  6
VERDECKT
 62
     1
 10
-52.4999999999997726
 20
147.5
 30
-0.0000000000000328
 11
-52.4999999999997726
 21
139.4083269131959071
 31
-0.000000000000031
210
0.0
220
1.0
230
-0.0000000000000002
  0
ARC
  5
1FC7
  8
0
  6
VERDECKT
 62
     1
 10
63.9999999999957581
 20
147.5000000000007958
 30
0.0
 40
11.4999999999959908
210
0.0
220
-0.0000000000000002
230
-1.0
 50
160.5369005553041859
 51
180.0000000000038938
  0
ARC
  5
1FC8
  8
0
  6
VERDECKT
 62
     1
 10
-14.9999999999966303
 20
147.5000000000007105
 30
0.0
 40
11.4999999999963993
210
0.0
220
-0.0000000000000002
230
-1.0
 50
0.0
 51
19.4630994446990186
  0
ARC
  5
1FC9
  8
0
  6
VERDECKT
 62
     1
 10
31.0000000000099689
 20
159.1619999999984998
 30
0.0
 40
23.5000320571180303
210
0.0
220
-0.0000000000000002
230
-1.0
 50
340.536900555308307
 51
0.094638044800314
  0
ARC
  5
1FCA
  8
0
  6
VERDECKT
 62
     1
 10
17.9999999999893383
 20
159.1619999999983861
 30
0.0
 40
23.5000320571177888
210
0.0
220
-0.0000000000000002
230
-1.0
 50
179.9053619551995098
 51
199.463099444691693
  0
LINE
  5
1FCB
  8
0
  6
VERDECKT
 62
     1
 10
5.5000000000002274
 20
163.6174986573392118
 30
-0.0000000000000363
 11
5.5000000000002274
 21
159.2008160540648873
 31
-0.0000000000000353
210
0.0
220
1.0
230
-0.0000000000000002
  0
LINE
  5
1FCC
  8
0
  6
VERDECKT
 62
     1
 10
-54.4999999999997726
 20
163.6174986573392118
 30
-0.0000000000000363
 11
-54.4999999999997726
 21
159.2008160540648873
 31
-0.0000000000000353
210
0.0
220
1.0
230
-0.0000000000000002
  0
ARC
  5
1FCD
  8
0
  6
VERDECKT
 62
     1
 10
36.4999999999996518
 20
163.6174986573390981
 30
0.0
 40
18.0000000000001315
210
0.0
220
-0.0000000000000002
230
-1.0
 50
0.0000000000002799
 51
27.755179391614881
  0
ARC
  5
1FCE
  8
0
  6
VERDECKT
 62
     1
 10
12.4999999999997495
 20
163.6174986573392118
 30
0.0
 40
17.9999999999999893
210
0.0
220
-0.0000000000000002
230
-1.0
 50
152.2448206083851119
 51
179.9999999999998863
  0
LINE
  5
1FCF
  8
0
  6
VERDECKT
 62
     1
 10
0.5000000000002274
 20
125.0
 30
-0.0000000000000278
 11
0.5000000000002274
 21
121.0
 31
-0.0000000000000269
210
0.0
220
1.0
230
-0.0000000000000002
  0
LINE
  5
1FD0
  8
0
  6
VERDECKT
 62
     1
 10
-49.4999999999997726
 20
125.0000000000000995
 30
-0.0000000000000278
 11
-49.4999999999997726
 21
121.0
 31
-0.0000000000000269
210
0.0
220
1.0
230
-0.0000000000000002
  0
ARC
  5
1FD1
  8
0
  6
VERDECKT
 62
     1
 10
38.9999999999977334
 20
7.523931314900735
 30
0.0
 40
10.0000000000022702
210
0.0
220
-0.0000000000000002
230
-1.0
 50
354.9999999999998863
 51
359.9999999999996021
  0
ARC
  5
1FD2
  8
0
  6
VERDECKT
 62
     1
 10
-38.999999999996902
 20
7.523931314900917
 30
0.0
 40
10.0000000000030909
210
0.0
220
-0.0000000000000002
230
-1.0
 50
180.0000000000007958
 51
184.9999999999992895
  0
LINE
  5
1FD3
  8
0
  6
VERDECKT
 62
     1
 10
-48.3799396802319279
 20
-0.0000000000000004
 30
0.0
 11
-48.9619469809174319
 21
6.6523738874239511
 31
-0.0000000000000015
210
0.0
220
1.0
230
-0.0000000000000002
  0
LINE
  5
1FD4
  8
0
  6
VERDECKT
 62
     1
 10
48.3799396802319421
 20
0.0000000000000995
 30
0.0
 11
48.961946980917439
 21
6.6523738874241776
 31
-0.0000000000000015
210
0.0
220
1.0
230
-0.0000000000000002
  0
LINE
  5
1FD5
  8
0
  6
VERDECKT
 62
     1
 10
48.9999999999999503
 20
121.0
 30
-0.0000000000000269
 11
49.0000000000000497
 21
7.5239313149007661
 31
-0.0000000000000017
210
0.0
220
1.0
230
-0.0000000000000002
  0
LINE
  5
1FD6
  8
0
  6
VERDECKT
 62
     1
 10
-49.0000000000000497
 20
120.9999999999999005
 30
-0.0000000000000269
 11
-48.9999999999999503
 21
7.5239313149006657
 31
-0.0000000000000017
210
0.0
220
1.0
230
-0.0000000000000002
  0
ENDBLK
  5
1FD8
  8
0
  0
BLOCK
  8
0
  2
A$C43527C2A
 70
     0
 10
0.0
 20
0.0
 30
0.0
  3
A$C43527C2A
  1

  0
LINE
  5
1FDC
  8
0
  6
CONTINUOUS
 62
     3
 10
-29.6063531499368402
 20
172.0000000000001137
 30
-0.0000000000000382
 11
-0.0000000000000702
 21
172.0000000000001137
 31
-0.0000000000000382
210
-0.0000000000000002
220
1.0
230
-0.0000000000000002
  0
LINE
  5
1FDD
  8
0
  6
CONTINUOUS
 62
     3
 10
-0.0000000000000622
 20
172.0000000000001137
 30
-0.0000000000000382
 11
29.6063531499367514
 21
172.0000000000001137
 31
-0.0000000000000382
210
-0.0000000000000002
220
1.0
230
-0.0000000000000002
  0
ARC
  5
1FDE
  8
0
  6
CONTINUOUS
 62
     3
 10
11.9999999999918092
 20
163.6174986573373928
 30
0.0
 40
19.5000000000082387
210
0.0
220
-0.0000000000000002
230
-1.0
 50
0.0000000000054197
 51
25.45942856881382
  0
ARC
  5
1FDF
  8
0
  6
CONTINUOUS
 62
     3
 10
-11.9999999999918305
 20
163.6174986573373928
 30
0.0
 40
19.5000000000081108
210
0.0
220
-0.0000000000000002
230
-1.0
 50
154.5405714311860095
 51
179.9999999999945999
  0
LINE
  5
1FE0
  8
0
  6
CONTINUOUS
 62
     3
 10
31.4999999999999503
 20
163.6174986573392971
 30
-0.0000000000000363
 11
31.4999999999999503
 21
159.2020357020082884
 31
-0.0000000000000353
210
-0.0000000000000002
220
1.0
230
-0.0000000000000002
  0
LINE
  5
1FE1
  8
0
  6
CONTINUOUS
 62
     3
 10
-31.5000000000000711
 20
163.6174986573392971
 30
-0.0000000000000363
 11
-31.5000000000000711
 21
159.2020357020082884
 31
-0.0000000000000353
210
-0.0000000000000002
220
1.0
230
-0.0000000000000002
  0
ARC
  5
1FE2
  8
0
  6
CONTINUOUS
 62
     3
 10
6.4999999999996421
 20
159.1619999999998072
 30
0.0
 40
25.0000320571285783
210
0.0
220
-0.0000000000000002
230
-1.0
 50
340.5369005553080797
 51
0.0917549917599844
  0
ARC
  5
1FE3
  8
0
  6
CONTINUOUS
 62
     3
 10
-6.4999999999997531
 20
159.1619999999996935
 30
0.0
 40
25.000032057128351
210
0.0
220
-0.0000000000000002
230
-1.0
 50
179.9082450082399021
 51
199.4630994446918919
  0
ARC
  5
1FE4
  8
0
  6
CONTINUOUS
 62
     3
 10
39.4999999999946425
 20
147.5000000000005969
 30
0.0
 40
9.9999999999945892
210
0.0
220
-0.0000000000000002
230
-1.0
 50
160.5369005553139061
 51
180.0000000000034959
  0
ARC
  5
1FE5
  8
0
  6
CONTINUOUS
 62
     3
 10
-39.4999999999945217
 20
147.5000000000005969
 30
0.0
 40
9.9999999999945874
210
0.0
220
-0.0000000000000002
230
-1.0
 50
359.9999999999964189
 51
19.4630994446860193
  0
LINE
  5
1FE6
  8
0
  6
CONTINUOUS
 62
     3
 10
29.4999999999999503
 20
147.5
 30
-0.0000000000000328
 11
29.4999999999999503
 21
139.4083269131959923
 31
-0.000000000000031
210
-0.0000000000000002
220
1.0
230
-0.0000000000000002
  0
LINE
  5
1FE7
  8
0
  6
CONTINUOUS
 62
     3
 10
-29.5000000000000604
 20
147.5
 30
-0.0000000000000328
 11
-29.5000000000000604
 21
139.4083269131959923
 31
-0.000000000000031
210
-0.0000000000000002
220
1.0
230
-0.0000000000000002
  0
ARC
  5
1FE8
  8
0
  6
CONTINUOUS
 62
     3
 10
17.500000000001279
 20
139.4083269131955944
 30
0.0
 40
11.9999999999987796
210
0.0
220
-0.0000000000000002
230
-1.0
 50
328.2116693829490828
 51
0.0000000000016017
  0
ARC
  5
1FE9
  8
0
  6
CONTINUOUS
 62
     3
 10
-17.5000000000011617
 20
139.4083269131955944
 30
0.0
 40
11.9999999999987796
210
0.0
220
-0.0000000000000002
230
-1.0
 50
179.9999999999984084
 51
211.7883306170508035
  0
ARC
  5
1FEA
  8
0
  6
CONTINUOUS
 62
     3
 10
34.5000000000022311
 20
128.872673160342714
 30
0.0
 40
8.0000000000021441
210
0.0
220
-0.0000000000000002
230
-1.0
 50
148.2116693829491965
 51
179.9999999999959073
  0
ARC
  5
1FEB
  8
0
  6
CONTINUOUS
 62
     3
 10
-34.5000000000021103
 20
128.872673160342714
 30
0.0
 40
8.0000000000021441
210
0.0
220
-0.0000000000000002
230
-1.0
 50
0.0000000000040584
 51
31.7883306170507183
  0
LINE
  5
1FEC
  8
0
  6
CONTINUOUS
 62
     3
 10
26.4999999999999503
 20
128.8726731603431972
 30
-0.0000000000000286
 11
26.4999999999999503
 21
125.0
 31
-0.0000000000000278
210
-0.0000000000000002
220
1.0
230
-0.0000000000000002
  0
LINE
  5
1FED
  8
0
  6
CONTINUOUS
 62
     3
 10
-26.5000000000000604
 20
128.8726731603431972
 30
-0.0000000000000286
 11
-26.5000000000000604
 21
125.0
 31
-0.0000000000000278
210
-0.0000000000000002
220
1.0
230
-0.0000000000000002
  0
LINE
  5
1FEE
  8
0
  6
CONTINUOUS
 62
     3
 10
50.99999999999973
 20
121.0
 30
-0.0000000000000269
 11
-50.9999999999998295
 21
121.0
 31
-0.0000000000000269
210
-0.0000000000000002
220
1.0
230
-0.0000000000000002
  0
LINE
  5
1FEF
  8
0
  6
CONTINUOUS
 62
     3
 10
50.99999999999973
 20
125.0
 30
-0.0000000000000278
 11
-50.9999999999998295
 21
125.0
 31
-0.0000000000000278
210
-0.0000000000000002
220
1.0
230
-0.0000000000000002
  0
LINE
  5
1FF0
  8
0
  6
CONTINUOUS
 62
     3
 10
-50.9999999999998366
 20
121.0
 30
-0.0000000000000269
 11
-50.9999999999998366
 21
125.0
 31
-0.0000000000000278
210
-0.0000000000000002
220
1.0
230
-0.0000000000000002
  0
LINE
  5
1FF1
  8
0
  6
CONTINUOUS
 62
     3
 10
50.9999999999997229
 20
121.0
 30
-0.0000000000000269
 11
50.9999999999997229
 21
125.0
 31
-0.0000000000000278
210
-0.0000000000000002
220
1.0
230
-0.0000000000000002
  0
LINE
  5
1FF2
  8
0
  6
CONTINUOUS
 62
     3
 10
-50.999999999999801
 20
121.0
 30
-0.0000000000000269
 11
-0.0000000000000553
 21
121.0
 31
-0.0000000000000269
210
-0.0000000000000002
220
1.0
230
-0.0000000000000002
  0
LINE
  5
1FF3
  8
0
  6
CONTINUOUS
 62
     3
 10
-0.0000000000000452
 20
121.0
 30
-0.0000000000000269
 11
50.9999999999996732
 21
121.0
 31
-0.0000000000000269
210
-0.0000000000000002
220
1.0
230
-0.0000000000000002
  0
LINE
  5
1FF4
  8
0
  6
CONTINUOUS
 62
     3
 10
-50.3875793553186924
 20
-0.0000000000000545
 30
0.0
 11
-0.0000000000000213
 21
-0.0000000000000568
 31
0.0
210
-0.0000000000000002
220
1.0
230
-0.0000000000000002
  0
LINE
  5
1FF5
  8
0
  6
CONTINUOUS
 62
     3
 10
-0.0000000000000092
 20
-0.0000000000000402
 30
0.0
 11
50.387579355318671
 21
0.0000000000000143
 31
0.0
210
-0.0000000000000002
220
1.0
230
-0.0000000000000002
  0
ARC
  5
1FF6
  8
0
  6
CONTINUOUS
 62
     3
 10
39.0000000000014708
 20
7.5239313148994329
 30
0.0
 40
11.9999999999984404
210
0.0
220
-0.0000000000000002
230
-1.0
 50
354.9999999999990905
 51
0.0000000000001272
  0
ARC
  5
1FF7
  8
0
  6
CONTINUOUS
 62
     3
 10
-39.0000000000014424
 20
7.5239313148994587
 30
0.0
 40
11.9999999999984404
210
0.0
220
-0.0000000000000002
230
-1.0
 50
179.999999999999801
 51
185.0000000000007958
  0
LINE
  5
1FF8
  8
0
  6
CONTINUOUS
 62
     3
 10
50.9999999999998508
 20
121.0
 30
-0.0000000000000269
 11
50.9999999999998792
 21
7.5239313148994862
 31
-0.0000000000000017
210
-0.0000000000000002
220
1.0
230
-0.0000000000000002
  0
LINE
  5
1FF9
  8
0
  6
CONTINUOUS
 62
     3
 10
-50.9999999999999503
 20
121.0
 30
-0.0000000000000269
 11
-50.9999999999999218
 21
7.5239313148994631
 31
-0.0000000000000017
210
-0.0000000000000002
220
1.0
230
-0.0000000000000002
  0
LINE
  5
1FFA
  8
0
  6
CONTINUOUS
 62
     3
 10
-50.3875793553186497
 20
-0.0000000000000103
 30
0.0
 11
-50.9543363771008728
 21
6.4780624019274891
 31
-0.0000000000000014
210
-0.0000000000000002
220
1.0
230
-0.0000000000000002
  0
LINE
  5
1FFB
  8
0
  6
CONTINUOUS
 62
     3
 10
50.3875793553186213
 20
0.0000000000000183
 30
0.0
 11
50.9543363771008231
 21
6.478062401927521
 31
-0.0000000000000014
210
-0.0000000000000002
220
1.0
230
-0.0000000000000002
  0
LINE
  5
1FFC
  8
0
  6
VERDECKT
 62
     1
 10
24.9999999999999609
 20
128.8726731603431972
 30
-0.0000000000000286
 11
24.9999999999999609
 21
125.0000000000000995
 31
-0.0000000000000278
210
-0.0000000000000002
220
1.0
230
-0.0000000000000002
  0
LINE
  5
1FFD
  8
0
  6
VERDECKT
 62
     1
 10
-25.0000000000000604
 20
128.8726731603431972
 30
-0.0000000000000286
 11
-25.0000000000000604
 21
125.0000000000000995
 31
-0.0000000000000278
210
-0.0000000000000002
220
1.0
230
-0.0000000000000002
  0
ARC
  5
1FFE
  8
0
  6
VERDECKT
 62
     1
 10
34.4999999999997726
 20
128.8726731603433109
 30
0.0
 40
9.4999999999997051
210
0.0
220
-0.0000000000000002
230
-1.0
 50
148.2116693829514986
 51
180.0000000000007958
  0
ARC
  5
1FFF
  8
0
  6
VERDECKT
 62
     1
 10
-34.4999999999996589
 20
128.8726731603433109
 30
0.0
 40
9.4999999999997105
210
0.0
220
-0.0000000000000002
230
-1.0
 50
359.9999999999992042
 51
31.7883306170484516
  0
ARC
  5
2000
  8
0
  6
VERDECKT
 62
     1
 10
17.4999999999984688
 20
139.4083269131963903
 30
0.0
 40
10.5000000000015898
210
0.0
220
-0.0000000000000002
230
-1.0
 50
328.2116693829477185
 51
359.9999999999976126
  0
ARC
  5
2001
  8
0
  6
VERDECKT
 62
     1
 10
-17.499999999998451
 20
139.4083269131963903
 30
0.0
 40
10.5000000000014992
210
0.0
220
-0.0000000000000002
230
-1.0
 50
180.0000000000023022
 51
211.7883306170525088
  0
LINE
  5
2002
  8
0
  6
VERDECKT
 62
     1
 10
27.9999999999999503
 20
147.5
 30
-0.0000000000000328
 11
27.9999999999999503
 21
139.4083269131959923
 31
-0.000000000000031
210
-0.0000000000000002
220
1.0
230
-0.0000000000000002
  0
LINE
  5
2003
  8
0
  6
VERDECKT
 62
     1
 10
-28.0000000000000604
 20
147.5
 30
-0.0000000000000328
 11
-28.0000000000000604
 21
139.4083269131959923
 31
-0.000000000000031
210
-0.0000000000000002
220
1.0
230
-0.0000000000000002
  0
ARC
  5
2004
  8
0
  6
VERDECKT
 62
     1
 10
39.4999999999964189
 20
147.5000000000007958
 30
0.0
 40
11.4999999999963407
210
0.0
220
-0.0000000000000002
230
-1.0
 50
160.5369005553046122
 51
180.0000000000036948
  0
ARC
  5
2005
  8
0
  6
VERDECKT
 62
     1
 10
-39.4999999999964118
 20
147.5000000000007958
 30
0.0
 40
11.4999999999964704
210
0.0
220
-0.0000000000000002
230
-1.0
 50
359.9999999999963052
 51
19.4630994446952208
  0
ARC
  5
2006
  8
0
  6
VERDECKT
 62
     1
 10
6.5000000000106128
 20
159.1619999999983861
 30
0.0
 40
23.5000320571176715
210
0.0
220
-0.0000000000000002
230
-1.0
 50
340.5369005553081934
 51
0.0946380448005049
  0
ARC
  5
2007
  8
0
  6
VERDECKT
 62
     1
 10
-6.5000000000103677
 20
159.1619999999983861
 30
0.0
 40
23.5000320571177888
210
0.0
220
-0.0000000000000002
230
-1.0
 50
179.9053619551993961
 51
199.4630994446916077
  0
LINE
  5
2008
  8
0
  6
VERDECKT
 62
     1
 10
29.9999999999999503
 20
163.6174986573392971
 30
-0.0000000000000363
 11
29.9999999999999503
 21
159.2008160540648873
 31
-0.0000000000000353
210
-0.0000000000000002
220
1.0
230
-0.0000000000000002
  0
LINE
  5
2009
  8
0
  6
VERDECKT
 62
     1
 10
-30.0000000000000711
 20
163.6174986573392971
 30
-0.0000000000000363
 11
-30.0000000000000711
 21
159.2008160540648873
 31
-0.0000000000000353
210
-0.0000000000000002
220
1.0
230
-0.0000000000000002
  0
ARC
  5
200A
  8
0
  6
VERDECKT
 62
     1
 10
11.9999999999999893
 20
163.6174986573392118
 30
0.0
 40
18.0000000000000711
210
0.0
220
-0.0000000000000002
230
-1.0
 50
0.0000000000001654
 51
27.7551793916148597
  0
ARC
  5
200B
  8
0
  6
VERDECKT
 62
     1
 10
-11.9999999999999307
 20
163.6174986573392118
 30
0.0
 40
18.0000000000000213
210
0.0
220
-0.0000000000000002
230
-1.0
 50
152.2448206083851119
 51
179.9999999999998863
  0
LINE
  5
200C
  8
0
  6
VERDECKT
 62
     1
 10
24.9999999999999609
 20
125.0000000000000995
 30
-0.0000000000000278
 11
24.9999999999999609
 21
121.0
 31
-0.0000000000000269
210
-0.0000000000000002
220
1.0
230
-0.0000000000000002
  0
LINE
  5
200D
  8
0
  6
VERDECKT
 62
     1
 10
-25.0000000000000604
 20
125.0000000000000995
 30
-0.0000000000000278
 11
-25.0000000000000604
 21
121.0
 31
-0.0000000000000269
210
-0.0000000000000002
220
1.0
230
-0.0000000000000002
  0
ARC
  5
200E
  8
0
  6
VERDECKT
 62
     1
 10
38.9999999999977121
 20
7.5239313149007838
 30
0.0
 40
10.0000000000023199
210
0.0
220
-0.0000000000000002
230
-1.0
 50
354.9999999999998863
 51
359.9999999999996021
  0
ARC
  5
200F
  8
0
  6
VERDECKT
 62
     1
 10
-39.0000000000040004
 20
7.5239313149005662
 30
0.0
 40
9.9999999999959854
210
0.0
220
-0.0000000000000002
230
-1.0
 50
179.9999999999990052
 51
185.0000000000011084
  0
LINE
  5
2010
  8
0
  6
VERDECKT
 62
     1
 10
-48.3799396802319635
 20
0.0000000000000461
 30
0.0
 11
-48.9619469809174674
 21
6.6523738874239946
 31
-0.0000000000000015
210
-0.0000000000000002
220
1.0
230
-0.0000000000000002
  0
LINE
  5
2011
  8
0
  6
VERDECKT
 62
     1
 10
48.3799396802319208
 20
0.0000000000000742
 30
0.0
 11
48.961946980917439
 21
6.6523738874241349
 31
-0.0000000000000015
210
-0.0000000000000002
220
1.0
230
-0.0000000000000002
  0
LINE
  5
2012
  8
0
  6
VERDECKT
 62
     1
 10
48.9999999999999574
 20
121.0
 30
-0.0000000000000269
 11
48.9999999999999929
 21
7.523931314900735
 31
-0.0000000000000017
210
-0.0000000000000002
220
1.0
230
-0.0000000000000002
  0
LINE
  5
2013
  8
0
  6
VERDECKT
 62
     1
 10
-49.0000000000000568
 20
121.0
 30
-0.0000000000000269
 11
-49.0000000000000284
 21
7.5239313149007137
 31
-0.0000000000000017
210
-0.0000000000000002
220
1.0
230
-0.0000000000000002
  0
ENDBLK
  5
2015
  8
0
  0
ENDSEC
  0
SECTION
  2
ENTITIES
  0
TEXT
  5
8F
  8
VOLL
 10
78.076754716981128
 20
31.025947764705851
 30
0.0
 40
1.8
  1

  7
GREEKS
  0
INSERT
  5
173F
  8
ADSK_ASSOC_ENTITY_BACKUPS
  2
*S2
 10
0.0
 20
0.0
 30
0.0
  0
INSERT
  5
1F9F
  8
0
  2
A$C2171654E
 10
-7.564053107507525
 20
-81.2836316155574536
 30
72.2061147937720733
  0
INSERT
  5
1FD9
  8
0
  2
A$C60825316
 10
-7.5640531075075543
 20
0.0
 30
72.2061147937721159
  0
INSERT
  5
2016
  8
0
  2
A$C43527C2A
 10
125.927347691528297
 20
-0.0000000000000568
 30
72.2061147937721159
  0
VIEWPORT
  5
161A
 67
     1
  8
0
 10
20.4260967185656988
 20
-26.3895192161660894
 30
0.0
 40
572.3684152410824026
 41
299.2528445006321931
 68
     1
 69
     1
1001
ACAD
1000
MVIEW
1002
{
1070
    16
1010
0.0
1020
0.0
1030
0.0
1010
0.0
1020
0.0
1030
1.0
1040
0.0
1040
299.2528445006321931
1040
20.4260967185656988
1040
-26.3895192161660894
1040
50.0
1040
0.0
1040
0.0
1070
     0
1070
  1500
1070
     1
1070
     1
1070
     0
1070
     0
1070
     0
1070
     0
1040
0.0
1040
0.0
1040
0.0
1040
10.0
1040
10.0
1040
10.0
1040
10.0
1070
     0
1002
{
1002
}
1002
}
  0
ENDSEC
  0
EOF
