  0
SECTION
  2
HEADER
  9
$ACADVER
  1
AC1009
  9
$INSBASE
 10
0.0
 20
0.0
 30
0.0
  9
$EXTMIN
 10
-109.5
 20
-259.5
 30
-0.000000000000055
  9
$EXTMAX
 10
109.5
 20
240.0000000000001137
 30
0.0
  9
$LIMMIN
 10
0.0
 20
0.0
  9
$LIMMAX
 10
594.0
 20
840.0
  9
$ORTHOMODE
 70
     1
  9
$REGENMODE
 70
     1
  9
$FILLMODE
 70
     1
  9
$QTEXTMODE
 70
     0
  9
$MIRRTEXT
 70
     1
  9
$DRAGMODE
 70
     2
  9
$LTSCALE
 40
10.0
  9
$OSMODE
 70
   511
  9
$ATTMODE
 70
     1
  9
$TEXTSIZE
 40
3.5
  9
$TRACEWID
 40
1.0
  9
$TEXTSTYLE
  7
STANDARD
  9
$CLAYER
  8
STEMPEL
  9
$CELTYPE
  6
BYLAYER
  9
$CECOLOR
 62
   256
  9
$DIMSCALE
 40
1.0
  9
$DIMASZ
 40
3.5
  9
$DIMEXO
 40
1.0
  9
$DIMDLI
 40
0.38
  9
$DIMRND
 40
0.0
  9
$DIMDLE
 40
0.0
  9
$DIMEXE
 40
1.0
  9
$DIMTP
 40
0.0
  9
$DIMTM
 40
0.000000001
  9
$DIMTXT
 40
3.5
  9
$DIMCEN
 40
0.09
  9
$DIMTSZ
 40
0.0
  9
$DIMTOL
 70
     0
  9
$DIMLIM
 70
     0
  9
$DIMTIH
 70
     0
  9
$DIMTOH
 70
     0
  9
$DIMSE1
 70
     0
  9
$DIMSE2
 70
     0
  9
$DIMTAD
 70
     1
  9
$DIMZIN
 70
     8
  9
$DIMBLK
  1

  9
$DIMASO
 70
     1
  9
$DIMSHO
 70
     0
  9
$DIMPOST
  1

  9
$DIMAPOST
  1

  9
$DIMALT
 70
     0
  9
$DIMALTD
 70
     2
  9
$DIMALTF
 40
25.3999999999999986
  9
$DIMLFAC
 40
2.0
  9
$DIMTOFL
 70
     1
  9
$DIMTVP
 40
0.0
  9
$DIMTIX
 70
     0
  9
$DIMSOXD
 70
     0
  9
$DIMSAH
 70
     0
  9
$DIMBLK1
  1

  9
$DIMBLK2
  1

  9
$DIMSTYLE
  2
LORO
  9
$DIMCLRD
 70
     0
  9
$DIMCLRE
 70
     0
  9
$DIMCLRT
 70
     1
  9
$DIMTFAC
 40
0.5
  9
$DIMGAP
 40
1.5
  9
$LUNITS
 70
     2
  9
$LUPREC
 70
     2
  9
$SKETCHINC
 40
1.0
  9
$FILLETRAD
 40
0.5
  9
$AUNITS
 70
     0
  9
$AUPREC
 70
     0
  9
$MENU
  1
ACAD
  9
$ELEVATION
 40
0.0
  9
$PELEVATION
 40
0.0
  9
$THICKNESS
 40
0.0
  9
$LIMCHECK
 70
     0
  9
$BLIPMODE
 70
     0
  9
$CHAMFERA
 40
0.0
  9
$CHAMFERB
 40
0.0
  9
$SKPOLY
 70
     0
  9
$TDCREATE
 40
2455397.867048610933125
  9
$TDUPDATE
 40
2460423.4330208338797092
  9
$TDINDWG
 40
1.6222516435000001
  9
$TDUSRTIMER
 40
1.6222516435000001
  9
$USRTIMER
 70
     1
  9
$ANGBASE
 50
0.0
  9
$ANGDIR
 70
     0
  9
$PDMODE
 70
     0
  9
$PDSIZE
 40
0.0
  9
$PLINEWID
 40
0.0
  9
$COORDS
 70
     1
  9
$SPLFRAME
 70
     0
  9
$SPLINETYPE
 70
     6
  9
$SPLINESEGS
 70
     8
  9
$ATTDIA
 70
     1
  9
$ATTREQ
 70
     1
  9
$HANDLING
 70
     1
  9
$HANDSEED
  5
1093E
  9
$SURFTAB1
 70
     6
  9
$SURFTAB2
 70
     6
  9
$SURFTYPE
 70
     6
  9
$SURFU
 70
     6
  9
$SURFV
 70
     6
  9
$UCSNAME
  2

  9
$UCSORG
 10
0.0
 20
0.0
 30
0.0
  9
$UCSXDIR
 10
1.0
 20
0.0
 30
0.0
  9
$UCSYDIR
 10
0.0
 20
1.0
 30
0.0
  9
$PUCSNAME
  2

  9
$PUCSORG
 10
0.0
 20
0.0
 30
0.0
  9
$PUCSXDIR
 10
1.0
 20
0.0
 30
0.0
  9
$PUCSYDIR
 10
0.0
 20
1.0
 30
0.0
  9
$USERI1
 70
     0
  9
$USERI2
 70
     0
  9
$USERI3
 70
     0
  9
$USERI4
 70
     0
  9
$USERI5
 70
     0
  9
$USERR1
 40
0.0
  9
$USERR2
 40
0.0
  9
$USERR3
 40
0.0
  9
$USERR4
 40
0.0
  9
$USERR5
 40
0.0
  9
$WORLDVIEW
 70
     1
  9
$SHADEDGE
 70
     3
  9
$SHADEDIF
 70
    70
  9
$TILEMODE
 70
     1
  9
$MAXACTVP
 70
    16
  9
$PLIMCHECK
 70
     0
  9
$PEXTMIN
 10
58.8172066214657434
 20
310.6580586846490064
 30
-0.0015258207003583
  9
$PEXTMAX
 10
144.6959600377975903
 20
362.6325455608985067
 30
0.0000000349246037
  9
$PLIMMIN
 10
-0.2465301007146366
 20
-0.2467888465869237
  9
$PLIMMAX
 10
296.7534698992853919
 20
419.7532111534130763
  9
$UNITMODE
 70
     0
  9
$VISRETAIN
 70
     0
  9
$PLINEGEN
 70
     0
  9
$PSLTSCALE
 70
     0
  0
ENDSEC
  0
SECTION
  2
TABLES
  0
TABLE
  2
VPORT
 70
     1
  0
VPORT
  2
*ACTIVE
 70
     0
 10
0.0
 20
0.0
 11
1.0
 21
1.0
 12
-0.0000000000000568
 22
-75.0038185119628338
 13
0.0
 23
0.0
 14
1.0
 24
1.0
 15
10.0
 25
10.0
 16
-0.0000000000002446
 26
0.0
 36
1101.5932921074249862
 17
0.0
 27
65.2538185119628906
 37
-0.0000000000000266
 40
502.0549872122762736
 41
1.8720136518771331
 42
50.0
 43
0.0
 44
0.0
 50
0.0
 51
0.0
 71
     0
 72
  1500
 73
     1
 74
     0
 75
     0
 76
     0
 77
     0
 78
     0
  0
ENDTAB
  0
TABLE
  2
LTYPE
 70
     3
  0
LTYPE
  2
CONTINUOUS
 70
     0
  3
Solid line
 72
    65
 73
     0
 40
0.0
  0
LTYPE
  2
STRICHPUNKT
 70
     0
  3
__ . __ . __ . __ . __ . __ . __ . __ . __ . __
 72
    65
 73
     4
 40
1.0
 49
0.5
 49
-0.25
 49
0.0
 49
-0.25
  0
LTYPE
  2
VERDECKT
 70
     0
  3
Verdeckt __ __ __ __ __ __ __ __ __ __ __ __ __
 72
    65
 73
     2
 40
0.375
 49
0.25
 49
-0.125
  0
ENDTAB
  0
TABLE
  2
LAYER
 70
     6
  0
LAYER
  2
0
 70
     0
 62
     7
  6
CONTINUOUS
  0
LAYER
  2
STEMPEL
 70
     0
 62
     3
  6
CONTINUOUS
  0
LAYER
  2
ADSK_ASSOC_ENTITY_BACKUPS
 70
     1
 62
    -7
  6
CONTINUOUS
  0
LAYER
  2
INDEX
 70
     0
 62
  -255
  6
CONTINUOUS
  0
ENDTAB
  0
TABLE
  2
STYLE
 70
     1
  0
STYLE
  2
STANDARD
 70
     0
 40
0.0
 41
0.8
 50
0.0
 71
     0
 42
3.5
  3
simplex.shx
  4

  0
ENDTAB
  0
TABLE
  2
VIEW
 70
     0
  0
ENDTAB
  0
TABLE
  2
UCS
 70
     0
  0
ENDTAB
  0
TABLE
  2
APPID
 70
    27
  0
APPID
  2
ACAD
 70
     0
  0
APPID
  2
ACAECLAYERSTANDARD
 70
     0
  0
APPID
  2
ACCMTRANSPARENCY
 70
     0
  0
APPID
  2
ACAD_NAV_VCDISPLAY
 70
     0
  0
APPID
  2
ACAD_PSEXT
 70
     0
  0
APPID
  2
ACAD_STEPID
 70
     0
  0
APPID
  2
ACAD_EXEMPT_FROM_CAD_STANDARDS
 70
     0
  0
APPID
  2
ACSYNERGY
 70
     0
  0
APPID
  2
SYNERGY_BODY_TBR_ID
 70
     0
  0
APPID
  2
ACAD_VIEW_EDGE_ID
 70
     0
  0
APPID
  2
GRADIENTCOLOR1ACI
 70
     0
  0
APPID
  2
GRADIENTCOLOR2ACI
 70
     0
  0
APPID
  2
ACAD_DSTYLE_DIMRADIAL_EXTENSION
 70
     0
  0
APPID
  2
ACADANNOMONITORALERTICONDI
 70
     0
  0
APPID
  2
ACAD_MLEADERVER
 70
     0
  0
APPID
  2
ACSYNERGYSKETCH
 70
     0
  0
APPID
  2
ACAD_MODELDOC_XFORM
 70
     0
  0
APPID
  2
ACDBDYNAMICBLOCKGUID
 70
     0
  0
APPID
  2
ACAD_DSTYLE_DIMJAG
 70
     0
  0
APPID
  2
ACAD_DSTYLE_DIMBREAK
 70
     0
  0
APPID
  2
ACAD_DSTYLE_DIMTALN
 70
     0
  0
APPID
  2
ACADANNOPO
 70
     0
  0
APPID
  2
PLOTTRANSPARENCY
 70
     0
  0
APPID
  2
ACADANNOTATIVE
 70
     0
  0
APPID
  2
ACAD_DIMASSOC_CALC_DIMLFAC
 70
     0
  0
APPID
  2
ACAD_DIMASSOC_DIMLFAC
 70
     0
  0
APPID
  2
ACAD_DIMASSOC_OVERRIDDEN_D
 70
     0
  0
ENDTAB
  0
TABLE
  2
DIMSTYLE
 70
     3
  0
DIMSTYLE
  2
LORO
 70
     0
  3

  4

  5

  6

  7

 40
1.0
 41
3.5
 42
1.0
 43
0.38
 44
1.0
 45
0.0
 46
0.0
 47
0.0
 48
0.000000001
140
3.5
141
0.09
142
0.0
143
25.3999999999999986
144
2.0
145
0.0
146
0.5
147
1.5
 71
     0
 72
     0
 73
     0
 74
     0
 75
     0
 76
     0
 77
     1
 78
     8
170
     0
171
     2
172
     1
173
     0
174
     0
175
     0
176
     0
177
     0
178
     1
  0
ENDTAB
  0
ENDSEC
  0
SECTION
  2
BLOCKS
  0
BLOCK
  8
0
  2
$MODEL_SPACE
 70
     0
 10
0.0
 20
0.0
 30
0.0
  3
$MODEL_SPACE
  1

  0
ENDBLK
  5
38
  8
0
  0
BLOCK
 67
     1
  8
0
  2
$PAPER_SPACE
 70
     0
 10
0.0
 20
0.0
 30
0.0
  3
$PAPER_SPACE
  1

  0
ENDBLK
  5
36
 67
     1
  8
0
  0
BLOCK
  8
0
  2
*S0
 70
     1
 10
0.0
 20
0.0
 30
0.0
  3
*S0
  1

  0
ENDBLK
  5
7128
  8
0
  0
BLOCK
  8
0
  2
A$C05945C96
 70
     0
 10
0.0
 20
0.0
 30
0.0
  3
A$C05945C96
  1

  0
CIRCLE
  5
10892
  8
0
  6
CONTINUOUS
 62
     3
 10
0.000000000000032
 20
0.0
 30
0.0
 40
48.0000000000000284
  0
CIRCLE
  5
10893
  8
0
  6
CONTINUOUS
 62
     3
 10
0.000000000000032
 20
0.0
 30
0.0
 40
109.5
  0
CIRCLE
  5
10894
  8
0
  6
CONTINUOUS
 62
     3
 10
0.0000000000000364
 20
-0.0000000000000282
 30
0.0
 40
49.0
  0
CIRCLE
  5
10895
  8
0
  6
CONTINUOUS
 62
     3
 10
0.0000000000000434
 20
-0.0000000000000263
 30
0.0
 40
53.0
  0
CIRCLE
  5
10896
  8
0
  6
CONTINUOUS
 62
     3
 10
0.0000000000000531
 20
-0.0000000000000236
 30
0.0
 40
53.5
  0
CIRCLE
  5
10897
  8
0
  6
CONTINUOUS
 62
     3
 10
0.0000000000000533
 20
-0.0000000000000235
 30
0.0
 40
55.3126155740733267
  0
CIRCLE
  5
10898
  8
0
  6
CONTINUOUS
 62
     3
 10
0.0000000000000503
 20
-0.0000000000000244
 30
0.0
 40
59.0
  0
CIRCLE
  5
10899
  8
0
  6
VERDECKT
 62
     1
 10
0.0000000000000001
 20
0.0
 30
0.0
 40
105.3723941575305929
  0
CIRCLE
  5
1089A
  8
0
  6
VERDECKT
 62
     1
 10
0.0000000000000311
 20
0.0
 30
0.0
 40
106.5999999999998948
  0
CIRCLE
  5
1089B
  8
0
  6
VERDECKT
 62
     1
 10
0.0
 20
0.0
 30
0.0
 40
108.25
  0
CIRCLE
  5
1089C
  8
0
  6
VERDECKT
 62
     1
 10
0.0000000000000364
 20
-0.0000000000000282
 30
0.0
 40
51.0
  0
CIRCLE
  5
1089D
  8
0
  6
VERDECKT
 62
     1
 10
0.0000000000000434
 20
-0.0000000000000263
 30
0.0
 40
55.0
  0
CIRCLE
  5
1089E
  8
0
  6
VERDECKT
 62
     1
 10
0.0000000000000503
 20
-0.0000000000000244
 30
0.0
 40
57.0
  0
ENDBLK
  5
108A0
  8
0
  0
BLOCK
  8
0
  2
A$C91ECB14F
 70
     0
 10
0.0
 20
0.0
 30
0.0
  3
A$C91ECB14F
  1

  0
LINE
  5
108A4
  8
0
  6
CONTINUOUS
 62
     3
 10
-109.5
 20
140.0
 30
-0.0000000000000311
 11
109.5
 21
140.0
 31
-0.0000000000000311
210
0.0
220
1.0
230
-0.0000000000000002
  0
LINE
  5
108A5
  8
0
  6
CONTINUOUS
 62
     3
 10
109.5
 20
144.0
 30
-0.000000000000032
 11
-109.5
 21
144.0
 31
-0.000000000000032
210
0.0
220
1.0
230
-0.0000000000000002
  0
LINE
  5
108A6
  8
0
  6
CONTINUOUS
 62
     3
 10
-109.5
 20
140.0
 30
-0.0000000000000311
 11
-109.5
 21
144.0
 31
-0.000000000000032
210
0.0
220
1.0
230
-0.0000000000000002
  0
LINE
  5
108A7
  8
0
  6
CONTINUOUS
 62
     3
 10
109.5
 20
140.0
 30
-0.0000000000000311
 11
109.5
 21
144.0
 31
-0.000000000000032
210
0.0
220
1.0
230
-0.0000000000000002
  0
LINE
  5
108A8
  8
0
  6
CONTINUOUS
 62
     3
 10
109.4999999999999005
 20
140.0
 30
-0.0000000000000311
 11
0.0
 21
140.0
 31
-0.0000000000000311
210
0.0
220
1.0
230
-0.0000000000000002
  0
LINE
  5
108A9
  8
0
  6
CONTINUOUS
 62
     3
 10
-0.0000000000000014
 20
140.0
 30
-0.0000000000000311
 11
-109.5
 21
140.0
 31
-0.0000000000000311
210
0.0
220
1.0
230
-0.0000000000000002
  0
LINE
  5
108AA
  8
0
  6
CONTINUOUS
 62
     3
 10
-108.25
 20
-0.0000000000000061
 30
0.0
 11
108.25
 21
-0.0000000000000061
 31
0.0
210
0.0
220
1.0
230
-0.0000000000000002
  0
ARC
  5
108AB
  8
0
  6
CONTINUOUS
 62
     3
 10
108.4999999999997016
 20
10.0622577482985207
 30
0.0
 40
1.000000000000326
210
0.0
220
-0.0000000000000002
230
-1.0
 50
352.8749836511015019
 51
0.0000000000013231
  0
ARC
  5
108AC
  8
0
  6
CONTINUOUS
 62
     3
 10
-108.4999999999997016
 20
10.0622577482985207
 30
0.0
 40
1.000000000000326
210
0.0
220
-0.0000000000000002
230
-1.0
 50
179.9999999999986073
 51
187.1250163488984981
  0
LINE
  5
108AD
  8
0
  6
CONTINUOUS
 62
     3
 10
109.5
 20
140.0
 30
-0.0000000000000311
 11
109.5
 21
10.0622577482985491
 31
-0.0000000000000022
210
0.0
220
1.0
230
-0.0000000000000002
  0
LINE
  5
108AE
  8
0
  6
CONTINUOUS
 62
     3
 10
-109.5
 20
140.0
 30
-0.0000000000000311
 11
-109.5
 21
10.0622577482985491
 31
-0.0000000000000022
210
0.0
220
1.0
230
-0.0000000000000002
  0
LINE
  5
108AF
  8
0
  6
CONTINUOUS
 62
     3
 10
-108.25
 20
-0.0000000000000071
 30
0.0
 11
-109.4922778767136009
 21
9.9382230137093313
 31
-0.0000000000000022
210
0.0
220
1.0
230
-0.0000000000000002
  0
LINE
  5
108B0
  8
0
  6
CONTINUOUS
 62
     3
 10
108.25
 20
-0.0000000000000071
 30
0.0
 11
109.4922778767136009
 21
9.9382230137093313
 31
-0.0000000000000022
210
0.0
220
1.0
230
-0.0000000000000002
  0
LINE
  5
108B1
  8
0
  6
CONTINUOUS
 62
     3
 10
55.3126155740733267
 20
240.0000000000001137
 30
-0.0000000000000533
 11
-55.3126155740733267
 21
240.0000000000001137
 31
-0.0000000000000533
210
0.0
220
1.0
230
-0.0000000000000002
  0
LINE
  5
108B2
  8
0
  6
CONTINUOUS
 62
     3
 10
51.0
 20
163.966007480131907
 30
-0.0000000000000364
 11
51.0
 21
144.0
 31
-0.000000000000032
210
0.0
220
1.0
230
-0.0000000000000002
  0
LINE
  5
108B3
  8
0
  6
CONTINUOUS
 62
     3
 10
-51.0
 20
163.966007480131907
 30
-0.0000000000000364
 11
-51.0
 21
144.0
 31
-0.000000000000032
210
0.0
220
1.0
230
-0.0000000000000002
  0
ARC
  5
108B4
  8
0
  6
CONTINUOUS
 62
     3
 10
-66.999999999997442
 20
195.5000000000007958
 30
0.0
 40
11.9999999999974492
210
0.0
220
-0.0000000000000002
230
-1.0
 50
359.9999999999964757
 51
26.8880476177270005
  0
ARC
  5
108B5
  8
0
  6
CONTINUOUS
 62
     3
 10
66.9999999999973141
 20
195.5000000000007958
 30
0.0
 40
11.9999999999973195
210
0.0
220
-0.0000000000000002
230
-1.0
 50
153.1119523822727899
 51
180.0000000000036096
  0
LINE
  5
108B6
  8
0
  6
CONTINUOUS
 62
     3
 10
-55.0
 20
176.9274888769475069
 30
-0.0000000000000393
 11
-55.0
 21
195.5000000000001137
 31
-0.0000000000000434
210
0.0
220
1.0
230
-0.0000000000000002
  0
LINE
  5
108B7
  8
0
  6
CONTINUOUS
 62
     3
 10
55.0
 20
176.9274888769475069
 30
-0.0000000000000393
 11
55.0
 21
195.5000000000001137
 31
-0.0000000000000434
210
0.0
220
1.0
230
-0.0000000000000002
  0
ARC
  5
108B8
  8
0
  6
CONTINUOUS
 62
     3
 10
-40.0000000000009166
 20
176.927488876947308
 30
0.0
 40
14.9999999999990692
210
0.0
220
-0.0000000000000002
230
-1.0
 50
179.9999999999988916
 51
214.3011527567931864
  0
ARC
  5
108B9
  8
0
  6
CONTINUOUS
 62
     3
 10
40.0000000000010587
 20
176.9274888769471943
 30
0.0
 40
14.9999999999989306
210
0.0
220
-0.0000000000000002
230
-1.0
 50
325.6988472432066146
 51
0.0000000000013104
  0
ARC
  5
108BA
  8
0
  6
CONTINUOUS
 62
     3
 10
-59.0000000000020322
 20
163.9660074801311112
 30
0.0
 40
8.0000000000020464
210
0.0
220
-0.0000000000000002
230
-1.0
 50
0.0000000000052924
 51
34.3011527567862231
  0
ARC
  5
108BB
  8
0
  6
CONTINUOUS
 62
     3
 10
59.0000000000020322
 20
163.9660074801311112
 30
0.0
 40
8.0000000000020464
210
0.0
220
-0.0000000000000002
230
-1.0
 50
145.6988472432136916
 51
179.9999999999947136
  0
LINE
  5
108BC
  8
0
  6
CONTINUOUS
 62
     3
 10
55.3126155740734191
 20
240.0000000000001137
 30
-0.0000000000000533
 11
56.6576946759162965
 21
237.1154685574651921
 31
-0.0000000000000527
210
0.0
220
1.0
230
-0.0000000000000002
  0
LINE
  5
108BD
  8
0
  6
CONTINUOUS
 62
     3
 10
-55.3126155740734191
 20
240.0000000000001137
 30
-0.0000000000000533
 11
-56.6576946759162965
 21
237.1154685574651921
 31
-0.0000000000000527
210
0.0
220
1.0
230
-0.0000000000000002
  0
ARC
  5
108BE
  8
0
  6
CONTINUOUS
 62
     3
 10
-34.0000000000026006
 20
226.5500120139481908
 30
0.0
 40
24.9999999999974101
210
0.0
220
-0.0000000000000002
230
-1.0
 50
154.9999999999984084
 51
180.0000000000013074
  0
ARC
  5
108BF
  8
0
  6
CONTINUOUS
 62
     3
 10
34.0000000000026006
 20
226.5500120139481908
 30
0.0
 40
24.9999999999974101
210
0.0
220
-0.0000000000000002
230
-1.0
 50
359.9999999999985789
 51
25.0000000000015596
  0
LINE
  5
108C0
  8
0
  6
CONTINUOUS
 62
     3
 10
-59.0
 20
212.2332005306816995
 30
-0.0000000000000471
 11
-59.0
 21
226.5500120139475939
 31
-0.0000000000000503
210
0.0
220
1.0
230
-0.0000000000000002
  0
LINE
  5
108C1
  8
0
  6
CONTINUOUS
 62
     3
 10
59.0
 20
212.2332005306816995
 30
-0.0000000000000471
 11
59.0
 21
226.5500120139475939
 31
-0.0000000000000503
210
0.0
220
1.0
230
-0.0000000000000002
  0
ARC
  5
108C2
  8
0
  6
CONTINUOUS
 62
     3
 10
-33.9999999999978968
 20
212.2332005306822964
 30
0.0
 40
25.0000000000020997
210
0.0
220
-0.0000000000000002
230
-1.0
 50
180.0000000000013927
 51
206.8880476177230037
  0
ARC
  5
108C3
  8
0
  6
CONTINUOUS
 62
     3
 10
33.9999999999974776
 20
212.2332005306824101
 30
0.0
 40
25.0000000000025189
210
0.0
220
-0.0000000000000002
230
-1.0
 50
333.1119523822770816
 51
359.9999999999982947
  0
LINE
  5
108C4
  8
0
  6
VERDECKT
 62
     1
 10
-48.0000000000000284
 20
140.0
 30
-0.0000000000000311
 11
-48.0000000000000284
 21
144.0
 31
-0.000000000000032
210
0.0
220
1.0
230
-0.0000000000000002
  0
LINE
  5
108C5
  8
0
  6
VERDECKT
 62
     1
 10
48.0000000000000284
 20
140.0
 30
-0.0000000000000311
 11
48.0000000000000284
 21
144.0
 31
-0.000000000000032
210
0.0
220
1.0
230
-0.0000000000000002
  0
LINE
  5
108C6
  8
0
  6
VERDECKT
 62
     1
 10
-105.3723941575305929
 20
0.3597007303086965
 30
-0.0000000000000001
 11
105.3723941575305929
 21
0.3597007303086965
 31
-0.0000000000000001
210
0.0
220
1.0
230
-0.0000000000000002
  0
ARC
  5
108C7
  8
0
  6
VERDECKT
 62
     1
 10
105.6000000000000938
 20
10.2428052183655005
 30
0.0
 40
0.9999999999997726
210
0.0
220
-0.0000000000000002
230
-1.0
 50
352.8749836510993987
 51
0.0000000000011323
  0
ARC
  5
108C8
  8
0
  6
VERDECKT
 62
     1
 10
-105.6000000000000938
 20
10.2428052183655005
 30
0.0
 40
0.9999999999997726
210
0.0
220
-0.0000000000000002
230
-1.0
 50
179.9999999999988916
 51
187.1250163489004876
  0
LINE
  5
108C9
  8
0
  6
VERDECKT
 62
     1
 10
-105.3723941575304934
 20
0.3597007303087106
 30
-0.0000000000000001
 11
-106.5922778767135952
 21
10.1187704837763395
 31
-0.0000000000000022
210
0.0
220
1.0
230
-0.0000000000000002
  0
LINE
  5
108CA
  8
0
  6
VERDECKT
 62
     1
 10
105.3723941575304934
 20
0.3597007303087106
 30
-0.0000000000000001
 11
106.5922778767135952
 21
10.1187704837763395
 31
-0.0000000000000022
210
0.0
220
1.0
230
-0.0000000000000002
  0
LINE
  5
108CB
  8
0
  6
VERDECKT
 62
     1
 10
106.5999999999998948
 20
140.0
 30
-0.0000000000000311
 11
106.5999999999998948
 21
10.2428052183655307
 31
-0.0000000000000023
210
0.0
220
1.0
230
-0.0000000000000002
  0
LINE
  5
108CC
  8
0
  6
VERDECKT
 62
     1
 10
-106.5999999999998948
 20
140.0
 30
-0.0000000000000311
 11
-106.5999999999998948
 21
10.2428052183655307
 31
-0.0000000000000023
210
0.0
220
1.0
230
-0.0000000000000002
  0
LINE
  5
108CD
  8
0
  6
VERDECKT
 62
     1
 10
105.3723941575305929
 20
0.3597007303087105
 30
-0.0000000000000001
 11
108.25
 21
0.0000000000000078
 31
0.0
210
0.0
220
1.0
230
-0.0000000000000002
  0
LINE
  5
108CE
  8
0
  6
VERDECKT
 62
     1
 10
-105.3723941575305929
 20
0.3597007303087105
 30
-0.0000000000000001
 11
-108.25
 21
0.0000000000000078
 31
0.0
210
0.0
220
1.0
230
-0.0000000000000002
  0
LINE
  5
108CF
  8
0
  6
VERDECKT
 62
     1
 10
53.4999999999999929
 20
239.1547634765186956
 30
-0.0000000000000531
 11
-53.4999999999999929
 21
239.1547634765186956
 31
-0.0000000000000531
210
0.0
220
1.0
230
-0.0000000000000002
  0
LINE
  5
108D0
  8
0
  6
VERDECKT
 62
     1
 10
49.0
 20
163.966007480131907
 30
-0.0000000000000364
 11
49.0
 21
144.0
 31
-0.000000000000032
210
0.0
220
1.0
230
-0.0000000000000002
  0
LINE
  5
108D1
  8
0
  6
VERDECKT
 62
     1
 10
-49.0
 20
163.9660074801319922
 30
-0.0000000000000364
 11
-49.0
 21
144.0
 31
-0.000000000000032
210
0.0
220
1.0
230
-0.0000000000000002
  0
ARC
  5
108D2
  8
0
  6
VERDECKT
 62
     1
 10
-59.0000000000008811
 20
163.9660074801317933
 30
0.0
 40
10.0000000000008793
210
0.0
220
-0.0000000000000002
230
-1.0
 50
0.0000000000006488
 51
34.3011527567913674
  0
ARC
  5
108D3
  8
0
  6
VERDECKT
 62
     1
 10
59.0000000000011013
 20
163.966007480131708
 30
0.0
 40
10.0000000000010996
210
0.0
220
-0.0000000000000002
230
-1.0
 50
145.698847243209002
 51
179.9999999999980105
  0
ARC
  5
108D4
  8
0
  6
VERDECKT
 62
     1
 10
-39.9999999999999503
 20
176.9274888769477911
 30
0.0
 40
13.0000000000000497
210
0.0
220
-0.0000000000000002
230
-1.0
 50
180.0000000000007958
 51
214.3011527567904011
  0
ARC
  5
108D5
  8
0
  6
VERDECKT
 62
     1
 10
39.9999999999998082
 20
176.9274888769477911
 30
0.0
 40
13.0000000000001794
210
0.0
220
-0.0000000000000002
230
-1.0
 50
325.6988472432097979
 51
359.9999999999989768
  0
LINE
  5
108D6
  8
0
  6
VERDECKT
 62
     1
 10
-53.0
 20
176.9274888769475922
 30
-0.0000000000000393
 11
-53.0
 21
195.4997994693185035
 31
-0.0000000000000434
210
0.0
220
1.0
230
-0.0000000000000002
  0
LINE
  5
108D7
  8
0
  6
VERDECKT
 62
     1
 10
53.0
 20
176.9274888769475922
 30
-0.0000000000000393
 11
53.0
 21
195.4997994693185035
 31
-0.0000000000000434
210
0.0
220
1.0
230
-0.0000000000000002
  0
ARC
  5
108D8
  8
0
  6
VERDECKT
 62
     1
 10
-66.9999999999992752
 20
195.4997994693187877
 30
0.0
 40
13.9999999999992699
210
0.0
220
-0.0000000000000002
230
-1.0
 50
359.9999999999988063
 51
26.8880476177246592
  0
ARC
  5
108D9
  8
0
  6
VERDECKT
 62
     1
 10
66.9999999999992752
 20
195.4997994693187877
 30
0.0
 40
13.9999999999992593
210
0.0
220
-0.0000000000000002
230
-1.0
 50
153.111952382275291
 51
180.0000000000011937
  0
ARC
  5
108DA
  8
0
  6
VERDECKT
 62
     1
 10
-33.9999999999996234
 20
212.233000000000203
 30
0.0
 40
23.0000000000003801
210
0.0
220
-0.0000000000000002
230
-1.0
 50
180.0000000000005969
 51
206.8880476177236858
  0
ARC
  5
108DB
  8
0
  6
VERDECKT
 62
     1
 10
33.9999999999996234
 20
212.233000000000203
 30
0.0
 40
23.0000000000003801
210
0.0
220
-0.0000000000000002
230
-1.0
 50
333.1119523822761721
 51
359.9999999999993179
  0
LINE
  5
108DC
  8
0
  6
VERDECKT
 62
     1
 10
-57.0
 20
212.2330000000000041
 30
-0.0000000000000471
 11
-57.0
 21
226.5500120139475939
 31
-0.0000000000000503
210
0.0
220
1.0
230
-0.0000000000000002
  0
LINE
  5
108DD
  8
0
  6
VERDECKT
 62
     1
 10
57.0
 20
212.2330000000000041
 30
-0.0000000000000471
 11
57.0
 21
226.5500120139475939
 31
-0.0000000000000503
210
0.0
220
1.0
230
-0.0000000000000002
  0
ARC
  5
108DE
  8
0
  6
VERDECKT
 62
     1
 10
-34.0000000000016627
 20
226.5500120139481055
 30
0.0
 40
22.9999999999983515
210
0.0
220
-0.0000000000000002
230
-1.0
 50
155.0000000000001137
 51
180.0000000000011937
  0
ARC
  5
108DF
  8
0
  6
VERDECKT
 62
     1
 10
34.0000000000016627
 20
226.5500120139481055
 30
0.0
 40
22.9999999999983409
210
0.0
220
-0.0000000000000002
230
-1.0
 50
0.0
 51
25.0000000000012008
  0
LINE
  5
108E0
  8
0
  6
VERDECKT
 62
     1
 10
53.5000000000000071
 20
239.1547634765186956
 30
-0.0000000000000531
 11
54.845079101843119
 21
236.2702320339834898
 31
-0.0000000000000525
210
0.0
220
1.0
230
-0.0000000000000002
  0
LINE
  5
108E1
  8
0
  6
VERDECKT
 62
     1
 10
-53.5000000000000071
 20
239.1547634765186956
 30
-0.0000000000000531
 11
-54.845079101843119
 21
236.2702320339834898
 31
-0.0000000000000525
210
0.0
220
1.0
230
-0.0000000000000002
  0
LINE
  5
108E2
  8
0
  6
VERDECKT
 62
     1
 10
-53.5
 20
239.1547634765186956
 30
-0.0000000000000531
 11
-55.3126155740733267
 21
240.0000000000001137
 31
-0.0000000000000533
210
0.0
220
1.0
230
-0.0000000000000002
  0
LINE
  5
108E3
  8
0
  6
VERDECKT
 62
     1
 10
53.5
 20
239.1547634765186956
 30
-0.0000000000000531
 11
55.3126155740733267
 21
240.0000000000001137
 31
-0.0000000000000533
210
0.0
220
1.0
230
-0.0000000000000002
  0
ENDBLK
  5
108E5
  8
0
  0
ENDSEC
  0
SECTION
  2
ENTITIES
  0
INSERT
  5
712A
  8
ADSK_ASSOC_ENTITY_BACKUPS
  2
*S0
 10
0.0
 20
0.0
 30
0.0
  0
INSERT
  5
108A1
  8
STEMPEL
  2
A$C05945C96
 10
0.0
 20
-150.0
 30
0.0
  0
INSERT
  5
108E6
  8
STEMPEL
  2
A$C91ECB14F
 10
0.0
 20
0.0
 30
0.0
  0
VIEWPORT
  5
7108
 67
     1
  8
0
 10
101.7565833296315958
 20
336.6453021227737281
 30
0.0
 40
97.794631585134681
 41
52.2403410290692065
 68
     1
 69
     1
1001
ACAD
1000
MVIEW
1002
{
1070
    16
1010
0.0
1020
0.0
1030
0.0
1010
0.0
1020
0.0
1030
1.0
1040
0.0
1040
52.2403410290692065
1040
101.7565833296315958
1040
336.6453021227737281
1040
50.0
1040
0.0
1040
0.0
1070
     0
1070
  1500
1070
     1
1070
     1
1070
     0
1070
     0
1070
     0
1070
     0
1040
0.0
1040
0.0
1040
0.0
1040
10.0
1040
10.0
1040
10.0
1040
10.0
1070
     0
1002
{
1002
}
1002
}
  0
CIRCLE
  5
10699
 67
     1
  8
INDEX
 62
   150
 10
61.3209556176671029
 20
360.104196929185207
 30
0.0
 40
2.5
  0
TEXT
  5
1069A
 67
     1
  8
INDEX
 62
   150
 10
62.8209556176670887
 20
359.1899112148996096
 30
0.0
 40
3.0
  1
A
 50
90.0
 41
0.8
 72
     4
 11
61.3209556176671029
 21
360.104196929185207
 31
0.0
  0
CIRCLE
  5
106A3
 67
     1
  8
INDEX
 62
   150
 10
68.831275012975766
 20
328.3971890707483112
 30
0.0
 40
2.5
  0
TEXT
  5
106A4
 67
     1
  8
INDEX
 62
   150
 10
70.331275012975766
 20
327.4829033564624865
 30
0.0
 40
3.0
  1
A
 50
90.0
 41
0.8
 72
     4
 11
68.831275012975766
 21
328.3971890707483112
 31
0.0
  0
CIRCLE
  5
106AD
 67
     1
  8
INDEX
 62
   150
 10
142.1888762263212982
 20
313.1830143721210788
 30
0.0
 40
2.5
  0
TEXT
  5
106AE
 67
     1
  8
INDEX
 62
   150
 10
141.2745905120355872
 20
311.6830143721210788
 30
0.0
 40
3.0
  1
A
 41
0.8
 72
     4
 11
142.1888762263212982
 21
313.1830143721210788
 31
0.0
  0
ENDSEC
  0
EOF
