  0
SECTION
  2
HEADER
  9
$ACADVER
  1
AC1009
  9
$INSBASE
 10
0.0
 20
0.0
 30
0.0
  9
$EXTMIN
 10
-79.5152423673021076
 20
-259.0047670124386059
 30
-0.0073236599650954
  9
$EXTMAX
 10
80.5418251086280037
 20
240.036370479776906
 30
0.0109866075344485
  9
$LIMMIN
 10
0.0
 20
0.0
  9
$LIMMAX
 10
419.9999999999998863
 20
594.0
  9
$ORTHOMODE
 70
     1
  9
$REGENMODE
 70
     1
  9
$FILLMODE
 70
     1
  9
$QTEXTMODE
 70
     0
  9
$MIRRTEXT
 70
     1
  9
$DRAGMODE
 70
     2
  9
$LTSCALE
 40
20.0
  9
$OSMODE
 70
  2559
  9
$ATTMODE
 70
     1
  9
$TEXTSIZE
 40
3.5
  9
$TRACEWID
 40
0.5
  9
$TEXTSTYLE
  7
STANDARD
  9
$CLAYER
  8
STEMPEL
  9
$CELTYPE
  6
BYLAYER
  9
$CECOLOR
 62
   256
  9
$DIMSCALE
 40
2.0
  9
$DIMASZ
 40
3.5
  9
$DIMEXO
 40
1.0
  9
$DIMDLI
 40
7.0
  9
$DIMRND
 40
0.0
  9
$DIMDLE
 40
0.0
  9
$DIMEXE
 40
1.0
  9
$DIMTP
 40
0.0
  9
$DIMTM
 40
0.0
  9
$DIMTXT
 40
3.5
  9
$DIMCEN
 40
1.5
  9
$DIMTSZ
 40
0.0
  9
$DIMTOL
 70
     0
  9
$DIMLIM
 70
     0
  9
$DIMTIH
 70
     0
  9
$DIMTOH
 70
     0
  9
$DIMSE1
 70
     0
  9
$DIMSE2
 70
     0
  9
$DIMTAD
 70
     1
  9
$DIMZIN
 70
     8
  9
$DIMBLK
  1

  9
$DIMASO
 70
     1
  9
$DIMSHO
 70
     0
  9
$DIMPOST
  1

  9
$DIMAPOST
  1

  9
$DIMALT
 70
     0
  9
$DIMALTD
 70
     2
  9
$DIMALTF
 40
25.3999999999999986
  9
$DIMLFAC
 40
1.0
  9
$DIMTOFL
 70
     1
  9
$DIMTVP
 40
0.0
  9
$DIMTIX
 70
     0
  9
$DIMSOXD
 70
     0
  9
$DIMSAH
 70
     0
  9
$DIMBLK1
  1

  9
$DIMBLK2
  1

  9
$DIMSTYLE
  2
STANDARD
  9
$DIMCLRD
 70
     0
  9
$DIMCLRE
 70
     0
  9
$DIMCLRT
 70
     1
  9
$DIMTFAC
 40
0.5142857142857143
  9
$DIMGAP
 40
1.5
  9
$LUNITS
 70
     2
  9
$LUPREC
 70
     2
  9
$SKETCHINC
 40
1.0
  9
$FILLETRAD
 40
0.0
  9
$AUNITS
 70
     0
  9
$AUPREC
 70
     0
  9
$MENU
  1
ACAD
  9
$ELEVATION
 40
0.0
  9
$PELEVATION
 40
0.0
  9
$THICKNESS
 40
0.0
  9
$LIMCHECK
 70
     0
  9
$BLIPMODE
 70
     0
  9
$CHAMFERA
 40
0.0
  9
$CHAMFERB
 40
0.0
  9
$SKPOLY
 70
     0
  9
$TDCREATE
 40
2455397.8646990740671754
  9
$TDUPDATE
 40
2458375.6196296298876405
  9
$TDINDWG
 40
0.1528469329
  9
$TDUSRTIMER
 40
0.1528469329
  9
$USRTIMER
 70
     1
  9
$ANGBASE
 50
0.0
  9
$ANGDIR
 70
     0
  9
$PDMODE
 70
     0
  9
$PDSIZE
 40
0.0
  9
$PLINEWID
 40
0.0
  9
$COORDS
 70
     1
  9
$SPLFRAME
 70
     0
  9
$SPLINETYPE
 70
     6
  9
$SPLINESEGS
 70
     8
  9
$ATTDIA
 70
     1
  9
$ATTREQ
 70
     1
  9
$HANDLING
 70
     1
  9
$HANDSEED
  5
325A
  9
$SURFTAB1
 70
     6
  9
$SURFTAB2
 70
     6
  9
$SURFTYPE
 70
     6
  9
$SURFU
 70
     6
  9
$SURFV
 70
     6
  9
$UCSNAME
  2

  9
$UCSORG
 10
0.0
 20
0.0
 30
0.0
  9
$UCSXDIR
 10
1.0
 20
0.0
 30
0.0
  9
$UCSYDIR
 10
0.0
 20
1.0
 30
0.0
  9
$PUCSNAME
  2

  9
$PUCSORG
 10
0.0
 20
0.0
 30
0.0
  9
$PUCSXDIR
 10
1.0
 20
0.0
 30
0.0
  9
$PUCSYDIR
 10
0.0
 20
1.0
 30
0.0
  9
$USERI1
 70
     0
  9
$USERI2
 70
     0
  9
$USERI3
 70
     0
  9
$USERI4
 70
     0
  9
$USERI5
 70
     0
  9
$USERR1
 40
0.0
  9
$USERR2
 40
0.0
  9
$USERR3
 40
0.0
  9
$USERR4
 40
0.0
  9
$USERR5
 40
0.0
  9
$WORLDVIEW
 70
     1
  9
$SHADEDGE
 70
     3
  9
$SHADEDIF
 70
    70
  9
$TILEMODE
 70
     1
  9
$MAXACTVP
 70
    16
  9
$PLIMCHECK
 70
     0
  9
$PEXTMIN
 10
-0.2276484580842819
 20
-0.2318892588376329
 30
-0.0000000000112498
  9
$PEXTMAX
 10
15.5002894594343399
 20
22.1433497956293905
 30
0.0000000000002956
  9
$PLIMMIN
 10
-0.2500002402958907
 20
-0.2499999962453767
  9
$PLIMMAX
 10
10.7499995194082203
 20
8.2499997634587334
  9
$UNITMODE
 70
     0
  9
$VISRETAIN
 70
     0
  9
$PLINEGEN
 70
     0
  9
$PSLTSCALE
 70
     0
  0
ENDSEC
  0
SECTION
  2
TABLES
  0
TABLE
  2
VPORT
 70
     1
  0
VPORT
  2
*ACTIVE
 70
     0
 10
0.0
 20
0.0
 11
1.0
 21
1.0
 12
0.5132913706629552
 22
-89.7372385800515531
 13
0.0
 23
0.0
 14
1.0
 24
1.0
 15
10.0
 25
10.0
 16
-0.0000000000002038
 26
0.0
 36
917.7644320432583527
 17
0.0
 27
80.2530403137207031
 37
-0.0000000000000266
 40
501.5851025091682232
 41
1.868197278911564
 42
50.0
 43
0.0
 44
0.0
 50
0.0
 51
0.0
 71
     0
 72
  1500
 73
     1
 74
     0
 75
     0
 76
     0
 77
     0
 78
     0
  0
ENDTAB
  0
TABLE
  2
LTYPE
 70
     4
  0
LTYPE
  2
CONTINUOUS
 70
     0
  3
Solid line
 72
    65
 73
     0
 40
0.0
  0
LTYPE
  2
AUSGEZOGEN
 70
     0
  3
Ausgezogene Linie
 72
    65
 73
     0
 40
0.0
  0
LTYPE
  2
VERDECKT
 70
     0
  3
_ _ _ _ _ _ _ _ _ _ _ _ _ _ _ _ _ _ _ _ _ _ _
 72
    65
 73
     2
 40
0.375
 49
0.25
 49
-0.125
  0
ENDTAB
  0
TABLE
  2
LAYER
 70
    10
  0
LAYER
  2
0
 70
     0
 62
     7
  6
CONTINUOUS
  0
LAYER
  2
VOLL
 70
     0
 62
     1
  6
CONTINUOUS
  0
LAYER
  2
STEMPEL
 70
     0
 62
     3
  6
CONTINUOUS
  0
LAYER
  2
DEFPOINTS
 70
     0
 62
     7
  6
AUSGEZOGEN
  0
ENDTAB
  0
TABLE
  2
STYLE
 70
     2
  0
STYLE
  2
STANDARD
 70
     0
 40
0.0
 41
0.8
 50
0.0
 71
     0
 42
3.5
  3
simplex.shx
  4

  0
STYLE
  2
GREEKS
 70
     0
 40
0.0
 41
0.8
 50
0.0
 71
     0
 42
2.5
  3
SIMPLEX.shx
  4

  0
ENDTAB
  0
TABLE
  2
VIEW
 70
     1
  0
ENDTAB
  0
TABLE
  2
UCS
 70
     0
  0
ENDTAB
  0
TABLE
  2
APPID
 70
    11
  0
APPID
  2
ACAD
 70
     0
  0
APPID
  2
ACADANNOMONITORALERTICONDI
 70
     0
  0
APPID
  2
ACAD_EXEMPT_FROM_CAD_STANDARDS
 70
     0
  0
APPID
  2
ACAD_NAV_VCDISPLAY
 70
     0
  0
APPID
  2
ACAD_PSEXT
 70
     0
  0
APPID
  2
ACAD_MLEADERVER
 70
     0
  0
APPID
  2
ACAECLAYERSTANDARD
 70
     0
  0
APPID
  2
ACCMTRANSPARENCY
 70
     0
  0
APPID
  2
ACAD_STEPID
 70
     0
  0
APPID
  2
ACAD_ASSOCPERSSUBENTMANAGER
 70
     0
  0
APPID
  2
ACAD_OBJECT_CHANGE_GUID
 70
     0
  0
ENDTAB
  0
TABLE
  2
DIMSTYLE
 70
     1
  0
DIMSTYLE
  2
STANDARD
 70
     0
  3

  4

  5

  6

  7

 40
1.0
 41
0.18
 42
0.0625
 43
0.38
 44
0.18
 45
0.0
 46
0.0
 47
0.0
 48
0.0
140
0.18
141
0.09
142
0.0
143
25.3999999999999986
144
1.0
145
0.0
146
1.0
147
0.09
 71
     0
 72
     0
 73
     1
 74
     1
 75
     0
 76
     0
 77
     0
 78
     0
170
     0
171
     2
172
     0
173
     0
174
     0
175
     0
176
     0
177
     0
178
     0
  0
ENDTAB
  0
ENDSEC
  0
SECTION
  2
BLOCKS
  0
BLOCK
  8
0
  2
$MODEL_SPACE
 70
     0
 10
0.0
 20
0.0
 30
0.0
  3
$MODEL_SPACE
  1

  0
ENDBLK
  5
36
  8
0
  0
BLOCK
 67
     1
  8
0
  2
$PAPER_SPACE
 70
     0
 10
0.0
 20
0.0
 30
0.0
  3
$PAPER_SPACE
  1

  0
ENDBLK
  5
34
 67
     1
  8
0
  0
BLOCK
  8
0
  2
A$C35C07AD9
 70
     0
 10
0.0
 20
0.0
 30
0.0
  3
A$C35C07AD9
  1

  0
LINE
  5
31B3
  8
0
  6
CONTINUOUS
 62
     3
 10
69.0000000000000284
 20
120.0047686803484055
 30
-0.0000000000000266
 11
-68.9999999999999716
 21
120.0047686803484055
 31
-0.0000000000000266
210
0.0000000000000002
220
1.0
230
-0.0000000000000002
  0
LINE
  5
31B4
  8
0
  6
CONTINUOUS
 62
     3
 10
78.187670047111169
 20
-0.0000000000000174
 30
0.0
 11
-78.187670047111169
 21
0.0000000000000174
 31
0.0
210
0.0000000000000002
220
1.0
230
-0.0000000000000002
  0
ARC
  5
31B5
  8
0
  6
CONTINUOUS
 62
     3
 10
-69.5000000000010232
 20
97.5350784722627253
 30
0.0
 40
9.999999999999023
210
0.0
220
-0.0000000000000002
230
-1.0
 50
152.306148610978795
 51
180.0000000000013074
  0
ARC
  5
31B6
  8
0
  6
CONTINUOUS
 62
     3
 10
69.5000000000009663
 20
97.5350784722627253
 30
0.0
 40
9.9999999999990195
210
0.0
220
-0.0000000000000002
230
-1.0
 50
359.9999999999985789
 51
27.6938513890212299
  0
LINE
  5
31B7
  8
0
  6
CONTINUOUS
 62
     3
 10
69.0000000000000568
 20
120.0047686803484055
 30
-0.0000000000000266
 11
78.354435044858235
 21
102.1825487558025003
 31
-0.0000000000000227
210
0.0000000000000002
220
1.0
230
-0.0000000000000002
  0
LINE
  5
31B8
  8
0
  6
CONTINUOUS
 62
     3
 10
-69.0
 20
120.0047686803484055
 30
-0.0000000000000266
 11
-78.3544350448581781
 21
102.1825487558025003
 31
-0.0000000000000227
210
0.0000000000000002
220
1.0
230
-0.0000000000000002
  0
LINE
  5
31B9
  8
0
  6
CONTINUOUS
 62
     3
 10
-78.187670047111169
 20
0.0000000000000182
 30
0.0
 11
-79.5
 21
14.9999999999994493
 31
-0.0000000000000033
210
0.0000000000000002
220
1.0
230
-0.0000000000000002
  0
LINE
  5
31BA
  8
0
  6
CONTINUOUS
 62
     3
 10
78.187670047111169
 20
-0.0000000000000165
 30
0.0
 11
79.5
 21
14.9999999999994191
 31
-0.0000000000000033
210
0.0000000000000002
220
1.0
230
-0.0000000000000002
  0
LINE
  5
31BB
  8
0
  6
CONTINUOUS
 62
     3
 10
-79.5
 20
14.9999999999994493
 30
-0.0000000000000033
 11
-79.4999999999999716
 21
97.5350784722624979
 31
-0.0000000000000217
210
0.0000000000000002
220
1.0
230
-0.0000000000000002
  0
LINE
  5
31BC
  8
0
  6
CONTINUOUS
 62
     3
 10
79.5
 20
14.9999999999994191
 30
-0.0000000000000033
 11
79.5000000000000142
 21
97.5350784722624695
 31
-0.0000000000000217
210
0.0000000000000002
220
1.0
230
-0.0000000000000002
  0
LINE
  5
31BD
  8
0
  6
CONTINUOUS
 62
     3
 10
-55.7067558379248382
 20
240.0
 30
-0.0000000000000533
 11
55.7067558379249519
 21
240.0
 31
-0.0000000000000533
210
0.0000000000000002
220
1.0
230
-0.0000000000000002
  0
LINE
  5
31BE
  8
0
  6
CONTINUOUS
 62
     3
 10
55.7067558379250727
 20
240.0000000000001137
 30
-0.0000000000000533
 11
56.6576946759159199
 21
237.960705080947406
 31
-0.0000000000000528
210
0.0000000000000002
220
1.0
230
-0.0000000000000002
  0
LINE
  5
31BF
  8
0
  6
CONTINUOUS
 62
     3
 10
-55.7067558379249519
 20
240.0000000000001137
 30
-0.0000000000000533
 11
-56.6576946759158204
 21
237.960705080947406
 31
-0.0000000000000528
210
0.0000000000000002
220
1.0
230
-0.0000000000000002
  0
ARC
  5
31C0
  8
0
  6
CONTINUOUS
 62
     3
 10
33.9999999999985505
 20
227.3952485374285004
 30
0.0
 40
25.0000000000013998
210
0.0
220
-0.0000000000000002
230
-1.0
 50
0.0000000000010559
 51
25.0000000000019789
  0
ARC
  5
31C1
  8
0
  6
CONTINUOUS
 62
     3
 10
-33.9999999999986429
 20
227.3952485374285004
 30
0.0
 40
25.0000000000014104
210
0.0
220
-0.0000000000000002
230
-1.0
 50
154.9999999999980105
 51
179.9999999999988916
  0
LINE
  5
31C2
  8
0
  6
CONTINUOUS
 62
     3
 10
59.0000000000000497
 20
227.3952485374288983
 30
-0.0000000000000505
 11
59.0000000000000497
 21
212.2332005306815859
 31
-0.0000000000000471
210
0.0000000000000002
220
1.0
230
-0.0000000000000002
  0
LINE
  5
31C3
  8
0
  6
CONTINUOUS
 62
     3
 10
-58.9999999999999503
 20
227.3952485374288983
 30
-0.0000000000000505
 11
-58.9999999999999503
 21
212.2332005306815859
 31
-0.0000000000000471
210
0.0000000000000002
220
1.0
230
-0.0000000000000002
  0
ARC
  5
31C4
  8
0
  6
CONTINUOUS
 62
     3
 10
33.9999999999968665
 20
212.2332005306822964
 30
0.0
 40
25.0000000000030909
210
0.0
220
-0.0000000000000002
230
-1.0
 50
333.1119523822775932
 51
359.9999999999984084
  0
ARC
  5
31C5
  8
0
  6
CONTINUOUS
 62
     3
 10
-33.9999999999970868
 20
212.2332005306822964
 30
0.0
 40
25.0000000000029701
210
0.0
220
-0.0000000000000002
230
-1.0
 50
180.0000000000015064
 51
206.8880476177224068
  0
ARC
  5
31C6
  8
0
  6
CONTINUOUS
 62
     3
 10
66.9999999999973852
 20
195.5000000000005969
 30
0.0
 40
11.9999999999974296
210
0.0
220
-0.0000000000000002
230
-1.0
 50
153.1119523822729036
 51
180.0000000000036948
  0
ARC
  5
31C7
  8
0
  6
CONTINUOUS
 62
     3
 10
-66.9999999999975984
 20
195.5000000000005969
 30
0.0
 40
11.9999999999975504
210
0.0
220
-0.0000000000000002
230
-1.0
 50
359.9999999999961915
 51
26.8880476177267909
  0
LINE
  5
31C8
  8
0
  6
CONTINUOUS
 62
     3
 10
55.0000000000000426
 20
195.499999999999801
 30
-0.0000000000000434
 11
55.0000000000000426
 21
176.9274888769475069
 31
-0.0000000000000393
210
0.0000000000000002
220
1.0
230
-0.0000000000000002
  0
LINE
  5
31C9
  8
0
  6
CONTINUOUS
 62
     3
 10
-54.9999999999999574
 20
195.499999999999801
 30
-0.0000000000000434
 11
-54.9999999999999574
 21
176.9274888769475069
 31
-0.0000000000000393
210
0.0000000000000002
220
1.0
230
-0.0000000000000002
  0
ARC
  5
31CA
  8
0
  6
CONTINUOUS
 62
     3
 10
40.0000000000015774
 20
176.927488876947109
 30
0.0
 40
14.9999999999983693
210
0.0
220
-0.0000000000000002
230
-1.0
 50
325.6988472432059893
 51
0.0000000000014249
  0
ARC
  5
31CB
  8
0
  6
CONTINUOUS
 62
     3
 10
-40.0000000000016627
 20
176.927488876947109
 30
0.0
 40
14.99999999999838
210
0.0
220
-0.0000000000000002
230
-1.0
 50
179.9999999999986073
 51
214.301152756793897
  0
ARC
  5
31CC
  8
0
  6
CONTINUOUS
 62
     3
 10
59.000000000002423
 20
163.9660074801311112
 30
0.0
 40
8.000000000002462
210
0.0
220
-0.0000000000000002
230
-1.0
 50
145.6988472432148001
 51
179.9999999999951115
  0
ARC
  5
31CD
  8
0
  6
CONTINUOUS
 62
     3
 10
-59.000000000002558
 20
163.9660074801311112
 30
0.0
 40
8.0000000000025224
210
0.0
220
-0.0000000000000002
230
-1.0
 50
0.0000000000048981
 51
34.3011527567849015
  0
LINE
  5
31CE
  8
0
  6
CONTINUOUS
 62
     3
 10
51.0000000000000426
 20
163.9660074801317933
 30
-0.0000000000000364
 11
51.0000000000000284
 21
138.3542480601117006
 31
-0.0000000000000307
210
0.0000000000000002
220
1.0
230
-0.0000000000000002
  0
LINE
  5
31CF
  8
0
  6
CONTINUOUS
 62
     3
 10
-50.9999999999999574
 20
163.9660074801317933
 30
-0.0000000000000364
 11
-50.9999999999999716
 21
138.3542480601117006
 31
-0.0000000000000307
210
0.0000000000000002
220
1.0
230
-0.0000000000000002
  0
ARC
  5
31D0
  8
0
  6
CONTINUOUS
 62
     3
 10
58.9999999999999716
 20
138.3542480601115869
 30
0.0
 40
7.9999999999999636
210
0.0
220
-0.0000000000000002
230
-1.0
 50
179.9999999999996021
 51
230.8975506975938004
  0
ARC
  5
31D1
  8
0
  6
CONTINUOUS
 62
     3
 10
-59.0000000000000284
 20
138.3542480601115869
 30
0.0
 40
7.9999999999999707
210
0.0
220
-0.0000000000000002
230
-1.0
 50
309.1024493024062849
 51
0.0000000000004198
  0
LINE
  5
31D2
  8
0
  6
CONTINUOUS
 62
     3
 10
53.9543281472756604
 20
132.1460924922618005
 30
-0.0000000000000293
 11
68.5000000000000142
 21
120.004768680348306
 31
-0.0000000000000266
210
0.0000000000000002
220
1.0
230
-0.0000000000000002
  0
LINE
  5
31D3
  8
0
  6
CONTINUOUS
 62
     3
 10
-53.9543281472755965
 20
132.1460924922618005
 30
-0.0000000000000293
 11
-68.4999999999999574
 21
120.0047686803484055
 31
-0.0000000000000266
210
0.0000000000000002
220
1.0
230
-0.0000000000000002
  0
LINE
  5
31D4
  8
0
  6
VERDECKT
 62
     1
 10
66.1765561694963509
 20
120.0047686803484055
 30
-0.0000000000000266
 11
76.1408262836436762
 21
101.0206811849175068
 31
-0.0000000000000224
210
0.0000000000000002
220
1.0
230
-0.0000000000000002
  0
LINE
  5
31D5
  8
0
  6
VERDECKT
 62
     1
 10
-66.176556169496294
 20
120.0047686803484055
 30
-0.0000000000000266
 11
-76.1408262836436194
 21
101.0206811849175068
 31
-0.0000000000000224
210
0.0000000000000002
220
1.0
230
-0.0000000000000002
  0
ARC
  5
31D6
  8
0
  6
VERDECKT
 62
     1
 10
-69.4999999999987637
 20
97.5350784722620858
 30
0.0
 40
7.5000000000012701
210
0.0
220
-0.0000000000000002
230
-1.0
 50
152.3061486109818929
 51
179.9999999999969873
  0
ARC
  5
31D7
  8
0
  6
VERDECKT
 62
     1
 10
69.4999999999986926
 20
97.5350784722621
 30
0.0
 40
7.5000000000012781
210
0.0
220
-0.0000000000000002
230
-1.0
 50
0.0000000000030533
 51
27.6938513890180182
  0
LINE
  5
31D8
  8
0
  6
VERDECKT
 62
     1
 10
-77.0
 20
15.1091523572713609
 30
-0.0000000000000034
 11
-76.9999999999999716
 21
97.5350784722624979
 31
-0.0000000000000217
210
0.0000000000000002
220
1.0
230
-0.0000000000000002
  0
LINE
  5
31D9
  8
0
  6
VERDECKT
 62
     1
 10
77.0
 20
15.10915235727132
 30
-0.0000000000000034
 11
77.0000000000000142
 21
97.5350784722624695
 31
-0.0000000000000217
210
0.0000000000000002
220
1.0
230
-0.0000000000000002
  0
LINE
  5
31DA
  8
0
  6
VERDECKT
 62
     1
 10
-75.6781204532526317
 20
-0.0000000000000418
 30
0.0
 11
-77.0
 21
15.1091523572713609
 31
-0.0000000000000034
210
0.0000000000000002
220
1.0
230
-0.0000000000000002
  0
LINE
  5
31DB
  8
0
  6
VERDECKT
 62
     1
 10
75.6781204532526317
 20
-0.0000000000000754
 30
0.0
 11
77.0
 21
15.1091523572713307
 31
-0.0000000000000034
210
0.0000000000000002
220
1.0
230
-0.0000000000000002
  0
ARC
  5
31DC
  8
0
  6
VERDECKT
 62
     1
 10
33.9999999999977618
 20
227.3952485374285004
 30
0.0
 40
23.0000000000021991
210
0.0
220
-0.0000000000000002
230
-1.0
 50
0.0000000000010814
 51
25.0000000000005507
  0
ARC
  5
31DD
  8
0
  6
VERDECKT
 62
     1
 10
-33.9999999999978613
 20
227.3952485374285004
 30
0.0
 40
23.0000000000021885
210
0.0
220
-0.0000000000000002
230
-1.0
 50
154.9999999999994031
 51
179.9999999999988916
  0
LINE
  5
31DE
  8
0
  6
VERDECKT
 62
     1
 10
53.4999999999997371
 20
240.0
 30
-0.0000000000000533
 11
54.8450791018426216
 21
237.1154685574657037
 31
-0.0000000000000527
210
0.0000000000000002
220
1.0
230
-0.0000000000000002
  0
LINE
  5
31DF
  8
0
  6
VERDECKT
 62
     1
 10
-53.4999999999996305
 20
240.0
 30
-0.0000000000000533
 11
-54.8450791018425221
 21
237.1154685574657037
 31
-0.0000000000000527
210
0.0000000000000002
220
1.0
230
-0.0000000000000002
  0
LINE
  5
31E0
  8
0
  6
VERDECKT
 62
     1
 10
52.6822001659641828
 20
130.6027704424535898
 30
-0.000000000000029
 11
65.3789256890009511
 21
120.004768680348306
 31
-0.0000000000000266
210
0.0000000000000002
220
1.0
230
-0.0000000000000002
  0
LINE
  5
31E1
  8
0
  6
VERDECKT
 62
     1
 10
-52.6822001659641188
 20
130.6027704424535898
 30
-0.000000000000029
 11
-65.3789256890008943
 21
120.004768680348306
 31
-0.0000000000000266
210
0.0000000000000002
220
1.0
230
-0.0000000000000002
  0
ARC
  5
31E2
  8
0
  6
VERDECKT
 62
     1
 10
58.9999999999995168
 20
138.3542480601115017
 30
0.0
 40
9.9999999999995453
210
0.0
220
-0.0000000000000002
230
-1.0
 50
179.9999999999990052
 51
230.8184310853694967
  0
ARC
  5
31E3
  8
0
  6
VERDECKT
 62
     1
 10
-58.9999999999995666
 20
138.3542480601115017
 30
0.0
 40
9.9999999999995488
210
0.0
220
-0.0000000000000002
230
-1.0
 50
309.1815689146305886
 51
0.0000000000009987
  0
LINE
  5
31E4
  8
0
  6
VERDECKT
 62
     1
 10
49.0000000000000284
 20
163.9660074801317933
 30
-0.0000000000000364
 11
49.0000000000000284
 21
138.3542480601117006
 31
-0.0000000000000307
210
0.0000000000000002
220
1.0
230
-0.0000000000000002
  0
LINE
  5
31E5
  8
0
  6
VERDECKT
 62
     1
 10
-48.9999999999999574
 20
163.9660074801317933
 30
-0.0000000000000364
 11
-48.9999999999999716
 21
138.3542480601117006
 31
-0.0000000000000307
210
0.0000000000000002
220
1.0
230
-0.0000000000000002
  0
ARC
  5
31E6
  8
0
  6
VERDECKT
 62
     1
 10
58.9999999999996732
 20
163.966007480131708
 30
0.0
 40
9.999999999999714
210
0.0
220
-0.0000000000000002
230
-1.0
 50
145.6988472432070125
 51
179.9999999999994884
  0
ARC
  5
31E7
  8
0
  6
VERDECKT
 62
     1
 10
-58.9999999999997371
 20
163.966007480131708
 30
0.0
 40
9.999999999999714
210
0.0
220
-0.0000000000000002
230
-1.0
 50
0.0000000000005089
 51
34.3011527567930301
  0
ARC
  5
31E8
  8
0
  6
VERDECKT
 62
     1
 10
39.9999999999989129
 20
176.9274888769477059
 30
0.0
 40
13.0000000000010392
210
0.0
220
-0.0000000000000002
230
-1.0
 50
325.6988472432104231
 51
359.9999999999988063
  0
ARC
  5
31E9
  8
0
  6
VERDECKT
 62
     1
 10
-39.9999999999989981
 20
176.9274888769477059
 30
0.0
 40
13.0000000000010392
210
0.0
220
-0.0000000000000002
230
-1.0
 50
180.0000000000011084
 51
214.3011527567896053
  0
LINE
  5
31EA
  8
0
  6
VERDECKT
 62
     1
 10
53.0000000000000426
 20
195.5
 30
-0.0000000000000434
 11
53.0000000000000426
 21
176.9274888769475069
 31
-0.0000000000000393
210
0.0000000000000002
220
1.0
230
-0.0000000000000002
  0
LINE
  5
31EB
  8
0
  6
VERDECKT
 62
     1
 10
-52.9999999999999574
 20
195.5
 30
-0.0000000000000434
 11
-52.9999999999999574
 21
176.9274888769475069
 31
-0.0000000000000393
210
0.0000000000000002
220
1.0
230
-0.0000000000000002
  0
ARC
  5
31EC
  8
0
  6
VERDECKT
 62
     1
 10
66.9999999999992895
 20
195.5000000000003979
 30
0.0
 40
13.9999999999993108
210
0.0
220
-0.0000000000000002
230
-1.0
 50
153.1119523822750921
 51
180.0000000000015916
  0
ARC
  5
31ED
  8
0
  6
VERDECKT
 62
     1
 10
-66.9999999999993747
 20
195.5000000000003126
 30
0.0
 40
13.9999999999993197
210
0.0
220
-0.0000000000000002
230
-1.0
 50
359.9999999999984084
 51
26.8880476177248404
  0
ARC
  5
31EE
  8
0
  6
VERDECKT
 62
     1
 10
34.0000000000003126
 20
212.2332005306815859
 30
0.0
 40
22.9999999999996305
210
0.0
220
-0.0000000000000002
230
-1.0
 50
333.1119523822758879
 51
360.0
  0
ARC
  5
31EF
  8
0
  6
VERDECKT
 62
     1
 10
-34.0000000000004121
 20
212.2332005306815859
 30
0.0
 40
22.9999999999996412
210
0.0
220
-0.0000000000000002
230
-1.0
 50
180.0
 51
206.8880476177241121
  0
LINE
  5
31F0
  8
0
  6
VERDECKT
 62
     1
 10
57.0000000000000497
 20
227.3952485374288983
 30
-0.0000000000000505
 11
57.0000000000000497
 21
212.2332005306815859
 31
-0.0000000000000471
210
0.0000000000000002
220
1.0
230
-0.0000000000000002
  0
LINE
  5
31F1
  8
0
  6
VERDECKT
 62
     1
 10
-56.9999999999999503
 20
227.3952485374288983
 30
-0.0000000000000505
 11
-56.9999999999999503
 21
212.2332005306815859
 31
-0.0000000000000471
210
0.0000000000000002
220
1.0
230
-0.0000000000000002
  0
ENDBLK
  5
31F3
  8
0
  0
BLOCK
  8
0
  2
A$C57EF3A7F
 70
     0
 10
0.0
 20
0.0
 30
0.0
  3
A$C57EF3A7F
  1

  0
CIRCLE
  5
31F7
  8
0
  6
CONTINUOUS
 62
     3
 10
0.0000000000000217
 20
0.0000000000000222
 30
0.0
 40
79.5
  0
CIRCLE
  5
31F8
  8
0
  6
CONTINUOUS
 62
     3
 10
0.0000000000000266
 20
0.0000000000000236
 30
0.0
 40
69.0
  0
CIRCLE
  5
31F9
  8
0
  6
CONTINUOUS
 62
     3
 10
0.0000000000000533
 20
0.000000000000031
 30
0.0
 40
53.4999999999997726
  0
CIRCLE
  5
31FA
  8
0
  6
CONTINUOUS
 62
     3
 10
0.0000000000000533
 20
0.000000000000031
 30
0.0
 40
55.7067558379249022
  0
CIRCLE
  5
31FB
  8
0
  6
CONTINUOUS
 62
     3
 10
0.0000000000000505
 20
0.0000000000000302
 30
0.0
 40
59.0
  0
CIRCLE
  5
31FC
  8
0
  6
CONTINUOUS
 62
     3
 10
0.0000000000000266
 20
0.0000000000000236
 30
0.0
 40
68.5
  0
CIRCLE
  5
31FD
  8
0
  6
CONTINUOUS
 62
     3
 10
0.0000000000000364
 20
0.0000000000000263
 30
0.0
 40
49.0
  0
CIRCLE
  5
31FE
  8
0
  6
CONTINUOUS
 62
     3
 10
0.0000000000000434
 20
0.0000000000000282
 30
0.0
 40
53.0
  0
CIRCLE
  5
31FF
  8
0
  6
VERDECKT
 62
     1
 10
0.0000000000000266
 20
0.0000000000000236
 30
0.0
 40
66.1765561694962798
  0
CIRCLE
  5
3200
  8
0
  6
VERDECKT
 62
     1
 10
0.0000000000000217
 20
0.0000000000000222
 30
0.0
 40
77.0
  0
CIRCLE
  5
3201
  8
0
  6
VERDECKT
 62
     1
 10
0.0
 20
0.0000000000000163
 30
0.0
 40
75.6781204532526317
  0
CIRCLE
  5
3202
  8
0
  6
VERDECKT
 62
     1
 10
0.0
 20
0.0000000000000163
 30
0.0
 40
78.187670047111169
  0
CIRCLE
  5
3203
  8
0
  6
VERDECKT
 62
     1
 10
0.0000000000000505
 20
0.0000000000000302
 30
0.0
 40
57.0
  0
CIRCLE
  5
3204
  8
0
  6
VERDECKT
 62
     1
 10
0.0000000000000434
 20
0.0000000000000282
 30
0.0
 40
55.0
  0
CIRCLE
  5
3205
  8
0
  6
VERDECKT
 62
     1
 10
0.0000000000000364
 20
0.0000000000000263
 30
0.0
 40
51.0
  0
CIRCLE
  5
3206
  8
0
  6
VERDECKT
 62
     1
 10
0.0000000000000266
 20
0.0000000000000236
 30
0.0
 40
65.3789256890008801
  0
ENDBLK
  5
3208
  8
0
  0
ENDSEC
  0
SECTION
  2
ENTITIES
  0
TEXT
  5
8F
  8
VOLL
 10
78.076754716981128
 20
31.025947764705851
 30
0.0
 40
1.8
  1

  7
GREEKS
  0
TEXT
  5
2A5C
  8
VOLL
 10
564.9836478167925407
 20
397.1204901430385803
 30
0.0
 40
1.8
  1

  7
GREEKS
  0
INSERT
  5
31F4
  8
STEMPEL
  2
A$C35C07AD9
 10
0.0
 20
0.0
 30
0.0
  0
INSERT
  5
3209
  8
STEMPEL
  2
A$C57EF3A7F
 10
-0.0000000000000177
 20
-179.5
 30
0.0
  0
VIEWPORT
  5
2D52
 67
     1
  8
0
 10
7.6364399598692438
 20
10.9564435014573505
 30
0.0
 40
44.2784844524179491
 41
22.5508616035886895
 68
     1
 69
     1
1001
ACAD
1000
MVIEW
1002
{
1070
    16
1010
0.0
1020
0.0
1030
0.0
1010
0.0
1020
0.0
1030
1.0
1040
0.0
1040
22.5508616035886895
1040
7.6364399598692438
1040
10.9564435014573505
1040
50.0
1040
0.0
1040
0.0
1070
     0
1070
  1500
1070
     1
1070
     1
1070
     0
1070
     0
1070
     0
1070
     0
1040
0.0
1040
0.0
1040
0.0
1040
10.0
1040
10.0
1040
10.0
1040
10.0
1070
     0
1002
{
1002
}
1002
}
  0
VIEWPORT
  5
2D56
 67
     1
  8
DEFPOINTS
 10
7.6364413842942973
 20
10.9564282546576095
 30
0.0
 40
15.7272153355667506
 41
22.37375235503848
 68
     2
 69
     2
1001
ACAD
1000
MVIEW
1002
{
1070
    16
1010
0.0
1020
0.0
1030
0.0
1010
0.0
1020
0.0
1030
1.0
1040
0.0
1040
612.5095564446412482
1040
208.8725940980685039
1040
299.6385890447559177
1040
50.0
1040
0.0
1040
0.0
1070
     0
1070
  1500
1070
     1
1070
     0
1070
     0
1070
     0
1070
     0
1070
     0
1040
0.0
1040
0.0
1040
0.0
1040
1.0
1040
1.0
1040
10.0
1040
10.0
1070
     0
1002
{
1002
}
1002
}
  0
VIEWPORT
  5
2D5A
 67
     1
  8
DEFPOINTS
 10
12.5356734214327794
 20
8.8102731574594806
 30
0.0
 40
3.9956576549511018
 41
5.4905188907876763
 68
     3
 69
     3
1001
ACAD
1000
MVIEW
1002
{
1070
    16
1010
842.0754552384861427
1020
388.5943353156754938
1030
-1.2152424445510051
1010
0.0
1020
197.0726539357928004
1030
485.5524183813652144
1040
3.1415926535897931
1040
355.9093051909367205
1040
0.0
1040
0.0
1040
50.0
1040
0.0
1040
0.0
1070
     0
1070
  1500
1070
     1
1070
     0
1070
     0
1070
     0
1070
     0
1070
     0
1040
0.0
1040
0.0
1040
0.0
1040
1.0
1040
1.0
1040
10.0
1040
10.0
1070
     0
1002
{
1002
}
1002
}
  0
ENDSEC
  0
EOF
