  0
SECTION
  2
HEADER
  9
$ACADVER
  1
AC1009
  9
$INSBASE
 10
0.0
 20
0.0
 30
0.0
  9
$EXTMIN
 10
-66.5166801572637496
 20
-233.0253926788356864
 30
-0.0070185074666256
  9
$EXTMAX
 10
67.424519561021043
 20
230.0494863415281088
 30
0.010528832220416
  9
$LIMMIN
 10
0.0
 20
0.0
  9
$LIMMAX
 10
419.9999999999998863
 20
594.0
  9
$ORTHOMODE
 70
     1
  9
$REGENMODE
 70
     1
  9
$FILLMODE
 70
     1
  9
$QTEXTMODE
 70
     0
  9
$MIRRTEXT
 70
     1
  9
$DRAGMODE
 70
     2
  9
$LTSCALE
 40
20.0
  9
$OSMODE
 70
  2559
  9
$ATTMODE
 70
     1
  9
$TEXTSIZE
 40
3.5
  9
$TRACEWID
 40
0.5
  9
$TEXTSTYLE
  7
STANDARD
  9
$CLAYER
  8
STEMPEL
  9
$CELTYPE
  6
BYLAYER
  9
$CECOLOR
 62
   256
  9
$DIMSCALE
 40
2.0
  9
$DIMASZ
 40
3.5
  9
$DIMEXO
 40
1.0
  9
$DIMDLI
 40
7.0
  9
$DIMRND
 40
0.0
  9
$DIMDLE
 40
0.0
  9
$DIMEXE
 40
1.0
  9
$DIMTP
 40
0.0
  9
$DIMTM
 40
0.0
  9
$DIMTXT
 40
3.5
  9
$DIMCEN
 40
1.5
  9
$DIMTSZ
 40
0.0
  9
$DIMTOL
 70
     0
  9
$DIMLIM
 70
     0
  9
$DIMTIH
 70
     0
  9
$DIMTOH
 70
     0
  9
$DIMSE1
 70
     0
  9
$DIMSE2
 70
     0
  9
$DIMTAD
 70
     1
  9
$DIMZIN
 70
     8
  9
$DIMBLK
  1

  9
$DIMASO
 70
     1
  9
$DIMSHO
 70
     0
  9
$DIMPOST
  1

  9
$DIMAPOST
  1

  9
$DIMALT
 70
     0
  9
$DIMALTD
 70
     2
  9
$DIMALTF
 40
25.3999999999999986
  9
$DIMLFAC
 40
1.0
  9
$DIMTOFL
 70
     1
  9
$DIMTVP
 40
0.0
  9
$DIMTIX
 70
     0
  9
$DIMSOXD
 70
     0
  9
$DIMSAH
 70
     0
  9
$DIMBLK1
  1

  9
$DIMBLK2
  1

  9
$DIMSTYLE
  2
STANDARD
  9
$DIMCLRD
 70
     0
  9
$DIMCLRE
 70
     0
  9
$DIMCLRT
 70
     1
  9
$DIMTFAC
 40
0.5142857142857143
  9
$DIMGAP
 40
1.5
  9
$LUNITS
 70
     2
  9
$LUPREC
 70
     2
  9
$SKETCHINC
 40
1.0
  9
$FILLETRAD
 40
0.0
  9
$AUNITS
 70
     0
  9
$AUPREC
 70
     0
  9
$MENU
  1
ACAD
  9
$ELEVATION
 40
0.0
  9
$PELEVATION
 40
0.0
  9
$THICKNESS
 40
0.0
  9
$LIMCHECK
 70
     0
  9
$BLIPMODE
 70
     0
  9
$CHAMFERA
 40
0.0
  9
$CHAMFERB
 40
0.0
  9
$SKPOLY
 70
     0
  9
$TDCREATE
 40
2455397.8646990740671754
  9
$TDUPDATE
 40
2458375.6175347231328487
  9
$TDINDWG
 40
0.10923875
  9
$TDUSRTIMER
 40
0.10923875
  9
$USRTIMER
 70
     1
  9
$ANGBASE
 50
0.0
  9
$ANGDIR
 70
     0
  9
$PDMODE
 70
     0
  9
$PDSIZE
 40
0.0
  9
$PLINEWID
 40
0.0
  9
$COORDS
 70
     1
  9
$SPLFRAME
 70
     0
  9
$SPLINETYPE
 70
     6
  9
$SPLINESEGS
 70
     8
  9
$ATTDIA
 70
     1
  9
$ATTREQ
 70
     1
  9
$HANDLING
 70
     1
  9
$HANDSEED
  5
2D06
  9
$SURFTAB1
 70
     6
  9
$SURFTAB2
 70
     6
  9
$SURFTYPE
 70
     6
  9
$SURFU
 70
     6
  9
$SURFV
 70
     6
  9
$UCSNAME
  2

  9
$UCSORG
 10
0.0
 20
0.0
 30
0.0
  9
$UCSXDIR
 10
1.0
 20
0.0
 30
0.0
  9
$UCSYDIR
 10
0.0
 20
1.0
 30
0.0
  9
$PUCSNAME
  2

  9
$PUCSORG
 10
0.0
 20
0.0
 30
0.0
  9
$PUCSXDIR
 10
1.0
 20
0.0
 30
0.0
  9
$PUCSYDIR
 10
0.0
 20
1.0
 30
0.0
  9
$USERI1
 70
     0
  9
$USERI2
 70
     0
  9
$USERI3
 70
     0
  9
$USERI4
 70
     0
  9
$USERI5
 70
     0
  9
$USERR1
 40
0.0
  9
$USERR2
 40
0.0
  9
$USERR3
 40
0.0
  9
$USERR4
 40
0.0
  9
$USERR5
 40
0.0
  9
$WORLDVIEW
 70
     1
  9
$SHADEDGE
 70
     3
  9
$SHADEDIF
 70
    70
  9
$TILEMODE
 70
     1
  9
$MAXACTVP
 70
    16
  9
$PLIMCHECK
 70
     0
  9
$PEXTMIN
 10
-0.2279917361238368
 20
-0.2080643894291327
 30
-0.0000000000000058
  9
$PEXTMAX
 10
13.1044559435734005
 20
18.3200876331631015
 30
0.0000000000000104
  9
$PLIMMIN
 10
-0.2500002402958907
 20
-0.2499999962453767
  9
$PLIMMAX
 10
10.7499995194082203
 20
8.2499997634587334
  9
$UNITMODE
 70
     0
  9
$VISRETAIN
 70
     0
  9
$PLINEGEN
 70
     0
  9
$PSLTSCALE
 70
     0
  0
ENDSEC
  0
SECTION
  2
TABLES
  0
TABLE
  2
VPORT
 70
     1
  0
VPORT
  2
*ACTIVE
 70
     0
 10
0.0
 20
0.0
 11
1.0
 21
1.0
 12
0.4539197018785899
 22
-83.2407531564467718
 13
0.0
 23
0.0
 14
1.0
 24
1.0
 15
10.0
 25
10.0
 16
-0.0000000000001856
 26
0.0
 36
835.6932452249880043
 17
0.0
 27
81.7527999877929688
 37
-0.0000000000000255
 40
465.4354986245456871
 41
1.868197278911564
 42
50.0
 43
0.0
 44
0.0
 50
0.0
 51
0.0
 71
     0
 72
  1500
 73
     1
 74
     0
 75
     0
 76
     0
 77
     0
 78
     0
  0
ENDTAB
  0
TABLE
  2
LTYPE
 70
     4
  0
LTYPE
  2
CONTINUOUS
 70
     0
  3
Solid line
 72
    65
 73
     0
 40
0.0
  0
LTYPE
  2
AUSGEZOGEN
 70
     0
  3
Ausgezogene Linie
 72
    65
 73
     0
 40
0.0
  0
LTYPE
  2
VERDECKT
 70
     0
  3
_ _ _ _ _ _ _ _ _ _ _ _ _ _ _ _ _ _ _ _ _ _ _
 72
    65
 73
     2
 40
0.375
 49
0.25
 49
-0.125
  0
ENDTAB
  0
TABLE
  2
LAYER
 70
    10
  0
LAYER
  2
0
 70
     0
 62
     7
  6
CONTINUOUS
  0
LAYER
  2
VOLL
 70
     0
 62
     1
  6
CONTINUOUS
  0
LAYER
  2
STEMPEL
 70
     0
 62
     3
  6
CONTINUOUS
  0
LAYER
  2
DEFPOINTS
 70
     0
 62
     7
  6
AUSGEZOGEN
  0
ENDTAB
  0
TABLE
  2
STYLE
 70
     2
  0
STYLE
  2
STANDARD
 70
     0
 40
0.0
 41
0.8
 50
0.0
 71
     0
 42
3.5
  3
simplex.shx
  4

  0
STYLE
  2
GREEKS
 70
     0
 40
0.0
 41
0.8
 50
0.0
 71
     0
 42
2.5
  3
SIMPLEX.shx
  4

  0
ENDTAB
  0
TABLE
  2
VIEW
 70
     1
  0
ENDTAB
  0
TABLE
  2
UCS
 70
     0
  0
ENDTAB
  0
TABLE
  2
APPID
 70
     9
  0
APPID
  2
ACAD
 70
     0
  0
APPID
  2
ACAD_NAV_VCDISPLAY
 70
     0
  0
APPID
  2
ACAD_PSEXT
 70
     0
  0
APPID
  2
ACAD_EXEMPT_FROM_CAD_STANDARDS
 70
     0
  0
APPID
  2
ACAD_MLEADERVER
 70
     0
  0
APPID
  2
ACADANNOMONITORALERTICONDI
 70
     0
  0
APPID
  2
ACAECLAYERSTANDARD
 70
     0
  0
APPID
  2
ACCMTRANSPARENCY
 70
     0
  0
APPID
  2
ACAD_OBJECT_CHANGE_GUID
 70
     0
  0
ENDTAB
  0
TABLE
  2
DIMSTYLE
 70
     1
  0
DIMSTYLE
  2
STANDARD
 70
     0
  3

  4

  5

  6

  7

 40
1.0
 41
0.18
 42
0.0625
 43
0.38
 44
0.18
 45
0.0
 46
0.0
 47
0.0
 48
0.0
140
0.18
141
0.09
142
0.0
143
25.3999999999999986
144
1.0
145
0.0
146
1.0
147
0.09
 71
     0
 72
     0
 73
     1
 74
     1
 75
     0
 76
     0
 77
     0
 78
     0
170
     0
171
     2
172
     0
173
     0
174
     0
175
     0
176
     0
177
     0
178
     0
  0
ENDTAB
  0
ENDSEC
  0
SECTION
  2
BLOCKS
  0
BLOCK
  8
0
  2
$MODEL_SPACE
 70
     0
 10
0.0
 20
0.0
 30
0.0
  3
$MODEL_SPACE
  1

  0
ENDBLK
  5
36
  8
0
  0
BLOCK
 67
     1
  8
0
  2
$PAPER_SPACE
 70
     0
 10
0.0
 20
0.0
 30
0.0
  3
$PAPER_SPACE
  1

  0
ENDBLK
  5
34
 67
     1
  8
0
  0
BLOCK
  8
0
  2
A$C40F81880
 70
     0
 10
0.0
 20
0.0
 30
0.0
  3
A$C40F81880
  1

  0
LINE
  5
2C60
  8
0
  6
CONTINUOUS
 62
     3
 10
-59.0
 20
120.0000000000000995
 30
-0.0000000000000266
 11
59.0000000000002274
 21
120.0
 31
-0.0000000000000266
210
0.0
220
1.0
230
-0.0000000000000002
  0
LINE
  5
2C61
  8
0
  6
CONTINUOUS
 62
     3
 10
-65.1876700471110553
 20
0.0000000000001705
 30
0.0
 11
65.1876700471110553
 21
-0.0000000000000568
 31
0.0
210
0.0
220
1.0
230
-0.0000000000000002
  0
LINE
  5
2C62
  8
0
  6
CONTINUOUS
 62
     3
 10
59.0000000000002274
 20
120.0
 30
-0.0000000000000266
 11
65.5449376635358334
 21
102.5468328972382039
 31
-0.0000000000000228
210
0.0
220
1.0
230
-0.0000000000000002
  0
LINE
  5
2C63
  8
0
  6
CONTINUOUS
 62
     3
 10
-59.0
 20
120.0000000000000995
 30
-0.0000000000000266
 11
-65.5449376635356202
 21
102.5468328972384029
 31
-0.0000000000000228
210
0.0
220
1.0
230
-0.0000000000000002
  0
ARC
  5
2C64
  8
0
  6
CONTINUOUS
 62
     3
 10
51.4999999999972502
 20
97.2799812734122327
 30
0.0
 40
15.0000000000025899
210
0.0
220
-0.0000000000000002
230
-1.0
 50
0.0000000000010941
 51
20.556045219580799
  0
ARC
  5
2C65
  8
0
  6
CONTINUOUS
 62
     3
 10
-51.499999999997442
 20
97.279981273412119
 30
0.0
 40
15.0000000000026308
210
0.0
220
-0.0000000000000002
230
-1.0
 50
159.4439547804192046
 51
179.9999999999988916
  0
LINE
  5
2C66
  8
0
  6
CONTINUOUS
 62
     3
 10
66.4999999999999147
 20
97.2799812734124032
 30
-0.0000000000000216
 11
66.4999999999998579
 21
15.0000000000001705
 31
-0.0000000000000033
210
0.0
220
1.0
230
-0.0000000000000002
  0
LINE
  5
2C67
  8
0
  6
CONTINUOUS
 62
     3
 10
-66.4999999999998579
 20
97.2799812734125169
 30
-0.0000000000000216
 11
-66.4999999999999147
 21
15.0000000000002895
 31
-0.0000000000000033
210
0.0
220
1.0
230
-0.0000000000000002
  0
LINE
  5
2C68
  8
0
  6
CONTINUOUS
 62
     3
 10
-65.1876700471110553
 20
0.0000000000000577
 30
0.0
 11
-66.4999999999998863
 21
15.0000000000002895
 31
-0.0000000000000033
210
0.0
220
1.0
230
-0.0000000000000002
  0
LINE
  5
2C69
  8
0
  6
CONTINUOUS
 62
     3
 10
65.1876700471110411
 20
-0.0000000000000497
 30
0.0
 11
66.4999999999999005
 21
15.0000000000001705
 31
-0.0000000000000033
210
0.0
220
1.0
230
-0.0000000000000002
  0
LINE
  5
2C6A
  8
0
  6
CONTINUOUS
 62
     3
 10
-55.7067558379272825
 20
229.9999999999988916
 30
-0.0000000000000511
 11
55.7067558379225076
 21
230.0000000000013927
 31
-0.0000000000000511
210
0.0
220
1.0
230
-0.0000000000000002
  0
ARC
  5
2C6B
  8
0
  6
CONTINUOUS
 62
     3
 10
34.0000000000008669
 20
202.2332005306813869
 30
0.0
 40
25.0000000000002203
210
0.0
220
-0.0000000000000002
230
-1.0
 50
333.1119523822724204
 51
359.9999999999973852
  0
ARC
  5
2C6C
  8
0
  6
CONTINUOUS
 62
     3
 10
-33.9999999999968168
 20
202.2332005306830069
 30
0.0
 40
25.0000000000006288
210
0.0
220
-0.0000000000000002
230
-1.0
 50
180.0
 51
206.888047617724709
  0
ARC
  5
2C6D
  8
0
  6
CONTINUOUS
 62
     3
 10
66.9999999999990905
 20
185.4999999999984936
 30
0.0
 40
11.9999999999988205
210
0.0
220
-0.0000000000000002
230
-1.0
 50
153.111952382274211
 51
179.9999999999986073
  0
ARC
  5
2C6E
  8
0
  6
CONTINUOUS
 62
     3
 10
-66.9999999999965183
 20
185.5000000000015916
 30
0.0
 40
11.9999999999989697
210
0.0
220
-0.0000000000000002
230
-1.0
 50
359.9999999999985789
 51
26.8880476177225809
  0
LINE
  5
2C6F
  8
0
  6
CONTINUOUS
 62
     3
 10
54.9999999999972928
 20
185.5000000000013074
 30
-0.0000000000000412
 11
54.9999999999977121
 21
166.9274888769487859
 31
-0.0000000000000371
210
0.0
220
1.0
230
-0.0000000000000002
  0
LINE
  5
2C70
  8
0
  6
CONTINUOUS
 62
     3
 10
-54.9999999999999929
 20
185.4999999999988063
 30
-0.0000000000000412
 11
-54.9999999999995595
 21
166.9274888769463132
 31
-0.0000000000000371
210
0.0
220
1.0
230
-0.0000000000000002
  0
ARC
  5
2C71
  8
0
  6
CONTINUOUS
 62
     3
 10
39.9999999999997016
 20
166.927488876947109
 30
0.0
 40
14.9999999999998206
210
0.0
220
-0.0000000000000002
230
-1.0
 50
325.6988472432063872
 51
359.9999999999969873
  0
ARC
  5
2C72
  8
0
  6
CONTINUOUS
 62
     3
 10
-39.9999999999977121
 20
166.9274888769487859
 30
0.0
 40
14.9999999999997602
210
0.0
220
-0.0000000000000002
230
-1.0
 50
180.000000000000199
 51
214.3011527567907137
  0
ARC
  5
2C73
  8
0
  6
CONTINUOUS
 62
     3
 10
58.9999999999999289
 20
153.9660074801302017
 30
0.0
 40
8.0000000000010605
210
0.0
220
-0.0000000000000002
230
-1.0
 50
145.6988472432061883
 51
179.9999999999949978
  0
ARC
  5
2C74
  8
0
  6
CONTINUOUS
 62
     3
 10
-58.9999999999983871
 20
153.9660074801329017
 30
0.0
 40
8.0000000000008953
210
0.0
220
-0.0000000000000002
230
-1.0
 50
0.0000000000020356
 51
34.301152756791808
  0
LINE
  5
2C75
  8
0
  6
CONTINUOUS
 62
     3
 10
50.9999999999971791
 20
153.9660074801331859
 30
-0.0000000000000342
 11
50.999999999997577
 21
136.7747946939979045
 31
-0.0000000000000304
210
0.0
220
1.0
230
-0.0000000000000002
  0
LINE
  5
2C76
  8
0
  6
CONTINUOUS
 62
     3
 10
-50.9999999999984865
 20
153.9660074801309122
 30
-0.0000000000000342
 11
-50.9999999999980886
 21
136.7747946939956023
 31
-0.0000000000000304
210
0.0
220
1.0
230
-0.0000000000000002
  0
ARC
  5
2C77
  8
0
  6
CONTINUOUS
 62
     3
 10
58.9999999999965681
 20
136.7747946939952044
 30
0.0
 40
7.9999999999985567
210
0.0
220
-0.0000000000000002
230
-1.0
 50
179.999999999996902
 51
205.0168934781017072
  0
ARC
  5
2C78
  8
0
  6
CONTINUOUS
 62
     3
 10
-58.9999999999959996
 20
136.7747946939977908
 30
0.0
 40
7.9999999999986624
210
0.0
220
-0.0000000000000002
230
-1.0
 50
334.9831065218958202
 51
0.0000000000002036
  0
LINE
  5
2C79
  8
0
  6
CONTINUOUS
 62
     3
 10
51.7505348800354028
 20
133.391710971348914
 30
-0.0000000000000296
 11
57.9999999999976197
 21
120.0000000000014069
 31
-0.0000000000000266
210
0.0
220
1.0
230
-0.0000000000000002
  0
LINE
  5
2C7A
  8
0
  6
CONTINUOUS
 62
     3
 10
-51.7505348800359073
 20
133.3917109713466118
 30
-0.0000000000000296
 11
-57.9999999999975202
 21
119.9999999999988063
 31
-0.0000000000000266
210
0.0
220
1.0
230
-0.0000000000000002
  0
LINE
  5
2C7B
  8
0
  6
CONTINUOUS
 62
     3
 10
55.7067558379225432
 20
230.0000000000013927
 30
-0.0000000000000511
 11
56.6576946759138522
 21
227.960705080947406
 31
-0.0000000000000506
210
0.0
220
1.0
230
-0.0000000000000002
  0
LINE
  5
2C7C
  8
0
  6
CONTINUOUS
 62
     3
 10
-55.7067558379273535
 20
229.9999999999988916
 30
-0.0000000000000511
 11
-56.6576946759185915
 21
227.9607050809449049
 31
-0.0000000000000506
210
0.0
220
1.0
230
-0.0000000000000002
  0
ARC
  5
2C7D
  8
0
  6
CONTINUOUS
 62
     3
 10
33.9999999999995808
 20
217.3952485374281025
 30
0.0
 40
25.0000000000021991
210
0.0
220
-0.0000000000000002
230
-1.0
 50
359.9999999999988063
 51
24.9999999999958611
  0
ARC
  5
2C7E
  8
0
  6
CONTINUOUS
 62
     3
 10
-33.999999999995417
 20
217.3952485374296089
 30
0.0
 40
25.0000000000020499
210
0.0
220
-0.0000000000000002
230
-1.0
 50
155.0000000000013927
 51
179.9999999999984084
  0
LINE
  5
2C7F
  8
0
  6
CONTINUOUS
 62
     3
 10
58.9999999999973284
 20
217.395248537430291
 30
-0.0000000000000483
 11
58.9999999999976694
 21
202.2332005306830069
 31
-0.0000000000000449
210
0.0
220
1.0
230
-0.0000000000000002
  0
LINE
  5
2C80
  8
0
  6
CONTINUOUS
 62
     3
 10
-59.0000000000015419
 20
217.3952485374275909
 30
-0.0000000000000483
 11
-59.0000000000011866
 21
202.2332005306803069
 31
-0.0000000000000449
210
0.0
220
1.0
230
-0.0000000000000002
  0
LINE
  5
2C81
  8
0
  6
VERDECKT
 62
     1
 10
-62.678120453252518
 20
0.0000000000000009
 30
0.0
 11
-63.9999999999998792
 21
15.1091523572719595
 31
-0.0000000000000034
210
0.0
220
1.0
230
-0.0000000000000002
  0
LINE
  5
2C82
  8
0
  6
VERDECKT
 62
     1
 10
62.6781204532525109
 20
-0.0000000000001039
 30
0.0
 11
63.9999999999999005
 21
15.10915235727186
 31
-0.0000000000000034
210
0.0
220
1.0
230
-0.0000000000000002
  0
LINE
  5
2C83
  8
0
  6
VERDECKT
 62
     1
 10
63.9999999999999218
 20
97.2799812734124032
 30
-0.0000000000000216
 11
63.9999999999998508
 21
15.10915235727186
 31
-0.0000000000000034
210
0.0
220
1.0
230
-0.0000000000000002
  0
LINE
  5
2C84
  8
0
  6
VERDECKT
 62
     1
 10
-63.9999999999998508
 20
97.2799812734125169
 30
-0.0000000000000216
 11
-63.9999999999999218
 21
15.1091523572719701
 31
-0.0000000000000034
210
0.0
220
1.0
230
-0.0000000000000002
  0
ARC
  5
2C85
  8
0
  6
VERDECKT
 62
     1
 10
51.4999999999983018
 20
97.2799812734124174
 30
0.0
 40
12.5000000000015508
210
0.0
220
-0.0000000000000002
230
-1.0
 50
0.0
 51
20.5560452195808416
  0
ARC
  5
2C86
  8
0
  6
VERDECKT
 62
     1
 10
-51.4999999999984865
 20
97.2799812734123037
 30
0.0
 40
12.5000000000015898
210
0.0
220
-0.0000000000000002
230
-1.0
 50
159.443954780418693
 51
179.9999999999994884
  0
LINE
  5
2C87
  8
0
  6
VERDECKT
 62
     1
 10
56.3299988295884901
 20
120.0
 30
-0.0000000000000266
 11
63.20411471961323
 21
101.6690242932672987
 31
-0.0000000000000226
210
0.0
220
1.0
230
-0.0000000000000002
  0
LINE
  5
2C88
  8
0
  6
VERDECKT
 62
     1
 10
-56.3299988295882414
 20
120.0000000000000995
 30
-0.0000000000000266
 11
-63.2041147196130098
 21
101.6690242932673982
 31
-0.0000000000000226
210
0.0
220
1.0
230
-0.0000000000000002
  0
LINE
  5
2C89
  8
0
  6
VERDECKT
 62
     1
 10
49.9381686000447829
 20
132.5459400406865882
 30
-0.0000000000000294
 11
55.7929406190311923
 21
120.0000000000012932
 31
-0.0000000000000266
210
0.0
220
1.0
230
-0.0000000000000002
  0
LINE
  5
2C8A
  8
0
  6
VERDECKT
 62
     1
 10
-49.9381686000451026
 20
132.545940040684286
 30
-0.0000000000000294
 11
-55.7929406190309081
 21
119.9999999999988063
 31
-0.0000000000000266
210
0.0
220
1.0
230
-0.0000000000000002
  0
ARC
  5
2C8B
  8
0
  6
VERDECKT
 62
     1
 10
58.9999999999990479
 20
136.7747946939956876
 30
0.0
 40
10.0000000000010303
210
0.0
220
-0.0000000000000002
230
-1.0
 50
180.0000000000001137
 51
205.0168934780973871
  0
ARC
  5
2C8C
  8
0
  6
VERDECKT
 62
     1
 10
-58.999999999998181
 20
136.7747946939983024
 30
0.0
 40
10.0000000000008402
210
0.0
220
-0.0000000000000002
230
-1.0
 50
334.9831065218996855
 51
359.9999999999977263
  0
LINE
  5
2C8D
  8
0
  6
VERDECKT
 62
     1
 10
48.9999999999971791
 20
153.9660074801331859
 30
-0.0000000000000342
 11
48.999999999997577
 21
136.7747946939979045
 31
-0.0000000000000304
210
0.0
220
1.0
230
-0.0000000000000002
  0
LINE
  5
2C8E
  8
0
  6
VERDECKT
 62
     1
 10
-48.9999999999984865
 20
153.9660074801309122
 30
-0.0000000000000342
 11
-48.9999999999981029
 21
136.7747946939956023
 31
-0.0000000000000304
210
0.0
220
1.0
230
-0.0000000000000002
  0
ARC
  5
2C8F
  8
0
  6
VERDECKT
 62
     1
 10
58.9999999999993392
 20
153.9660074801302869
 30
0.0
 40
10.0000000000004707
210
0.0
220
-0.0000000000000002
230
-1.0
 50
145.6988472432055914
 51
179.9999999999965894
  0
ARC
  5
2C90
  8
0
  6
VERDECKT
 62
     1
 10
-58.9999999999980815
 20
153.9660074801329017
 30
0.0
 40
10.0000000000005809
210
0.0
220
-0.0000000000000002
230
-1.0
 50
0.0000000000013104
 51
34.3011527567917582
  0
ARC
  5
2C91
  8
0
  6
VERDECKT
 62
     1
 10
39.9999999999993108
 20
166.927488876947109
 30
0.0
 40
13.0000000000002007
210
0.0
220
-0.0000000000000002
230
-1.0
 50
325.6988472432068988
 51
359.999999999997101
  0
ARC
  5
2C92
  8
0
  6
VERDECKT
 62
     1
 10
-39.9999999999970726
 20
166.9274888769490133
 30
0.0
 40
13.0000000000003908
210
0.0
220
-0.0000000000000002
230
-1.0
 50
180.0000000000005969
 51
214.3011527567898895
  0
LINE
  5
2C93
  8
0
  6
VERDECKT
 62
     1
 10
52.9999999999972786
 20
185.5000000000013074
 30
-0.0000000000000412
 11
52.9999999999977121
 21
166.9274888769487859
 31
-0.0000000000000371
210
0.0
220
1.0
230
-0.0000000000000002
  0
LINE
  5
2C94
  8
0
  6
VERDECKT
 62
     1
 10
-52.9999999999999787
 20
185.4999999999988916
 30
-0.0000000000000412
 11
-52.9999999999995595
 21
166.9274888769463985
 31
-0.0000000000000371
210
0.0
220
1.0
230
-0.0000000000000002
  0
ARC
  5
2C95
  8
0
  6
VERDECKT
 62
     1
 10
67.0000000000009805
 20
185.4999999999980957
 30
0.0
 40
14.0000000000007105
210
0.0
220
-0.0000000000000002
230
-1.0
 50
153.1119523822756037
 51
179.9999999999965041
  0
ARC
  5
2C96
  8
0
  6
VERDECKT
 62
     1
 10
-66.9999999999980247
 20
185.5000000000011937
 30
0.0
 40
14.0000000000004903
210
0.0
220
-0.0000000000000002
230
-1.0
 50
0.0000000000003562
 51
26.888047617721611
  0
ARC
  5
2C97
  8
0
  6
VERDECKT
 62
     1
 10
34.0000000000024585
 20
202.233200530680989
 30
0.0
 40
22.9999999999986393
210
0.0
220
-0.0000000000000002
230
-1.0
 50
333.1119523822715109
 51
359.9999999999984084
  0
ARC
  5
2C98
  8
0
  6
VERDECKT
 62
     1
 10
-33.9999999999989626
 20
202.2332005306824954
 30
0.0
 40
22.9999999999985008
210
0.0
220
-0.0000000000000002
230
-1.0
 50
179.9999999999988063
 51
206.888047617725789
  0
LINE
  5
2C99
  8
0
  6
VERDECKT
 62
     1
 10
56.9999999999973213
 20
217.395248537430291
 30
-0.0000000000000483
 11
56.9999999999976694
 21
202.2332005306830069
 31
-0.0000000000000449
210
0.0
220
1.0
230
-0.0000000000000002
  0
LINE
  5
2C9A
  8
0
  6
VERDECKT
 62
     1
 10
-57.0000000000015277
 20
217.3952485374277046
 30
-0.0000000000000483
 11
-57.0000000000012008
 21
202.2332005306803069
 31
-0.0000000000000449
210
0.0
220
1.0
230
-0.0000000000000002
  0
ARC
  5
2C9B
  8
0
  6
VERDECKT
 62
     1
 10
34.0000000000003979
 20
217.3952485374283015
 30
0.0
 40
23.0000000000013891
210
0.0
220
-0.0000000000000002
230
-1.0
 50
359.9999999999984084
 51
24.9999999999956906
  0
ARC
  5
2C9C
  8
0
  6
VERDECKT
 62
     1
 10
-33.9999999999961773
 20
217.3952485374298931
 30
0.0
 40
23.0000000000012896
210
0.0
220
-0.0000000000000002
230
-1.0
 50
155.0000000000015916
 51
179.9999999999988916
  0
LINE
  5
2C9D
  8
0
  6
VERDECKT
 62
     1
 10
53.4999999999976268
 20
230.0000000000013927
 30
-0.0000000000000511
 11
54.8450791018406321
 21
227.1154685574659027
 31
-0.0000000000000504
210
0.0
220
1.0
230
-0.0000000000000002
  0
LINE
  5
2C9E
  8
0
  6
VERDECKT
 62
     1
 10
-53.5000000000024727
 20
229.9999999999990052
 30
-0.0000000000000511
 11
-54.8450791018453572
 21
227.1154685574634016
 31
-0.0000000000000504
210
0.0
220
1.0
230
-0.0000000000000002
  0
ENDBLK
  5
2CA0
  8
0
  0
BLOCK
  8
0
  2
A$C1BC47966
 70
     0
 10
0.0
 20
0.0
 30
0.0
  3
A$C1BC47966
  1

  0
CIRCLE
  5
2CA4
  8
0
  6
CONTINUOUS
 62
     3
 10
0.0000000000001353
 20
0.0000000000000228
 30
0.0
 40
66.4999999999999716
  0
CIRCLE
  5
2CA5
  8
0
  6
CONTINUOUS
 62
     3
 10
-0.0000000000006479
 20
0.0000000000000263
 30
0.0
 40
48.999999999998181
  0
CIRCLE
  5
2CA6
  8
0
  6
CONTINUOUS
 62
     3
 10
-0.0000000000013231
 20
0.0000000000000282
 30
0.0
 40
52.9999999999988987
  0
CIRCLE
  5
2CA7
  8
0
  6
CONTINUOUS
 62
     3
 10
-0.0000000000023364
 20
0.0000000000000309
 30
0.0
 40
53.5000000000000284
  0
CIRCLE
  5
2CA8
  8
0
  6
CONTINUOUS
 62
     3
 10
-0.0000000000023364
 20
0.0000000000000309
 30
0.0
 40
55.7067558379249306
  0
CIRCLE
  5
2CA9
  8
0
  6
CONTINUOUS
 62
     3
 10
-0.0000000000021118
 20
0.0000000000000302
 30
0.0
 40
58.9999999999996305
  0
CIRCLE
  5
2CAA
  8
0
  6
VERDECKT
 62
     1
 10
0.0
 20
0.0000000000000169
 30
0.0
 40
62.678120453252518
  0
CIRCLE
  5
2CAB
  8
0
  6
VERDECKT
 62
     1
 10
0.0000000000001353
 20
0.0000000000000228
 30
0.0
 40
63.9999999999999574
  0
CIRCLE
  5
2CAC
  8
0
  6
VERDECKT
 62
     1
 10
0.0000000000001403
 20
0.0000000000000242
 30
0.0
 40
56.3299988295883409
  0
CIRCLE
  5
2CAD
  8
0
  6
VERDECKT
 62
     1
 10
0.0
 20
0.0000000000000169
 30
0.0
 40
65.1876700471110553
  0
CIRCLE
  5
2CAE
  8
0
  6
VERDECKT
 62
     1
 10
-0.0000000000013231
 20
0.0000000000000282
 30
0.0
 40
54.9999999999988916
  0
CIRCLE
  5
2CAF
  8
0
  6
VERDECKT
 62
     1
 10
-0.0000000000006479
 20
0.0000000000000263
 30
0.0
 40
50.999999999998181
  0
CIRCLE
  5
2CB0
  8
0
  6
VERDECKT
 62
     1
 10
0.0000000000001403
 20
0.0000000000000242
 30
0.0
 40
57.9999999999975202
  0
CIRCLE
  5
2CB1
  8
0
  6
VERDECKT
 62
     1
 10
0.0000000000001403
 20
0.0000000000000242
 30
0.0
 40
55.7929406190311568
  0
CIRCLE
  5
2CB2
  8
0
  6
VERDECKT
 62
     1
 10
-0.0000000000021118
 20
0.0000000000000302
 30
0.0
 40
56.9999999999996234
  0
ENDBLK
  5
2CB4
  8
0
  0
ENDSEC
  0
SECTION
  2
ENTITIES
  0
TEXT
  5
8F
  8
VOLL
 10
78.076754716981128
 20
31.025947764705851
 30
0.0
 40
1.8
  1

  7
GREEKS
  0
TEXT
  5
26E8
  8
VOLL
 10
648.7235860852194946
 20
419.6885586874611249
 30
0.0
 40
1.8
  1

  7
GREEKS
  0
INSERT
  5
2CA1
  8
STEMPEL
  2
A$C40F81880
 10
0.0
 20
0.0
 30
0.0
  0
INSERT
  5
2CB5
  8
STEMPEL
  2
A$C1BC47966
 10
-0.000000000000116
 20
-166.4999999999998863
 30
0.0
  0
VIEWPORT
  5
291C
 67
     1
  8
0
 10
6.4384632582384924
 20
9.0558695778984752
 30
0.0
 40
36.6673932337152877
 41
18.6745621582069212
 68
     1
 69
     1
1001
ACAD
1000
MVIEW
1002
{
1070
    16
1010
0.0
1020
0.0
1030
0.0
1010
0.0
1020
0.0
1030
1.0
1040
0.0
1040
18.6745621582069212
1040
6.4384632582384924
1040
9.0558695778984752
1040
50.0
1040
0.0
1040
0.0
1070
     0
1070
  1500
1070
     1
1070
     1
1070
     0
1070
     0
1070
     0
1070
     0
1040
0.0
1040
0.0
1040
0.0
1040
10.0
1040
10.0
1040
10.0
1040
10.0
1070
     0
1002
{
1002
}
1002
}
  0
VIEWPORT
  5
2920
 67
     1
  8
DEFPOINTS
 10
6.4385411416767431
 20
9.0561043890483042
 30
0.0
 40
13.3314148503316403
 41
18.5262661297585112
 68
     2
 69
     2
1001
ACAD
1000
MVIEW
1002
{
1070
    16
1010
0.0
1020
0.0
1030
0.0
1010
0.0
1020
0.0
1030
1.0
1040
0.0
1040
608.6912398548222427
1040
212.6111037715525072
1040
297.858943684695987
1040
50.0
1040
0.0
1040
0.0
1070
     0
1070
  1500
1070
     1
1070
     0
1070
     0
1070
     0
1070
     0
1070
     0
1040
0.0
1040
0.0
1040
0.0
1040
1.0
1040
1.0
1040
10.0
1040
10.0
1070
     0
1002
{
1002
}
1002
}
  0
VIEWPORT
  5
2924
 67
     1
  8
DEFPOINTS
 10
10.4169591499772007
 20
8.7703416701391586
 30
0.0
 40
3.722153254523469
 41
5.1541980590244911
 68
     3
 69
     3
1001
ACAD
1000
MVIEW
1002
{
1070
    16
1010
838.9041281110082764
1020
388.6414749700658149
1030
1.156731067038558
1010
0.0
1020
135.1301376378995087
1030
497.539817387751782
1040
3.1415926535897918
1040
263.7822742549832924
1040
0.0
1040
0.0
1040
50.0
1040
0.0
1040
0.0
1070
     0
1070
  1500
1070
     1
1070
     0
1070
     0
1070
     0
1070
     0
1070
     0
1040
0.0
1040
0.0
1040
0.0
1040
1.0
1040
1.0
1040
10.0
1040
10.0
1070
     0
1002
{
1002
}
1002
}
  0
ENDSEC
  0
EOF
