  0
SECTION
  2
HEADER
  9
$ACADVER
  1
AC1009
  9
$INSBASE
 10
0.0
 20
0.0
 30
0.0
  9
$EXTMIN
 10
-44.5262795807263885
 20
-139.0249719466455076
 30
-0.0057978974723483
  9
$EXTMAX
 10
47.2198524844399117
 20
190.0012259625202944
 30
0.0086977309647978
  9
$LIMMIN
 10
0.0
 20
0.0
  9
$LIMMAX
 10
419.9999999999998863
 20
594.0
  9
$ORTHOMODE
 70
     1
  9
$REGENMODE
 70
     1
  9
$FILLMODE
 70
     1
  9
$QTEXTMODE
 70
     0
  9
$MIRRTEXT
 70
     1
  9
$DRAGMODE
 70
     2
  9
$LTSCALE
 40
20.0
  9
$OSMODE
 70
   511
  9
$ATTMODE
 70
     1
  9
$TEXTSIZE
 40
3.5
  9
$TRACEWID
 40
0.5
  9
$TEXTSTYLE
  7
STANDARD
  9
$CLAYER
  8
STEMPEL
  9
$CELTYPE
  6
BYLAYER
  9
$CECOLOR
 62
   256
  9
$DIMSCALE
 40
1.0
  9
$DIMASZ
 40
3.5
  9
$DIMEXO
 40
1.0
  9
$DIMDLI
 40
0.38
  9
$DIMRND
 40
0.0
  9
$DIMDLE
 40
0.0
  9
$DIMEXE
 40
1.0
  9
$DIMTP
 40
0.0
  9
$DIMTM
 40
0.000000001
  9
$DIMTXT
 40
3.5
  9
$DIMCEN
 40
0.09
  9
$DIMTSZ
 40
0.0
  9
$DIMTOL
 70
     0
  9
$DIMLIM
 70
     0
  9
$DIMTIH
 70
     0
  9
$DIMTOH
 70
     0
  9
$DIMSE1
 70
     0
  9
$DIMSE2
 70
     0
  9
$DIMTAD
 70
     1
  9
$DIMZIN
 70
     8
  9
$DIMBLK
  1

  9
$DIMASO
 70
     1
  9
$DIMSHO
 70
     0
  9
$DIMPOST
  1

  9
$DIMAPOST
  1

  9
$DIMALT
 70
     0
  9
$DIMALTD
 70
     2
  9
$DIMALTF
 40
25.3999999999999986
  9
$DIMLFAC
 40
2.0
  9
$DIMTOFL
 70
     1
  9
$DIMTVP
 40
0.0
  9
$DIMTIX
 70
     0
  9
$DIMSOXD
 70
     0
  9
$DIMSAH
 70
     0
  9
$DIMBLK1
  1

  9
$DIMBLK2
  1

  9
$DIMSTYLE
  2
LORO
  9
$DIMCLRD
 70
     0
  9
$DIMCLRE
 70
     0
  9
$DIMCLRT
 70
     1
  9
$DIMTFAC
 40
0.5
  9
$DIMGAP
 40
1.5
  9
$LUNITS
 70
     2
  9
$LUPREC
 70
     2
  9
$SKETCHINC
 40
1.0
  9
$FILLETRAD
 40
0.0
  9
$AUNITS
 70
     0
  9
$AUPREC
 70
     0
  9
$MENU
  1
ACAD
  9
$ELEVATION
 40
0.0
  9
$PELEVATION
 40
0.0
  9
$THICKNESS
 40
0.0
  9
$LIMCHECK
 70
     0
  9
$BLIPMODE
 70
     0
  9
$CHAMFERA
 40
0.0
  9
$CHAMFERB
 40
0.0
  9
$SKPOLY
 70
     0
  9
$TDCREATE
 40
2455397.8646990740671754
  9
$TDUPDATE
 40
2459978.5317013887688518
  9
$TDINDWG
 40
0.1906780324
  9
$TDUSRTIMER
 40
0.1906780324
  9
$USRTIMER
 70
     1
  9
$ANGBASE
 50
0.0
  9
$ANGDIR
 70
     0
  9
$PDMODE
 70
     0
  9
$PDSIZE
 40
0.0
  9
$PLINEWID
 40
0.0
  9
$COORDS
 70
     1
  9
$SPLFRAME
 70
     0
  9
$SPLINETYPE
 70
     6
  9
$SPLINESEGS
 70
     8
  9
$ATTDIA
 70
     1
  9
$ATTREQ
 70
     1
  9
$HANDLING
 70
     1
  9
$HANDSEED
  5
2C06
  9
$SURFTAB1
 70
     6
  9
$SURFTAB2
 70
     6
  9
$SURFTYPE
 70
     6
  9
$SURFU
 70
     6
  9
$SURFV
 70
     6
  9
$UCSNAME
  2

  9
$UCSORG
 10
0.0
 20
0.0
 30
0.0
  9
$UCSXDIR
 10
1.0
 20
0.0
 30
0.0
  9
$UCSYDIR
 10
0.0
 20
1.0
 30
0.0
  9
$PUCSNAME
  2

  9
$PUCSORG
 10
0.0
 20
0.0
 30
0.0
  9
$PUCSXDIR
 10
1.0
 20
0.0
 30
0.0
  9
$PUCSYDIR
 10
0.0
 20
1.0
 30
0.0
  9
$USERI1
 70
     0
  9
$USERI2
 70
     0
  9
$USERI3
 70
     0
  9
$USERI4
 70
     0
  9
$USERI5
 70
     0
  9
$USERR1
 40
0.0
  9
$USERR2
 40
0.0
  9
$USERR3
 40
0.0
  9
$USERR4
 40
0.0
  9
$USERR5
 40
0.0
  9
$WORLDVIEW
 70
     1
  9
$SHADEDGE
 70
     3
  9
$SHADEDIF
 70
    70
  9
$TILEMODE
 70
     1
  9
$MAXACTVP
 70
    16
  9
$PLIMCHECK
 70
     0
  9
$PEXTMIN
 10
1.0000000000000000E+20
 20
1.0000000000000000E+20
 30
1.0000000000000000E+20
  9
$PEXTMAX
 10
-1.0000000000000000E+20
 20
-1.0000000000000000E+20
 30
-1.0000000000000000E+20
  9
$PLIMMIN
 10
-6.6176302345252216
 20
-5.0433119859508224
  9
$PLIMMAX
 10
203.3823697654748059
 20
291.9566880140491776
  9
$UNITMODE
 70
     0
  9
$VISRETAIN
 70
     0
  9
$PLINEGEN
 70
     0
  9
$PSLTSCALE
 70
     0
  0
ENDSEC
  0
SECTION
  2
TABLES
  0
TABLE
  2
VPORT
 70
     1
  0
VPORT
  2
*ACTIVE
 70
     0
 10
0.0
 20
0.0
 11
1.0
 21
1.0
 12
1.346786451856758
 22
-47.2641007752657671
 13
0.0
 23
0.0
 14
1.0
 24
1.0
 15
10.0
 25
10.0
 16
-0.0000000000001434
 26
0.0
 36
646.0101324023103189
 17
0.0
 27
72.752227783203125
 37
-0.0000000000000211
 40
330.7091963639442156
 41
1.8720136518771331
 42
49.9999999999999929
 43
0.0
 44
0.0
 50
0.0
 51
0.0
 71
     0
 72
  1500
 73
     1
 74
     0
 75
     0
 76
     0
 77
     0
 78
     0
  0
ENDTAB
  0
TABLE
  2
LTYPE
 70
     4
  0
LTYPE
  2
CONTINUOUS
 70
     0
  3
Solid line
 72
    65
 73
     0
 40
0.0
  0
LTYPE
  2
VERDECKT
 70
     0
  3
Verdeckt __ __ __ __ __ __ __ __ __ __ __ __ __
 72
    65
 73
     2
 40
0.375
 49
0.25
 49
-0.125
  0
ENDTAB
  0
TABLE
  2
LAYER
 70
     7
  0
LAYER
  2
0
 70
     0
 62
     7
  6
CONTINUOUS
  0
LAYER
  2
VOLL
 70
     0
 62
     1
  6
CONTINUOUS
  0
LAYER
  2
STEMPEL
 70
     0
 62
     3
  6
CONTINUOUS
  0
LAYER
  2
TEXT
 70
     0
 62
     7
  6
CONTINUOUS
  0
LAYER
  2
ADSK_ASSOC_ENTITY_BACKUPS
 70
     1
 62
    -7
  6
CONTINUOUS
  0
ENDTAB
  0
TABLE
  2
STYLE
 70
     3
  0
STYLE
  2
STANDARD
 70
     0
 40
0.0
 41
0.8
 50
0.0
 71
     0
 42
3.5
  3
simplex.shx
  4

  0
STYLE
  2
GREEKS
 70
     0
 40
0.0
 41
0.8
 50
0.0
 71
     0
 42
2.5
  3
SIMPLEX.shx
  4

  0
ENDTAB
  0
TABLE
  2
VIEW
 70
     0
  0
ENDTAB
  0
TABLE
  2
UCS
 70
     0
  0
ENDTAB
  0
TABLE
  2
APPID
 70
    19
  0
APPID
  2
ACAD
 70
     0
  0
APPID
  2
ACAD_NAV_VCDISPLAY
 70
     0
  0
APPID
  2
ACAD_PSEXT
 70
     0
  0
APPID
  2
ACAECLAYERSTANDARD
 70
     0
  0
APPID
  2
ACCMTRANSPARENCY
 70
     0
  0
APPID
  2
ACAD_EXEMPT_FROM_CAD_STANDARDS
 70
     0
  0
APPID
  2
ACAD_MLEADERVER
 70
     0
  0
APPID
  2
ACAD_DSTYLE_DIMRADIAL_EXTENSION
 70
     0
  0
APPID
  2
ACAD_OBJECT_CHANGE_GUID
 70
     0
  0
APPID
  2
ACAD_DSTYLE_DIMJAG
 70
     0
  0
APPID
  2
ACAD_DSTYLE_DIMBREAK
 70
     0
  0
APPID
  2
ACAD_DSTYLE_DIMTALN
 70
     0
  0
APPID
  2
ACDBDYNAMICBLOCKGUID
 70
     0
  0
APPID
  2
ACSYNERGY
 70
     0
  0
APPID
  2
SYNERGY_BODY_TBR_ID
 70
     0
  0
APPID
  2
ACAD_VIEW_EDGE_ID
 70
     0
  0
APPID
  2
ACADANNOMONITORALERTICONDI
 70
     0
  0
APPID
  2
ACAD_STEPID
 70
     0
  0
APPID
  2
ACADANNOPO
 70
     0
  0
ENDTAB
  0
TABLE
  2
DIMSTYLE
 70
     1
  0
DIMSTYLE
  2
LORO
 70
     0
  3

  4

  5

  6

  7

 40
1.0
 41
3.5
 42
1.0
 43
0.38
 44
1.0
 45
0.0
 46
0.0
 47
0.0
 48
0.000000001
140
3.5
141
0.09
142
0.0
143
25.3999999999999986
144
2.0
145
0.0
146
0.5
147
1.5
 71
     0
 72
     0
 73
     0
 74
     0
 75
     0
 76
     0
 77
     1
 78
     8
170
     0
171
     2
172
     1
173
     0
174
     0
175
     0
176
     0
177
     0
178
     1
  0
ENDTAB
  0
ENDSEC
  0
SECTION
  2
BLOCKS
  0
BLOCK
  8
0
  2
$MODEL_SPACE
 70
     0
 10
0.0
 20
0.0
 30
0.0
  3
$MODEL_SPACE
  1

  0
ENDBLK
  5
36
  8
0
  0
BLOCK
 67
     1
  8
0
  2
$PAPER_SPACE
 70
     0
 10
0.0
 20
0.0
 30
0.0
  3
$PAPER_SPACE
  1

  0
ENDBLK
  5
34
 67
     1
  8
0
  0
BLOCK
  8
0
  2
*S0
 70
     1
 10
0.0
 20
0.0
 30
0.0
  3
*S0
  1

  0
ENDBLK
  5
25E2
  8
0
  0
BLOCK
  8
0
  2
A$CDCCAC6B1
 70
     0
 10
0.0
 20
0.0
 30
0.0
  3
A$CDCCAC6B1
  1

  0
LINE
  5
2B54
  8
0
  6
CONTINUOUS
 62
     3
 10
-43.5
 20
0.0000000000000056
 30
0.0
 11
43.5
 21
0.0000000000000056
 31
0.0
210
0.0
220
1.0
230
-0.0000000000000002
  0
LINE
  5
2B55
  8
0
  6
CONTINUOUS
 62
     3
 10
-36.5
 20
115.0
 30
-0.0000000000000255
 11
36.5
 21
115.0
 31
-0.0000000000000255
210
0.0
220
1.0
230
-0.0000000000000002
  0
ARC
  5
2B56
  8
0
  6
CONTINUOUS
 62
     3
 10
43.5000000000016271
 20
8.0622577482985278
 30
0.0
 40
0.9999999999983727
210
0.0
220
-0.0000000000000002
230
-1.0
 50
352.8749836510910995
 51
0.000000000004566
  0
ARC
  5
2B57
  8
0
  6
CONTINUOUS
 62
     3
 10
-43.5000000000016698
 20
8.062257748298526
 30
0.0
 40
0.999999999998316
210
0.0
220
-0.0000000000000002
230
-1.0
 50
179.9999999999953104
 51
187.1250163489090141
  0
LINE
  5
2B58
  8
0
  6
CONTINUOUS
 62
     3
 10
44.4999999999999929
 20
100.0
 30
-0.0000000000000222
 11
44.4999999999999929
 21
8.0622577482986078
 31
-0.0000000000000018
210
0.0
220
1.0
230
-0.0000000000000002
  0
LINE
  5
2B59
  8
0
  6
CONTINUOUS
 62
     3
 10
-44.5000000000000071
 20
100.0
 30
-0.0000000000000222
 11
-44.5000000000000071
 21
8.0622577482986078
 31
-0.0000000000000018
210
0.0
220
1.0
230
-0.0000000000000002
  0
LINE
  5
2B5A
  8
0
  6
CONTINUOUS
 62
     3
 10
-43.5000000000000071
 20
0.0000000000000071
 30
0.0
 11
-44.492277876713672
 21
7.9382230137093979
 31
-0.0000000000000018
210
0.0
220
1.0
230
-0.0000000000000002
  0
LINE
  5
2B5B
  8
0
  6
CONTINUOUS
 62
     3
 10
43.5
 20
0.0000000000000071
 30
0.0
 11
44.4922778767136506
 21
7.9382230137093979
 31
-0.0000000000000018
210
0.0
220
1.0
230
-0.0000000000000002
  0
LINE
  5
2B5C
  8
0
  6
CONTINUOUS
 62
     3
 10
36.5
 20
115.0
 30
-0.0000000000000255
 11
40.9963503649635328
 21
109.6350364963503949
 31
-0.0000000000000243
210
0.0
220
1.0
230
-0.0000000000000002
  0
LINE
  5
2B5D
  8
0
  6
CONTINUOUS
 62
     3
 10
-36.5000000000000213
 20
115.0
 30
-0.0000000000000255
 11
-40.9963503649635399
 21
109.6350364963503949
 31
-0.0000000000000243
210
0.0
220
1.0
230
-0.0000000000000002
  0
ARC
  5
2B5E
  8
0
  6
CONTINUOUS
 62
     3
 10
29.5000000000000107
 20
100.0
 30
0.0
 40
15.0
210
0.0
220
-0.0000000000000002
230
-1.0
 50
0.0
 51
39.9662130437999608
  0
ARC
  5
2B5F
  8
0
  6
CONTINUOUS
 62
     3
 10
-29.4999999999999893
 20
100.0
 30
0.0
 40
15.0
210
0.0
220
-0.0000000000000002
230
-1.0
 50
140.033786956200089
 51
180.0
  0
LINE
  5
2B60
  8
0
  6
CONTINUOUS
 62
     3
 10
-36.5000000000000071
 20
115.0
 30
-0.0000000000000255
 11
36.5000000000000071
 21
115.0
 31
-0.0000000000000255
210
0.0
220
1.0
230
-0.0000000000000002
  0
LINE
  5
2B61
  8
0
  6
CONTINUOUS
 62
     3
 10
-40.6526954066550275
 20
190.0
 30
-0.0000000000000422
 11
40.6526954066550275
 21
190.0
 31
-0.0000000000000422
210
0.0
220
1.0
230
-0.0000000000000002
  0
ARC
  5
2B62
  8
0
  6
CONTINUOUS
 62
     3
 10
27.5000000000001599
 20
140.399999999999892
 30
0.0
 40
12.0999999999998291
210
0.0
220
-0.0000000000000002
230
-1.0
 50
328.5664732556435865
 51
0.0000000000002672
  0
ARC
  5
2B63
  8
0
  6
CONTINUOUS
 62
     3
 10
-27.5000000000002416
 20
140.399999999999892
 30
0.0
 40
12.0999999999997598
210
0.0
220
-0.0000000000000002
230
-1.0
 50
179.9999999999996874
 51
211.4335267443566124
  0
LINE
  5
2B64
  8
0
  6
CONTINUOUS
 62
     3
 10
-37.6593583277645294
 20
133.8199210971233981
 30
-0.0000000000000297
 11
-37.8242739536771211
 21
134.0897411044059027
 31
-0.0000000000000298
210
0.0
220
1.0
230
-0.0000000000000002
  0
LINE
  5
2B65
  8
0
  6
CONTINUOUS
 62
     3
 10
37.6593583277645294
 20
133.8199210971233981
 30
-0.0000000000000297
 11
37.8242739536771211
 21
134.0897411044059027
 31
-0.0000000000000298
210
0.0
220
1.0
230
-0.0000000000000002
  0
ARC
  5
2B66
  8
0
  6
CONTINUOUS
 62
     3
 10
44.399999999999892
 20
129.7000000000001023
 30
0.0
 40
7.8999999999998787
210
0.0
220
-0.0000000000000002
230
-1.0
 50
148.5664732556433876
 51
180.0000000000003979
  0
ARC
  5
2B67
  8
0
  6
CONTINUOUS
 62
     3
 10
-44.3999999999999275
 20
129.6999999999999886
 30
0.0
 40
7.8999999999999204
210
0.0
220
-0.0000000000000002
230
-1.0
 50
359.9999999999997726
 51
31.4335267443563886
  0
LINE
  5
2B68
  8
0
  6
CONTINUOUS
 62
     3
 10
36.5000000000000071
 20
129.6999999999999886
 30
-0.0000000000000288
 11
36.5000000000000071
 21
115.0
 31
-0.0000000000000255
210
0.0
220
1.0
230
-0.0000000000000002
  0
LINE
  5
2B69
  8
0
  6
CONTINUOUS
 62
     3
 10
-36.5000000000000071
 20
129.6999999999999886
 30
-0.0000000000000288
 11
-36.5000000000000071
 21
115.0
 31
-0.0000000000000255
210
0.0
220
1.0
230
-0.0000000000000002
  0
ARC
  5
2B6A
  8
0
  6
CONTINUOUS
 62
     3
 10
17.0000000000004086
 20
181.600000000000108
 30
0.0
 40
25.0999999999995786
210
0.0
220
-0.0000000000000002
230
-1.0
 50
359.9999999999997726
 51
19.5519464131209801
  0
ARC
  5
2B6B
  8
0
  6
CONTINUOUS
 62
     3
 10
-17.0000000000001705
 20
181.5999999999999943
 30
0.0
 40
25.0999999999998415
210
0.0
220
-0.0000000000000002
230
-1.0
 50
160.4480535868790128
 51
180.0
  0
LINE
  5
2B6C
  8
0
  6
CONTINUOUS
 62
     3
 10
42.1000000000000014
 20
181.5999999999999943
 30
-0.0000000000000403
 11
42.1000000000000014
 21
174.6999999999999886
 31
-0.0000000000000388
210
0.0
220
1.0
230
-0.0000000000000002
  0
LINE
  5
2B6D
  8
0
  6
CONTINUOUS
 62
     3
 10
-42.1000000000000014
 20
181.5999999999999943
 30
-0.0000000000000403
 11
-42.1000000000000014
 21
174.6999999999999886
 31
-0.0000000000000388
210
0.0
220
1.0
230
-0.0000000000000002
  0
ARC
  5
2B6E
  8
0
  6
CONTINUOUS
 62
     3
 10
17.00000000000054
 20
174.6999999999999034
 30
0.0
 40
25.0999999999994614
210
0.0
220
-0.0000000000000002
230
-1.0
 50
340.1669477581854721
 51
0.0000000000002672
  0
ARC
  5
2B6F
  8
0
  6
CONTINUOUS
 62
     3
 10
-17.0000000000000888
 20
174.6999999999999886
 30
0.0
 40
25.0999999999998984
210
0.0
220
-0.0000000000000002
230
-1.0
 50
179.9999999999998863
 51
199.8330522418143005
  0
LINE
  5
2B70
  8
0
  6
CONTINUOUS
 62
     3
 10
-40.3058460662427507
 20
165.3374394989085943
 30
-0.0000000000000367
 11
-40.6111986333871471
 21
166.1840561829743876
 31
-0.0000000000000369
210
0.0
220
1.0
230
-0.0000000000000002
  0
LINE
  5
2B71
  8
0
  6
CONTINUOUS
 62
     3
 10
40.3058460662427507
 20
165.3374394989085943
 30
-0.0000000000000367
 11
40.6111986333871471
 21
166.1840561829743876
 31
-0.0000000000000369
210
0.0
220
1.0
230
-0.0000000000000002
  0
ARC
  5
2B72
  8
0
  6
CONTINUOUS
 62
     3
 10
51.4999999999999289
 20
161.3000000000000114
 30
0.0
 40
11.8999999999999204
210
0.0
220
-0.0000000000000002
230
-1.0
 50
160.1669477581855858
 51
180.0000000000001137
  0
ARC
  5
2B73
  8
0
  6
CONTINUOUS
 62
     3
 10
-51.5000000000001421
 20
161.3000000000000114
 30
0.0
 40
11.9000000000001407
210
0.0
220
-0.0000000000000002
230
-1.0
 50
0.0
 51
19.8330522418141584
  0
LINE
  5
2B74
  8
0
  6
CONTINUOUS
 62
     3
 10
39.6000000000000014
 20
161.3000000000000114
 30
-0.0000000000000358
 11
39.6000000000000014
 21
140.4000000000000057
 31
-0.0000000000000312
210
0.0
220
1.0
230
-0.0000000000000002
  0
LINE
  5
2B75
  8
0
  6
CONTINUOUS
 62
     3
 10
-39.6000000000000014
 20
161.3000000000000114
 30
-0.0000000000000358
 11
-39.6000000000000014
 21
140.4000000000000057
 31
-0.0000000000000312
210
0.0
220
1.0
230
-0.0000000000000002
  0
LINE
  5
2B76
  8
0
  6
VERDECKT
 62
     1
 10
-41.9123553972178229
 20
0.1984555753477769
 30
0.0
 11
41.9123553972178016
 21
0.1984555753477769
 31
0.0
210
0.0
220
1.0
230
-0.0000000000000002
  0
LINE
  5
2B77
  8
0
  6
VERDECKT
 62
     1
 10
-35.2737226277060998
 20
113.9722627736964995
 30
-0.0000000000000253
 11
35.2737226277060998
 21
113.9722627736964995
 31
-0.0000000000000253
210
0.0
220
1.0
230
-0.0000000000000002
  0
ARC
  5
2B78
  8
0
  6
VERDECKT
 62
     1
 10
41.8999999999609827
 20
8.1618701455786606
 30
0.0
 40
0.9999999999983868
210
0.0
220
-0.0000000000000002
230
-1.0
 50
352.8749836510912132
 51
0.000000000004566
  0
ARC
  5
2B79
  8
0
  6
VERDECKT
 62
     1
 10
-41.8999999999610324
 20
8.1618701455786589
 30
0.0
 40
0.999999999998316
210
0.0
220
-0.0000000000000002
230
-1.0
 50
179.9999999999953104
 51
187.1250163489090141
  0
LINE
  5
2B7A
  8
0
  6
VERDECKT
 62
     1
 10
42.8999999999593484
 20
100.0
 30
-0.0000000000000222
 11
42.8999999999593484
 21
8.1618701455787477
 31
-0.0000000000000018
210
0.0
220
1.0
230
-0.0000000000000002
  0
LINE
  5
2B7B
  8
0
  6
VERDECKT
 62
     1
 10
-42.8999999999593697
 20
100.0
 30
-0.0000000000000222
 11
-42.8999999999593697
 21
8.1618701455787477
 31
-0.0000000000000018
210
0.0
220
1.0
230
-0.0000000000000002
  0
LINE
  5
2B7C
  8
0
  6
VERDECKT
 62
     1
 10
-41.91235539721783
 20
0.1984555753477757
 30
0.0
 11
-42.8922778766730275
 21
8.0378354109895334
 31
-0.0000000000000018
210
0.0
220
1.0
230
-0.0000000000000002
  0
LINE
  5
2B7D
  8
0
  6
VERDECKT
 62
     1
 10
41.9123553972178087
 20
0.1984555753477757
 30
0.0
 11
42.8922778766730204
 21
8.0378354109895334
 31
-0.0000000000000018
210
0.0
220
1.0
230
-0.0000000000000002
  0
ARC
  5
2B7E
  8
0
  6
VERDECKT
 62
     1
 10
29.4999999999999787
 20
100.0
 30
0.0
 40
13.3999999999593893
210
0.0
220
-0.0000000000000002
230
-1.0
 50
0.0000000000000636
 51
39.9662130437999608
  0
ARC
  5
2B7F
  8
0
  6
VERDECKT
 62
     1
 10
-29.4999999999999716
 20
100.0
 30
0.0
 40
13.3999999999593893
210
0.0
220
-0.0000000000000002
230
-1.0
 50
140.0337869562000037
 51
179.9999999999998863
  0
LINE
  5
2B80
  8
0
  6
VERDECKT
 62
     1
 10
35.2737226277061069
 20
113.9722627736964995
 30
-0.0000000000000253
 11
39.7700729926695971
 21
108.6072992700468944
 31
-0.0000000000000241
210
0.0
220
1.0
230
-0.0000000000000002
  0
LINE
  5
2B81
  8
0
  6
VERDECKT
 62
     1
 10
-35.2737226277061069
 20
113.9722627736964995
 30
-0.0000000000000253
 11
-39.7700729926696113
 21
108.6072992700468944
 31
-0.0000000000000241
210
0.0
220
1.0
230
-0.0000000000000002
  0
LINE
  5
2B82
  8
0
  6
VERDECKT
 62
     1
 10
-35.2737226277061069
 20
113.9722627736964995
 30
-0.0000000000000253
 11
-36.5000000000000071
 21
115.0
 31
-0.0000000000000255
210
0.0
220
1.0
230
-0.0000000000000002
  0
LINE
  5
2B83
  8
0
  6
VERDECKT
 62
     1
 10
35.2737226277060927
 20
113.9722627736964995
 30
-0.0000000000000253
 11
36.4999999999999929
 21
115.0
 31
-0.0000000000000255
210
0.0
220
1.0
230
-0.0000000000000002
  0
LINE
  5
2B84
  8
0
  6
VERDECKT
 62
     1
 10
41.9123553972178087
 20
0.1984555753477771
 30
0.0
 11
43.5
 21
0.0000000000000053
 31
0.0
210
0.0
220
1.0
230
-0.0000000000000002
  0
LINE
  5
2B85
  8
0
  6
VERDECKT
 62
     1
 10
-41.91235539721783
 20
0.1984555753477771
 30
0.0
 11
-43.5000000000000213
 21
0.0000000000000053
 31
0.0
210
0.0
220
1.0
230
-0.0000000000000002
  0
LINE
  5
2B86
  8
0
  6
VERDECKT
 62
     1
 10
-39.1449538667885832
 20
189.4645418326693118
 30
-0.0000000000000421
 11
39.1449538667885832
 21
189.4645418326693118
 31
-0.0000000000000421
210
0.0
220
1.0
230
-0.0000000000000002
  0
LINE
  5
2B87
  8
0
  6
VERDECKT
 62
     1
 10
34.9000000000000128
 20
129.6999999999999886
 30
-0.0000000000000288
 11
34.9000000000000128
 21
115.0
 31
-0.0000000000000255
210
0.0
220
1.0
230
-0.0000000000000002
  0
LINE
  5
2B88
  8
0
  6
VERDECKT
 62
     1
 10
-34.9000000000000128
 20
129.6999999999999886
 30
-0.0000000000000288
 11
-34.9000000000000128
 21
115.0
 31
-0.0000000000000255
210
0.0
220
1.0
230
-0.0000000000000002
  0
ARC
  5
2B89
  8
0
  6
VERDECKT
 62
     1
 10
44.400000000000027
 20
129.6999999999999886
 30
0.0
 40
9.5000000000000178
210
0.0
220
-0.0000000000000002
230
-1.0
 50
148.5664732556438139
 51
180.0
  0
ARC
  5
2B8A
  8
0
  6
VERDECKT
 62
     1
 10
-44.4000000000001123
 20
129.6999999999999886
 30
0.0
 40
9.5000000000001137
210
0.0
220
-0.0000000000000002
230
-1.0
 50
0.0
 51
31.4335267443558806
  0
LINE
  5
2B8B
  8
0
  6
VERDECKT
 62
     1
 10
-36.2941650776915168
 20
134.6543354965407957
 30
-0.0000000000000299
 11
-36.4590807036041227
 21
134.9241555038233003
 31
-0.00000000000003
210
0.0
220
1.0
230
-0.0000000000000002
  0
LINE
  5
2B8C
  8
0
  6
VERDECKT
 62
     1
 10
36.2941650776915168
 20
134.6543354965407957
 30
-0.0000000000000299
 11
36.4590807036041227
 21
134.9241555038233003
 31
-0.00000000000003
210
0.0
220
1.0
230
-0.0000000000000002
  0
ARC
  5
2B8D
  8
0
  6
VERDECKT
 62
     1
 10
27.5000000000000817
 20
140.399999999999892
 30
0.0
 40
10.4999999999999005
210
0.0
220
-0.0000000000000002
230
-1.0
 50
328.5664732556435865
 51
0.0000000000003181
  0
ARC
  5
2B8E
  8
0
  6
VERDECKT
 62
     1
 10
-27.4999999999999609
 20
140.4000000000000057
 30
0.0
 40
10.5000000000000302
210
0.0
220
-0.0000000000000002
230
-1.0
 50
180.0000000000001137
 51
211.4335267443561861
  0
LINE
  5
2B8F
  8
0
  6
VERDECKT
 62
     1
 10
38.0000000000000071
 20
161.3000000000000114
 30
-0.0000000000000358
 11
38.0000000000000071
 21
140.4000000000000057
 31
-0.0000000000000312
210
0.0
220
1.0
230
-0.0000000000000002
  0
LINE
  5
2B90
  8
0
  6
VERDECKT
 62
     1
 10
-38.0000000000000071
 20
161.3000000000000114
 30
-0.0000000000000358
 11
-38.0000000000000071
 21
140.4000000000000057
 31
-0.0000000000000312
210
0.0
220
1.0
230
-0.0000000000000002
  0
ARC
  5
2B91
  8
0
  6
VERDECKT
 62
     1
 10
51.5000000000002771
 20
161.2999999999998977
 30
0.0
 40
13.5000000000002895
210
0.0
220
-0.0000000000000002
230
-1.0
 50
160.1669477581858985
 51
179.9999999999996874
  0
ARC
  5
2B92
  8
0
  6
VERDECKT
 62
     1
 10
-51.5000000000002771
 20
161.2999999999998977
 30
0.0
 40
13.5000000000002807
210
0.0
220
-0.0000000000000002
230
-1.0
 50
0.0000000000002417
 51
19.8330522418140589
  0
LINE
  5
2B93
  8
0
  6
VERDECKT
 62
     1
 10
-38.8007497390148401
 20
165.8802885071652042
 30
-0.0000000000000368
 11
-39.1061023061592792
 21
166.7269051912309976
 31
-0.000000000000037
210
0.0
220
1.0
230
-0.0000000000000002
  0
LINE
  5
2B94
  8
0
  6
VERDECKT
 62
     1
 10
38.8007497390148401
 20
165.8802885071652042
 30
-0.0000000000000368
 11
39.1061023061592792
 21
166.7269051912309976
 31
-0.000000000000037
210
0.0
220
1.0
230
-0.0000000000000002
  0
ARC
  5
2B95
  8
0
  6
VERDECKT
 62
     1
 10
17.0000000000001208
 20
174.6999999999999886
 30
0.0
 40
23.4999999999998792
210
0.0
220
-0.0000000000000002
230
-1.0
 50
340.1669477581858132
 51
0.0000000000000763
  0
ARC
  5
2B96
  8
0
  6
VERDECKT
 62
     1
 10
-17.0000000000001208
 20
174.6999999999999886
 30
0.0
 40
23.4999999999998792
210
0.0
220
-0.0000000000000002
230
-1.0
 50
179.9999999999998863
 51
199.8330522418141015
  0
LINE
  5
2B97
  8
0
  6
VERDECKT
 62
     1
 10
40.5
 20
181.5999999999999943
 30
-0.0000000000000403
 11
40.5
 21
174.6999999999999886
 31
-0.0000000000000388
210
0.0
220
1.0
230
-0.0000000000000002
  0
LINE
  5
2B98
  8
0
  6
VERDECKT
 62
     1
 10
-40.5
 20
181.5999999999999943
 30
-0.0000000000000403
 11
-40.5
 21
174.6999999999999886
 31
-0.0000000000000388
210
0.0
220
1.0
230
-0.0000000000000002
  0
ARC
  5
2B99
  8
0
  6
VERDECKT
 62
     1
 10
17.00000000000027
 20
181.5999999999999943
 30
0.0
 40
23.4999999999997193
210
0.0
220
-0.0000000000000002
230
-1.0
 50
0.0
 51
19.5519464131211294
  0
ARC
  5
2B9A
  8
0
  6
VERDECKT
 62
     1
 10
-17.0000000000000391
 20
181.5999999999999943
 30
0.0
 40
23.4999999999999609
210
0.0
220
-0.0000000000000002
230
-1.0
 50
160.448053586879098
 51
180.0
  0
LINE
  5
2B9B
  8
0
  6
VERDECKT
 62
     1
 10
-39.144953866788569
 20
189.4645418326693971
 30
-0.0000000000000421
 11
-40.6526954066550275
 21
190.0
 31
-0.0000000000000422
210
0.0
220
1.0
230
-0.0000000000000002
  0
LINE
  5
2B9C
  8
0
  6
VERDECKT
 62
     1
 10
39.144953866788569
 20
189.4645418326693971
 30
-0.0000000000000421
 11
40.6526954066550275
 21
190.0
 31
-0.0000000000000422
210
0.0
220
1.0
230
-0.0000000000000002
  0
ENDBLK
  5
2B9E
  8
0
  0
BLOCK
  8
0
  2
A$C22E22FCD
 70
     0
 10
0.0
 20
0.0
 30
0.0
  3
A$C22E22FCD
  1

  0
CIRCLE
  5
2BA2
  8
0
  6
CONTINUOUS
 62
     3
 10
0.0000000000000151
 20
0.0000000000000061
 30
0.0
 40
44.5
  0
CIRCLE
  5
2BA3
  8
0
  6
CONTINUOUS
 62
     3
 10
0.0000000000000288
 20
0.0000000000000079
 30
0.0
 40
34.9000000000000128
  0
CIRCLE
  5
2BA4
  8
0
  6
CONTINUOUS
 62
     3
 10
0.0000000000000358
 20
0.0000000000000099
 30
0.0
 40
38.0000000000000071
  0
CIRCLE
  5
2BA5
  8
0
  6
CONTINUOUS
 62
     3
 10
0.0000000000000421
 20
0.0000000000000116
 30
0.0
 40
39.1449538667885832
  0
CIRCLE
  5
2BA6
  8
0
  6
CONTINUOUS
 62
     3
 10
0.0000000000000422
 20
0.0000000000000116
 30
0.0
 40
40.6526954066550275
  0
CIRCLE
  5
2BA7
  8
0
  6
CONTINUOUS
 62
     3
 10
0.0000000000000403
 20
0.0000000000000111
 30
0.0
 40
42.1000000000000014
  0
CIRCLE
  5
2BA8
  8
0
  6
VERDECKT
 62
     1
 10
0.0000000000000151
 20
0.0000000000000061
 30
0.0
 40
42.8999999999593484
  0
CIRCLE
  5
2BA9
  8
0
  6
VERDECKT
 62
     1
 10
-0.0000000000000071
 20
0.0
 30
0.0
 40
41.9123553972178229
  0
CIRCLE
  5
2BAA
  8
0
  6
VERDECKT
 62
     1
 10
-0.0000000000000071
 20
0.0
 30
0.0
 40
43.5000000000000071
  0
CIRCLE
  5
2BAB
  8
0
  6
VERDECKT
 62
     1
 10
0.0000000000000182
 20
0.000000000000007
 30
0.0
 40
35.2737226277061069
  0
CIRCLE
  5
2BAC
  8
0
  6
VERDECKT
 62
     1
 10
0.0000000000000288
 20
0.0000000000000079
 30
0.0
 40
36.5000000000000071
  0
CIRCLE
  5
2BAD
  8
0
  6
VERDECKT
 62
     1
 10
0.0000000000000403
 20
0.0000000000000111
 30
0.0
 40
40.4999999999999929
  0
CIRCLE
  5
2BAE
  8
0
  6
VERDECKT
 62
     1
 10
0.0000000000000358
 20
0.0000000000000099
 30
0.0
 40
39.6000000000000014
  0
ENDBLK
  5
2BB0
  8
0
  0
ENDSEC
  0
SECTION
  2
ENTITIES
  0
TEXT
  5
8F
  8
VOLL
 10
78.076754716981128
 20
31.025947764705851
 30
0.0
 40
1.8
  1

  7
GREEKS
  0
TEXT
  5
3C2
  8
TEXT
 62
     1
 10
371.151689606572404
 20
62.2164078635510123
 30
0.0
 40
7.0
  1

 41
0.8
  7
GREEKS
 72
     1
 11
371.151689606572404
 21
62.2164078635510123
 31
0.0
  0
TEXT
  5
1866
  8
VOLL
 10
581.8733634051852732
 20
415.8149290135680189
 30
0.0
 40
1.8
  1

  7
GREEKS
  0
INSERT
  5
25E4
  8
ADSK_ASSOC_ENTITY_BACKUPS
  2
*S0
 10
0.0
 20
0.0
 30
0.0
  0
INSERT
  5
2B9F
  8
STEMPEL
  2
A$CDCCAC6B1
 10
0.0
 20
0.0
 30
0.0
  0
INSERT
  5
2BB1
  8
STEMPEL
  2
A$C22E22FCD
 10
0.0
 20
-94.5000000000000142
 30
0.0
  0
VIEWPORT
  5
1FF1
 67
     1
  8
0
 10
98.3823697654747491
 20
143.456688014049206
 30
0.0
 40
558.8319832755776133
 41
298.5191815856778135
 68
     1
 69
     1
1001
ACAD
1000
MVIEW
1002
{
1070
    16
1010
0.0
1020
0.0
1030
0.0
1010
0.0
1020
0.0
1030
1.0
1040
0.0
1040
298.5191815856778135
1040
98.3823697654747491
1040
143.456688014049206
1040
50.0
1040
0.0
1040
0.0
1070
     0
1070
  1500
1070
     1
1070
     1
1070
     0
1070
     0
1070
     0
1070
     0
1040
0.0
1040
0.0
1040
0.0
1040
10.0
1040
10.0
1040
10.0
1040
10.0
1070
     0
1002
{
1002
}
1002
}
  0
ENDSEC
  0
EOF
