  0
SECTION
  2
HEADER
  9
$ACADVER
  1
AC1009
  9
$INSBASE
 10
0.0
 20
0.0
 30
0.0
  9
$EXTMIN
 10
-51.7322513814029534
 20
-51.7322513814029179
 30
-0.0000000000001138
  9
$EXTMAX
 10
51.7322513814029534
 20
315.0000000000014779
 30
195.0000000000013074
  9
$LIMMIN
 10
0.0
 20
0.0
  9
$LIMMAX
 10
419.9999999999998863
 20
594.0
  9
$ORTHOMODE
 70
     1
  9
$REGENMODE
 70
     1
  9
$FILLMODE
 70
     1
  9
$QTEXTMODE
 70
     0
  9
$MIRRTEXT
 70
     1
  9
$DRAGMODE
 70
     2
  9
$LTSCALE
 40
20.0
  9
$OSMODE
 70
   183
  9
$ATTMODE
 70
     1
  9
$TEXTSIZE
 40
3.5
  9
$TRACEWID
 40
0.5
  9
$TEXTSTYLE
  7
STANDARD
  9
$CLAYER
  8
DEFPOINTS
  9
$CELTYPE
  6
BYLAYER
  9
$CECOLOR
 62
   256
  9
$DIMSCALE
 40
1.0
  9
$DIMASZ
 40
3.5
  9
$DIMEXO
 40
1.0
  9
$DIMDLI
 40
7.0
  9
$DIMRND
 40
0.0
  9
$DIMDLE
 40
0.0
  9
$DIMEXE
 40
1.0
  9
$DIMTP
 40
0.0
  9
$DIMTM
 40
0.0
  9
$DIMTXT
 40
3.5
  9
$DIMCEN
 40
1.5
  9
$DIMTSZ
 40
0.0
  9
$DIMTOL
 70
     0
  9
$DIMLIM
 70
     0
  9
$DIMTIH
 70
     0
  9
$DIMTOH
 70
     0
  9
$DIMSE1
 70
     0
  9
$DIMSE2
 70
     0
  9
$DIMTAD
 70
     1
  9
$DIMZIN
 70
     8
  9
$DIMBLK
  1

  9
$DIMASO
 70
     1
  9
$DIMSHO
 70
     0
  9
$DIMPOST
  1

  9
$DIMAPOST
  1

  9
$DIMALT
 70
     0
  9
$DIMALTD
 70
     2
  9
$DIMALTF
 40
25.3999999999999986
  9
$DIMLFAC
 40
2.0
  9
$DIMTOFL
 70
     1
  9
$DIMTVP
 40
0.0
  9
$DIMTIX
 70
     0
  9
$DIMSOXD
 70
     0
  9
$DIMSAH
 70
     0
  9
$DIMBLK1
  1

  9
$DIMBLK2
  1

  9
$DIMSTYLE
  2
STANDARD
  9
$DIMCLRD
 70
     0
  9
$DIMCLRE
 70
     0
  9
$DIMCLRT
 70
     1
  9
$DIMTFAC
 40
0.5142857142857143
  9
$DIMGAP
 40
1.5
  9
$LUNITS
 70
     2
  9
$LUPREC
 70
     2
  9
$SKETCHINC
 40
1.0
  9
$FILLETRAD
 40
12.0
  9
$AUNITS
 70
     0
  9
$AUPREC
 70
     0
  9
$MENU
  1
ACAD
  9
$ELEVATION
 40
0.0
  9
$PELEVATION
 40
0.0
  9
$THICKNESS
 40
0.0
  9
$LIMCHECK
 70
     0
  9
$BLIPMODE
 70
     0
  9
$CHAMFERA
 40
0.0
  9
$CHAMFERB
 40
0.0
  9
$SKPOLY
 70
     0
  9
$TDCREATE
 40
2455397.8646990740671754
  9
$TDUPDATE
 40
2458373.4659027778543532
  9
$TDINDWG
 40
0.1763394444
  9
$TDUSRTIMER
 40
0.1763394444
  9
$USRTIMER
 70
     1
  9
$ANGBASE
 50
0.0
  9
$ANGDIR
 70
     0
  9
$PDMODE
 70
     0
  9
$PDSIZE
 40
0.0
  9
$PLINEWID
 40
0.0
  9
$COORDS
 70
     1
  9
$SPLFRAME
 70
     0
  9
$SPLINETYPE
 70
     6
  9
$SPLINESEGS
 70
     8
  9
$ATTDIA
 70
     1
  9
$ATTREQ
 70
     1
  9
$HANDLING
 70
     1
  9
$HANDSEED
  5
31CB
  9
$SURFTAB1
 70
     6
  9
$SURFTAB2
 70
     6
  9
$SURFTYPE
 70
     6
  9
$SURFU
 70
     6
  9
$SURFV
 70
     6
  9
$UCSNAME
  2

  9
$UCSORG
 10
0.0
 20
0.0
 30
0.0
  9
$UCSXDIR
 10
1.0
 20
0.0
 30
0.0
  9
$UCSYDIR
 10
0.0
 20
1.0
 30
0.0
  9
$PUCSNAME
  2

  9
$PUCSORG
 10
0.0
 20
0.0
 30
0.0
  9
$PUCSXDIR
 10
1.0
 20
0.0
 30
0.0
  9
$PUCSYDIR
 10
0.0
 20
1.0
 30
0.0
  9
$USERI1
 70
     0
  9
$USERI2
 70
     0
  9
$USERI3
 70
     0
  9
$USERI4
 70
     0
  9
$USERI5
 70
     0
  9
$USERR1
 40
0.0
  9
$USERR2
 40
0.0
  9
$USERR3
 40
0.0
  9
$USERR4
 40
0.0
  9
$USERR5
 40
0.0
  9
$WORLDVIEW
 70
     1
  9
$SHADEDGE
 70
     3
  9
$SHADEDIF
 70
    70
  9
$TILEMODE
 70
     1
  9
$MAXACTVP
 70
    16
  9
$PLIMCHECK
 70
     0
  9
$PEXTMIN
 10
-0.0123546396990833
 20
-0.0109705369939093
 30
-411.2114206293567804
  9
$PEXTMAX
 10
198.7451793502399084
 20
290.9545393600154739
 30
0.012552623737065
  9
$PLIMMIN
 10
-5.0737240221584514
 20
-2.2332174920145582
  9
$PLIMMAX
 10
203.806547760024813
 20
293.1767849394261134
  9
$UNITMODE
 70
     0
  9
$VISRETAIN
 70
     0
  9
$PLINEGEN
 70
     0
  9
$PSLTSCALE
 70
     0
  0
ENDSEC
  0
SECTION
  2
TABLES
  0
TABLE
  2
VPORT
 70
     1
  0
VPORT
  2
*ACTIVE
 70
     0
 10
0.0
 20
0.0
 11
1.0
 21
1.0
 12
0.0
 22
0.0
 13
0.0
 23
0.0
 14
1.0
 24
1.0
 15
10.0
 25
10.0
 16
-0.0000000000003837
 26
0.0
 36
1687.1096166429861114
 17
80.1366751214873148
 27
51.1980235363740306
 37
-0.0000000000000037
 40
681.7385496076401523
 41
1.8224299065420559
 42
50.0
 43
0.0
 44
0.0
 50
0.0
 51
0.0
 71
     0
 72
  1500
 73
     1
 74
     0
 75
     0
 76
     0
 77
     0
 78
     0
  0
ENDTAB
  0
TABLE
  2
LTYPE
 70
     6
  0
LTYPE
  2
CONTINUOUS
 70
     0
  3
Solid line
 72
    65
 73
     0
 40
0.0
  0
LTYPE
  2
AUSGEZOGEN
 70
     0
  3
Ausgezogene Linie
 72
    65
 73
     0
 40
0.0
  0
LTYPE
  2
VERDECKT
 70
     0
  3
Verdeckt __ __ __ __ __ __ __ __ __ __ __ __ __
 72
    65
 73
     2
 40
0.375
 49
0.25
 49
-0.125
  0
ENDTAB
  0
TABLE
  2
LAYER
 70
    13
  0
LAYER
  2
0
 70
     0
 62
     7
  6
CONTINUOUS
  0
LAYER
  2
DEFPOINTS
 70
     0
 62
     7
  6
AUSGEZOGEN
  0
LAYER
  2
MATERIAL__VERZINKT_
 70
     0
 62
   254
  6
CONTINUOUS
  0
LAYER
  2
ADSK_ASSOC_ENTITY_BACKUPS
 70
     1
 62
    -7
  6
CONTINUOUS
  0
ENDTAB
  0
TABLE
  2
STYLE
 70
     4
  0
STYLE
  2
STANDARD
 70
     0
 40
0.0
 41
0.8
 50
0.0
 71
     0
 42
3.5
  3
simplex.shx
  4

  0
STYLE
  2

 70
     1
 40
0.0
 41
1.0
 50
0.0
 71
     0
 42
2.5
  3
ltypeshp.shx
  4

  0
ENDTAB
  0
TABLE
  2
VIEW
 70
     1
  0
ENDTAB
  0
TABLE
  2
UCS
 70
     0
  0
ENDTAB
  0
TABLE
  2
APPID
 70
    20
  0
APPID
  2
ACAD
 70
     0
  0
APPID
  2
ACAD_NAV_VCDISPLAY
 70
     0
  0
APPID
  2
ACAD_PSEXT
 70
     0
  0
APPID
  2
ACAD_EXEMPT_FROM_CAD_STANDARDS
 70
     0
  0
APPID
  2
ACAD_MLEADERVER
 70
     0
  0
APPID
  2
ACAD_DSTYLE_DIMRADIAL_EXTENSION
 70
     0
  0
APPID
  2
ACAECLAYERSTANDARD
 70
     0
  0
APPID
  2
ACCMTRANSPARENCY
 70
     0
  0
APPID
  2
ACAD_STEPID
 70
     0
  0
APPID
  2
ACAD_ASSOCPERSSUBENTMANAGER
 70
     0
  0
APPID
  2
ACAD_OBJECT_CHANGE_GUID
 70
     0
  0
APPID
  2
PLOTTRANSPARENCY
 70
     0
  0
APPID
  2
ACAD_DSTYLE_DIMJAG
 70
     0
  0
APPID
  2
ACAD_DSTYLE_DIMTALN
 70
     0
  0
APPID
  2
ACSYNERGY
 70
     0
  0
APPID
  2
SYNERGY_BODY_TBR_ID
 70
     0
  0
APPID
  2
ACAD_VIEW_EDGE_ID
 70
     0
  0
APPID
  2
ACADANNOMONITORALERTICONDI
 70
     0
  0
APPID
  2
ACADANNOPO
 70
     0
  0
APPID
  2
AcDbAttr
 70
     0
  0
ENDTAB
  0
TABLE
  2
DIMSTYLE
 70
     2
  0
DIMSTYLE
  2
STANDARD
 70
     0
  3

  4

  5

  6

  7

 40
1.0
 41
0.18
 42
0.0625
 43
0.38
 44
0.18
 45
0.0
 46
0.0
 47
0.0
 48
0.0
140
0.18
141
0.09
142
0.0
143
25.3999999999999986
144
1.0
145
0.0
146
1.0
147
0.09
 71
     0
 72
     0
 73
     1
 74
     1
 75
     0
 76
     0
 77
     0
 78
     0
170
     0
171
     2
172
     0
173
     0
174
     0
175
     0
176
     0
177
     0
178
     0
  0
ENDTAB
  0
ENDSEC
  0
SECTION
  2
BLOCKS
  0
BLOCK
  8
0
  2
$MODEL_SPACE
 70
     0
 10
0.0
 20
0.0
 30
0.0
  3
$MODEL_SPACE
  1

  0
ENDBLK
  5
36
  8
0
  0
BLOCK
 67
     1
  8
0
  2
$PAPER_SPACE
 70
     0
 10
0.0
 20
0.0
 30
0.0
  3
$PAPER_SPACE
  1

  0
ENDBLK
  5
34
 67
     1
  8
0
  0
BLOCK
  8
0
  2
*S3
 70
     1
 10
0.0
 20
0.0
 30
0.0
  3
*S3
  1

  0
ENDBLK
  5
238D
  8
0
  0
BLOCK
  8
0
  2
A$C7BBB6D61
 70
     0
 10
0.0
 20
0.0
 30
0.0
  3
A$C7BBB6D61
  1

  0
LINE
  5
2A0E
  8
0
  6
CONTINUOUS
 62
     3
 10
-39.0
 20
129.998726417416492
 30
-0.0000000000000289
 11
39.0
 21
129.998726417416492
 31
-0.0000000000000289
210
0.0
220
1.0
230
-0.0000000000000002
  0
LINE
  5
2A0F
  8
0
  6
CONTINUOUS
 62
     3
 10
50.1251133647408409
 20
-0.0000000000001137
 30
0.0
 11
-50.1251133647408409
 21
-0.0000000000001137
 31
0.0
210
0.0
220
1.0
230
-0.0000000000000002
  0
ARC
  5
2A10
  8
0
  6
CONTINUOUS
 62
     3
 10
38.9999999999984794
 20
96.2332298383496294
 30
0.0
 40
12.0000000000015206
210
0.0
220
-0.0000000000000002
230
-1.0
 50
0.0000000000012977
 51
20.8174940078821997
  0
ARC
  5
2A11
  8
0
  6
CONTINUOUS
 62
     3
 10
-38.9999999999984794
 20
96.2332298383496294
 30
0.0
 40
12.0000000000015206
210
0.0
220
-0.0000000000000002
230
-1.0
 50
159.1825059921177967
 51
179.9999999999986926
  0
LINE
  5
2A12
  8
0
  6
CONTINUOUS
 62
     3
 10
39.0
 20
129.998726417416492
 30
-0.0000000000000289
 11
50.2166065045356618
 21
100.497938330428596
 31
-0.0000000000000223
210
0.0
220
1.0
230
-0.0000000000000002
  0
LINE
  5
2A13
  8
0
  6
CONTINUOUS
 62
     3
 10
-39.0
 20
129.998726417416492
 30
-0.0000000000000289
 11
-50.2166065045356618
 21
100.497938330428596
 31
-0.0000000000000223
210
0.0
220
1.0
230
-0.0000000000000002
  0
LINE
  5
2A14
  8
0
  6
CONTINUOUS
 62
     3
 10
-50.125113364740848
 20
-0.0000000000001137
 30
0.0
 11
-51.0
 21
10.0000000000013607
 31
-0.0000000000000022
210
0.0
220
1.0
230
-0.0000000000000002
  0
LINE
  5
2A15
  8
0
  6
CONTINUOUS
 62
     3
 10
50.125113364740848
 20
-0.0000000000001137
 30
0.0
 11
51.0
 21
10.0000000000013607
 31
-0.0000000000000022
210
0.0
220
1.0
230
-0.0000000000000002
  0
LINE
  5
2A16
  8
0
  6
CONTINUOUS
 62
     3
 10
-51.0
 20
10.0000000000013607
 30
-0.0000000000000022
 11
-51.0
 21
96.2332298383498994
 31
-0.0000000000000214
210
0.0
220
1.0
230
-0.0000000000000002
  0
LINE
  5
2A17
  8
0
  6
CONTINUOUS
 62
     3
 10
51.0
 20
10.0000000000013607
 30
-0.0000000000000022
 11
51.0
 21
96.2332298383498994
 31
-0.0000000000000214
210
0.0
220
1.0
230
-0.0000000000000002
  0
LINE
  5
2A18
  8
0
  6
CONTINUOUS
 62
     3
 10
39.0
 20
129.998726417416492
 30
-0.0000000000000289
 11
-39.0
 21
129.998726417416492
 31
-0.0000000000000289
210
0.0
220
1.0
230
-0.0000000000000002
  0
LINE
  5
2A19
  8
0
  6
CONTINUOUS
 62
     3
 10
39.4500924592590607
 20
195.0000000000013927
 30
-0.0000000000000433
 11
-39.4500924592585989
 21
195.0000000000013927
 31
-0.0000000000000433
210
0.0
220
1.0
230
-0.0000000000000002
  0
LINE
  5
2A1A
  8
0
  6
CONTINUOUS
 62
     3
 10
36.7422153515723906
 20
135.6330918852237062
 30
-0.0000000000000301
 11
39.0
 21
129.998726417416492
 31
-0.0000000000000289
210
0.0
220
1.0
230
-0.0000000000000002
  0
LINE
  5
2A1B
  8
0
  6
CONTINUOUS
 62
     3
 10
-36.7422153515723977
 20
135.6330918852235925
 30
-0.0000000000000301
 11
-39.0
 21
129.998726417416492
 31
-0.0000000000000289
210
0.0
220
1.0
230
-0.0000000000000002
  0
ARC
  5
2A1C
  8
0
  6
CONTINUOUS
 62
     3
 10
-39.8756868513012606
 20
136.8887264174163931
 30
0.0
 40
3.3756868513012361
210
0.0
220
-0.0000000000000002
230
-1.0
 50
338.1631966336107098
 51
0.0000000000004834
  0
ARC
  5
2A1D
  8
0
  6
CONTINUOUS
 62
     3
 10
39.87568685130082
 20
136.8887264174163931
 30
0.0
 40
3.3756868513008049
210
0.0
220
-0.0000000000000002
230
-1.0
 50
179.9999999999980105
 51
201.8368033663913081
  0
POLYLINE
  8
0
  5
2AC3
  62
3
  66
     1
 10
0.000000
 20
0.000000
 30
0.000000
  70
     8
  0
VERTEX
  8
0
  5
2AC4
 10
-39.6000
 20
145.389
 30
-3.23000e-14
  70
    32
  0
VERTEX
  8
0
  5
2AC5
 10
-39.6000
 20
145.364
 30
-3.22929e-14
  70
    32
  0
VERTEX
  8
0
  5
2AC6
 10
-39.5998
 20
145.340
 30
-3.22859e-14
  70
    32
  0
VERTEX
  8
0
  5
2AC7
 10
-39.5996
 20
145.316
 30
-3.22790e-14
  70
    32
  0
VERTEX
  8
0
  5
2AC8
 10
-39.5993
 20
145.292
 30
-3.22721e-14
  70
    32
  0
VERTEX
  8
0
  5
2AC9
 10
-39.5988
 20
145.267
 30
-3.22654e-14
  70
    32
  0
VERTEX
  8
0
  5
2ACA
 10
-39.5983
 20
145.243
 30
-3.22587e-14
  70
    32
  0
VERTEX
  8
0
  5
2ACB
 10
-39.5977
 20
145.219
 30
-3.22521e-14
  70
    32
  0
VERTEX
  8
0
  5
2ACC
 10
-39.5971
 20
145.196
 30
-3.22455e-14
  70
    32
  0
VERTEX
  8
0
  5
2ACD
 10
-39.5963
 20
145.172
 30
-3.22391e-14
  70
    32
  0
VERTEX
  8
0
  5
2ACE
 10
-39.5954
 20
145.148
 30
-3.22327e-14
  70
    32
  0
VERTEX
  8
0
  5
2ACF
 10
-39.5945
 20
145.124
 30
-3.22264e-14
  70
    32
  0
VERTEX
  8
0
  5
2AD0
 10
-39.5934
 20
145.101
 30
-3.22202e-14
  70
    32
  0
VERTEX
  8
0
  5
2AD1
 10
-39.5923
 20
145.077
 30
-3.22140e-14
  70
    32
  0
VERTEX
  8
0
  5
2AD2
 10
-39.5911
 20
145.054
 30
-3.22080e-14
  70
    32
  0
VERTEX
  8
0
  5
2AD3
 10
-39.5898
 20
145.031
 30
-3.22020e-14
  70
    32
  0
VERTEX
  8
0
  5
2AD4
 10
-39.5884
 20
145.007
 30
-3.21960e-14
  70
    32
  0
VERTEX
  8
0
  5
2AD5
 10
-39.5869
 20
144.984
 30
-3.21902e-14
  70
    32
  0
VERTEX
  8
0
  5
2AD6
 10
-39.5853
 20
144.961
 30
-3.21843e-14
  70
    32
  0
VERTEX
  8
0
  5
2AD7
 10
-39.5837
 20
144.938
 30
-3.21786e-14
  70
    32
  0
VERTEX
  8
0
  5
2AD8
 10
-39.5819
 20
144.915
 30
-3.21729e-14
  70
    32
  0
VERTEX
  8
0
  5
2AD9
 10
-39.5801
 20
144.892
 30
-3.21673e-14
  70
    32
  0
VERTEX
  8
0
  5
2ADA
 10
-39.5782
 20
144.869
 30
-3.21618e-14
  70
    32
  0
VERTEX
  8
0
  5
2ADB
 10
-39.5762
 20
144.847
 30
-3.21563e-14
  70
    32
  0
VERTEX
  8
0
  5
2ADC
 10
-39.5742
 20
144.824
 30
-3.21509e-14
  70
    32
  0
VERTEX
  8
0
  5
2ADD
 10
-39.5720
 20
144.801
 30
-3.21456e-14
  70
    32
  0
VERTEX
  8
0
  5
2ADE
 10
-39.5698
 20
144.779
 30
-3.21403e-14
  70
    32
  0
VERTEX
  8
0
  5
2ADF
 10
-39.5674
 20
144.756
 30
-3.21351e-14
  70
    32
  0
VERTEX
  8
0
  5
2AE0
 10
-39.5650
 20
144.734
 30
-3.21299e-14
  70
    32
  0
VERTEX
  8
0
  5
2AE1
 10
-39.5625
 20
144.712
 30
-3.21248e-14
  70
    32
  0
VERTEX
  8
0
  5
2AE2
 10
-39.5600
 20
144.689
 30
-3.21197e-14
  70
    32
  0
VERTEX
  8
0
  5
2AE3
 10
-39.5573
 20
144.667
 30
-3.21147e-14
  70
    32
  0
VERTEX
  8
0
  5
2AE4
 10
-39.5546
 20
144.645
 30
-3.21098e-14
  70
    32
  0
VERTEX
  8
0
  5
2AE5
 10
-39.5518
 20
144.623
 30
-3.21049e-14
  70
    32
  0
VERTEX
  8
0
  5
2AE6
 10
-39.5489
 20
144.601
 30
-3.21000e-14
  70
    32
  0
VERTEX
  8
0
  5
2AE7
 10
-39.5460
 20
144.579
 30
-3.20952e-14
  70
    32
  0
VERTEX
  8
0
  5
2AE8
 10
-39.5429
 20
144.557
 30
-3.20905e-14
  70
    32
  0
VERTEX
  8
0
  5
2AE9
 10
-39.5398
 20
144.535
 30
-3.20858e-14
  70
    32
  0
VERTEX
  8
0
  5
2AEA
 10
-39.5366
 20
144.514
 30
-3.20812e-14
  70
    32
  0
VERTEX
  8
0
  5
2AEB
 10
-39.5333
 20
144.492
 30
-3.20766e-14
  70
    32
  0
VERTEX
  8
0
  5
2AEC
 10
-39.5300
 20
144.471
 30
-3.20720e-14
  70
    32
  0
VERTEX
  8
0
  5
2AED
 10
-39.5265
 20
144.449
 30
-3.20675e-14
  70
    32
  0
VERTEX
  8
0
  5
2AEE
 10
-39.5230
 20
144.428
 30
-3.20631e-14
  70
    32
  0
VERTEX
  8
0
  5
2AEF
 10
-39.5195
 20
144.406
 30
-3.20586e-14
  70
    32
  0
VERTEX
  8
0
  5
2AF0
 10
-39.5158
 20
144.385
 30
-3.20543e-14
  70
    32
  0
VERTEX
  8
0
  5
2AF1
 10
-39.5121
 20
144.364
 30
-3.20500e-14
  70
    32
  0
VERTEX
  8
0
  5
2AF2
 10
-39.5083
 20
144.342
 30
-3.20457e-14
  70
    32
  0
VERTEX
  8
0
  5
2AF3
 10
-39.5044
 20
144.321
 30
-3.20414e-14
  70
    32
  0
VERTEX
  8
0
  5
2AF4
 10
-39.5004
 20
144.300
 30
-3.20372e-14
  70
    32
  0
VERTEX
  8
0
  5
2AF5
 10
-39.4964
 20
144.279
 30
-3.20330e-14
  70
    32
  0
VERTEX
  8
0
  5
2AF6
 10
-39.4923
 20
144.258
 30
-3.20289e-14
  70
    32
  0
VERTEX
  8
0
  5
2AF7
 10
-39.4881
 20
144.237
 30
-3.20248e-14
  70
    32
  0
VERTEX
  8
0
  5
2AF8
 10
-39.4839
 20
144.217
 30
-3.20207e-14
  70
    32
  0
VERTEX
  8
0
  5
2AF9
 10
-39.4796
 20
144.196
 30
-3.20167e-14
  70
    32
  0
VERTEX
  8
0
  5
2AFA
 10
-39.4752
 20
144.175
 30
-3.20127e-14
  70
    32
  0
VERTEX
  8
0
  5
2AFB
 10
-39.4708
 20
144.154
 30
-3.20088e-14
  70
    32
  0
VERTEX
  8
0
  5
2AFC
 10
-39.4662
 20
144.134
 30
-3.20048e-14
  70
    32
  0
VERTEX
  8
0
  5
2AFD
 10
-39.4616
 20
144.113
 30
-3.20009e-14
  70
    32
  0
VERTEX
  8
0
  5
2AFE
 10
-39.4570
 20
144.093
 30
-3.19970e-14
  70
    32
  0
VERTEX
  8
0
  5
2AFF
 10
-39.4522
 20
144.072
 30
-3.19932e-14
  70
    32
  0
VERTEX
  8
0
  5
2B00
 10
-39.4474
 20
144.052
 30
-3.19894e-14
  70
    32
  0
VERTEX
  8
0
  5
2B01
 10
-39.4426
 20
144.032
 30
-3.19856e-14
  70
    32
  0
VERTEX
  8
0
  5
2B02
 10
-39.4376
 20
144.012
 30
-3.19818e-14
  70
    32
  0
VERTEX
  8
0
  5
2B03
 10
-39.4326
 20
143.991
 30
-3.19781e-14
  70
    32
  0
VERTEX
  8
0
  5
2B04
 10
-39.4276
 20
143.971
 30
-3.19744e-14
  70
    32
  0
VERTEX
  8
0
  5
2B05
 10
-39.4224
 20
143.951
 30
-3.19707e-14
  70
    32
  0
VERTEX
  8
0
  5
2B06
 10
-39.4172
 20
143.931
 30
-3.19670e-14
  70
    32
  0
VERTEX
  8
0
  5
2B07
 10
-39.4119
 20
143.911
 30
-3.19633e-14
  70
    32
  0
VERTEX
  8
0
  5
2B08
 10
-39.4066
 20
143.891
 30
-3.19597e-14
  70
    32
  0
VERTEX
  8
0
  5
2B09
 10
-39.4012
 20
143.871
 30
-3.19561e-14
  70
    32
  0
VERTEX
  8
0
  5
2B0A
 10
-39.3957
 20
143.852
 30
-3.19525e-14
  70
    32
  0
VERTEX
  8
0
  5
2B0B
 10
-39.3902
 20
143.832
 30
-3.19489e-14
  70
    32
  0
VERTEX
  8
0
  5
2B0C
 10
-39.3846
 20
143.812
 30
-3.19453e-14
  70
    32
  0
VERTEX
  8
0
  5
2B0D
 10
-39.3790
 20
143.793
 30
-3.19418e-14
  70
    32
  0
VERTEX
  8
0
  5
2B0E
 10
-39.3733
 20
143.773
 30
-3.19382e-14
  70
    32
  0
VERTEX
  8
0
  5
2B0F
 10
-39.3675
 20
143.754
 30
-3.19347e-14
  70
    32
  0
VERTEX
  8
0
  5
2B10
 10
-39.3616
 20
143.734
 30
-3.19312e-14
  70
    32
  0
VERTEX
  8
0
  5
2B11
 10
-39.3557
 20
143.715
 30
-3.19277e-14
  70
    32
  0
VERTEX
  8
0
  5
2B12
 10
-39.3498
 20
143.695
 30
-3.19242e-14
  70
    32
  0
VERTEX
  8
0
  5
2B13
 10
-39.3437
 20
143.676
 30
-3.19207e-14
  70
    32
  0
VERTEX
  8
0
  5
2B14
 10
-39.3377
 20
143.657
 30
-3.19172e-14
  70
    32
  0
VERTEX
  8
0
  5
2B15
 10
-39.3315
 20
143.637
 30
-3.19137e-14
  70
    32
  0
VERTEX
  8
0
  5
2B16
 10
-39.3253
 20
143.618
 30
-3.19103e-14
  70
    32
  0
VERTEX
  8
0
  5
2B17
 10
-39.3190
 20
143.599
 30
-3.19068e-14
  70
    32
  0
VERTEX
  8
0
  5
2B18
 10
-39.3127
 20
143.580
 30
-3.19033e-14
  70
    32
  0
VERTEX
  8
0
  5
2B19
 10
-39.3063
 20
143.561
 30
-3.18999e-14
  70
    32
  0
VERTEX
  8
0
  5
2B1A
 10
-39.2999
 20
143.542
 30
-3.18963e-14
  70
    32
  0
VERTEX
  8
0
  5
2B1B
 10
-39.2934
 20
143.523
 30
-3.18927e-14
  70
    32
  0
VERTEX
  8
0
  5
2B1C
 10
-39.2869
 20
143.504
 30
-3.18890e-14
  70
    32
  0
VERTEX
  8
0
  5
2B1D
 10
-39.2803
 20
143.485
 30
-3.18852e-14
  70
    32
  0
VERTEX
  8
0
  5
2B1E
 10
-39.2736
 20
143.467
 30
-3.18814e-14
  70
    32
  0
VERTEX
  8
0
  5
2B1F
 10
-39.2669
 20
143.448
 30
-3.18775e-14
  70
    32
  0
VERTEX
  8
0
  5
2B20
 10
-39.2601
 20
143.429
 30
-3.18735e-14
  70
    32
  0
VERTEX
  8
0
  5
2B21
 10
-39.2533
 20
143.411
 30
-3.18695e-14
  70
    32
  0
VERTEX
  8
0
  5
2B22
 10
-39.2464
 20
143.392
 30
-3.18654e-14
  70
    32
  0
VERTEX
  8
0
  5
2B23
 10
-39.2395
 20
143.373
 30
-3.18613e-14
  70
    32
  0
VERTEX
  8
0
  5
2B24
 10
-39.2325
 20
143.355
 30
-3.18571e-14
  70
    32
  0
VERTEX
  8
0
  5
2B25
 10
-39.2254
 20
143.337
 30
-3.18529e-14
  70
    32
  0
VERTEX
  8
0
  5
2B26
 10
-39.2183
 20
143.318
 30
-3.18486e-14
  70
    32
  0
VERTEX
  8
0
  5
2B27
 10
-39.2112
 20
143.300
 30
-3.18443e-14
  70
    32
  0
VERTEX
  8
0
  5
2B28
 10
-39.2040
 20
143.281
 30
-3.18399e-14
  70
    32
  0
VERTEX
  8
0
  5
2B29
 10
-39.1967
 20
143.263
 30
-3.18355e-14
  70
    32
  0
VERTEX
  8
0
  5
2B2A
 10
-39.1894
 20
143.245
 30
-3.18310e-14
  70
    32
  0
VERTEX
  8
0
  5
2B2B
 10
-39.1821
 20
143.227
 30
-3.18265e-14
  70
    32
  0
VERTEX
  8
0
  5
2B2C
 10
-39.1747
 20
143.208
 30
-3.18219e-14
  70
    32
  0
VERTEX
  8
0
  5
2B2D
 10
-39.1672
 20
143.190
 30
-3.18173e-14
  70
    32
  0
VERTEX
  8
0
  5
2B2E
 10
-39.1597
 20
143.172
 30
-3.18127e-14
  70
    32
  0
VERTEX
  8
0
  5
2B2F
 10
-39.1522
 20
143.154
 30
-3.18080e-14
  70
    32
  0
VERTEX
  8
0
  5
2B30
 10
-39.1446
 20
143.136
 30
-3.18033e-14
  70
    32
  0
VERTEX
  8
0
  5
2B31
 10
-39.1369
 20
143.118
 30
-3.17986e-14
  70
    32
  0
VERTEX
  8
0
  5
2B32
 10
-39.1292
 20
143.100
 30
-3.17938e-14
  70
    32
  0
VERTEX
  8
0
  5
2B33
 10
-39.1215
 20
143.082
 30
-3.17890e-14
  70
    32
  0
VERTEX
  8
0
  5
2B34
 10
-39.1137
 20
143.065
 30
-3.17841e-14
  70
    32
  0
VERTEX
  8
0
  5
2B35
 10
-39.1058
 20
143.047
 30
-3.17793e-14
  70
    32
  0
VERTEX
  8
0
  5
2B36
 10
-39.0980
 20
143.029
 30
-3.17744e-14
  70
    32
  0
VERTEX
  8
0
  5
2B37
 10
-39.0900
 20
143.011
 30
-3.17695e-14
  70
    32
  0
VERTEX
  8
0
  5
2B38
 10
-39.0821
 20
142.994
 30
-3.17646e-14
  70
    32
  0
VERTEX
  8
0
  5
2B39
 10
-39.0740
 20
142.976
 30
-3.17596e-14
  70
    32
  0
VERTEX
  8
0
  5
2B3A
 10
-39.0660
 20
142.958
 30
-3.17546e-14
  70
    32
  0
VERTEX
  8
0
  5
2B3B
 10
-39.0579
 20
142.941
 30
-3.17497e-14
  70
    32
  0
VERTEX
  8
0
  5
2B3C
 10
-39.0497
 20
142.923
 30
-3.17447e-14
  70
    32
  0
VERTEX
  8
0
  5
2B3D
 10
-39.0415
 20
142.906
 30
-3.17397e-14
  70
    32
  0
VERTEX
  8
0
  5
2B3E
 10
-39.0333
 20
142.888
 30
-3.17346e-14
  70
    32
  0
VERTEX
  8
0
  5
2B3F
 10
-39.0250
 20
142.871
 30
-3.17296e-14
  70
    32
  0
VERTEX
  8
0
  5
2B40
 10
-39.0167
 20
142.853
 30
-3.17246e-14
  70
    32
  0
VERTEX
  8
0
  5
2B41
 10
-39.0083
 20
142.836
 30
-3.17195e-14
  70
    32
  0
VERTEX
  8
0
  5
2B42
 10
-38.9999
 20
142.819
 30
-3.17144e-14
  70
    32
  0
VERTEX
  8
0
  5
2B43
 10
-38.9915
 20
142.801
 30
-3.17094e-14
  70
    32
  0
VERTEX
  8
0
  5
2B44
 10
-38.9830
 20
142.784
 30
-3.17043e-14
  70
    32
  0
VERTEX
  8
0
  5
2B45
 10
-38.9745
 20
142.767
 30
-3.16993e-14
  70
    32
  0
VERTEX
  8
0
  5
2B46
 10
-38.9659
 20
142.750
 30
-3.16942e-14
  70
    32
  0
VERTEX
  8
0
  5
2B47
 10
-38.9573
 20
142.732
 30
-3.16892e-14
  70
    32
  0
VERTEX
  8
0
  5
2B48
 10
-38.9487
 20
142.715
 30
-3.16841e-14
  70
    32
  0
VERTEX
  8
0
  5
2B49
 10
-38.9400
 20
142.698
 30
-3.16791e-14
  70
    32
  0
VERTEX
  8
0
  5
2B4A
 10
-38.9313
 20
142.681
 30
-3.16740e-14
  70
    32
  0
VERTEX
  8
0
  5
2B4B
 10
-38.9225
 20
142.664
 30
-3.16690e-14
  70
    32
  0
VERTEX
  8
0
  5
2B4C
 10
-38.9137
 20
142.647
 30
-3.16640e-14
  70
    32
  0
VERTEX
  8
0
  5
2B4D
 10
-38.9049
 20
142.630
 30
-3.16590e-14
  70
    32
  0
VERTEX
  8
0
  5
2B4E
 10
-38.8960
 20
142.613
 30
-3.16540e-14
  70
    32
  0
VERTEX
  8
0
  5
2B4F
 10
-38.8871
 20
142.596
 30
-3.16490e-14
  70
    32
  0
VERTEX
  8
0
  5
2B50
 10
-38.8782
 20
142.579
 30
-3.16441e-14
  70
    32
  0
VERTEX
  8
0
  5
2B51
 10
-38.8692
 20
142.562
 30
-3.16392e-14
  70
    32
  0
VERTEX
  8
0
  5
2B52
 10
-38.8602
 20
142.545
 30
-3.16342e-14
  70
    32
  0
VERTEX
  8
0
  5
2B53
 10
-38.8512
 20
142.528
 30
-3.16294e-14
  70
    32
  0
VERTEX
  8
0
  5
2B54
 10
-38.8421
 20
142.512
 30
-3.16245e-14
  70
    32
  0
VERTEX
  8
0
  5
2B55
 10
-38.8330
 20
142.495
 30
-3.16197e-14
  70
    32
  0
VERTEX
  8
0
  5
2B56
 10
-38.8239
 20
142.478
 30
-3.16148e-14
  70
    32
  0
VERTEX
  8
0
  5
2B57
 10
-38.8147
 20
142.461
 30
-3.16101e-14
  70
    32
  0
VERTEX
  8
0
  5
2B58
 10
-38.8055
 20
142.445
 30
-3.16053e-14
  70
    32
  0
VERTEX
  8
0
  5
2B59
 10
-38.7963
 20
142.428
 30
-3.16006e-14
  70
    32
  0
VERTEX
  8
0
  5
2B5A
 10
-38.7870
 20
142.411
 30
-3.15959e-14
  70
    32
  0
VERTEX
  8
0
  5
2B5B
 10
-38.7777
 20
142.395
 30
-3.15913e-14
  70
    32
  0
VERTEX
  8
0
  5
2B5C
 10
-38.7684
 20
142.378
 30
-3.15867e-14
  70
    32
  0
VERTEX
  8
0
  5
2B5D
 10
-38.7591
 20
142.362
 30
-3.15821e-14
  70
    32
  0
VERTEX
  8
0
  5
2B5E
 10
-38.7497
 20
142.345
 30
-3.15776e-14
  70
    32
  0
VERTEX
  8
0
  5
2B5F
 10
-38.7403
 20
142.328
 30
-3.15731e-14
  70
    32
  0
VERTEX
  8
0
  5
2B60
 10
-38.7308
 20
142.312
 30
-3.15687e-14
  70
    32
  0
VERTEX
  8
0
  5
2B61
 10
-38.7214
 20
142.295
 30
-3.15643e-14
  70
    32
  0
VERTEX
  8
0
  5
2B62
 10
-38.7119
 20
142.279
 30
-3.15599e-14
  70
    32
  0
VERTEX
  8
0
  5
2B63
 10
-38.7023
 20
142.262
 30
-3.15556e-14
  70
    32
  0
VERTEX
  8
0
  5
2B64
 10
-38.6928
 20
142.246
 30
-3.15514e-14
  70
    32
  0
VERTEX
  8
0
  5
2B65
 10
-38.6832
 20
142.230
 30
-3.15472e-14
  70
    32
  0
VERTEX
  8
0
  5
2B66
 10
-38.6736
 20
142.213
 30
-3.15431e-14
  70
    32
  0
VERTEX
  8
0
  5
2B67
 10
-38.6640
 20
142.197
 30
-3.15390e-14
  70
    32
  0
VERTEX
  8
0
  5
2B68
 10
-38.6543
 20
142.180
 30
-3.15350e-14
  70
    32
  0
VERTEX
  8
0
  5
2B69
 10
-38.6447
 20
142.164
 30
-3.15310e-14
  70
    32
  0
VERTEX
  8
0
  5
2B6A
 10
-38.6350
 20
142.148
 30
-3.15271e-14
  70
    32
  0
VERTEX
  8
0
  5
2B6B
 10
-38.6252
 20
142.132
 30
-3.15232e-14
  70
    32
  0
VERTEX
  8
0
  5
2B6C
 10
-38.6155
 20
142.115
 30
-3.15195e-14
  70
    32
  0
VERTEX
  8
0
  5
2B6D
 10
-38.6057
 20
142.099
 30
-3.15158e-14
  70
    32
  0
VERTEX
  8
0
  5
2B6E
 10
-38.5959
 20
142.083
 30
-3.15121e-14
  70
    32
  0
VERTEX
  8
0
  5
2B6F
 10
-38.5861
 20
142.067
 30
-3.15086e-14
  70
    32
  0
VERTEX
  8
0
  5
2B70
 10
-38.5763
 20
142.050
 30
-3.15050e-14
  70
    32
  0
VERTEX
  8
0
  5
2B71
 10
-38.5664
 20
142.034
 30
-3.15016e-14
  70
    32
  0
VERTEX
  8
0
  5
2B72
 10
-38.5565
 20
142.018
 30
-3.14983e-14
  70
    32
  0
VERTEX
  8
0
  5
2B73
 10
-38.5466
 20
142.002
 30
-3.14949e-14
  70
    32
  0
VERTEX
  8
0
  5
2B74
 10
-38.5367
 20
141.986
 30
-3.14915e-14
  70
    32
  0
VERTEX
  8
0
  5
2B75
 10
-38.5267
 20
141.969
 30
-3.14882e-14
  70
    32
  0
VERTEX
  8
0
  5
2B76
 10
-38.5168
 20
141.953
 30
-3.14848e-14
  70
    32
  0
VERTEX
  8
0
  5
2B77
 10
-38.5068
 20
141.937
 30
-3.14815e-14
  70
    32
  0
VERTEX
  8
0
  5
2B78
 10
-38.4968
 20
141.921
 30
-3.14781e-14
  70
    32
  0
VERTEX
  8
0
  5
2B79
 10
-38.4868
 20
141.905
 30
-3.14748e-14
  70
    32
  0
VERTEX
  8
0
  5
2B7A
 10
-38.4767
 20
141.889
 30
-3.14714e-14
  70
    32
  0
VERTEX
  8
0
  5
2B7B
 10
-38.4667
 20
141.873
 30
-3.14681e-14
  70
    32
  0
VERTEX
  8
0
  5
2B7C
 10
-38.4566
 20
141.857
 30
-3.14647e-14
  70
    32
  0
VERTEX
  8
0
  5
2B7D
 10
-38.4465
 20
141.841
 30
-3.14613e-14
  70
    32
  0
VERTEX
  8
0
  5
2B7E
 10
-38.4364
 20
141.825
 30
-3.14580e-14
  70
    32
  0
VERTEX
  8
0
  5
2B7F
 10
-38.4263
 20
141.809
 30
-3.14546e-14
  70
    32
  0
VERTEX
  8
0
  5
2B80
 10
-38.4162
 20
141.793
 30
-3.14513e-14
  70
    32
  0
VERTEX
  8
0
  5
2B81
 10
-38.4060
 20
141.777
 30
-3.14479e-14
  70
    32
  0
VERTEX
  8
0
  5
2B82
 10
-38.3959
 20
141.761
 30
-3.14446e-14
  70
    32
  0
VERTEX
  8
0
  5
2B83
 10
-38.3857
 20
141.745
 30
-3.14412e-14
  70
    32
  0
VERTEX
  8
0
  5
2B84
 10
-38.3755
 20
141.729
 30
-3.14379e-14
  70
    32
  0
VERTEX
  8
0
  5
2B85
 10
-38.3653
 20
141.713
 30
-3.14345e-14
  70
    32
  0
VERTEX
  8
0
  5
2B86
 10
-38.3551
 20
141.697
 30
-3.14311e-14
  70
    32
  0
VERTEX
  8
0
  5
2B87
 10
-38.3449
 20
141.681
 30
-3.14278e-14
  70
    32
  0
VERTEX
  8
0
  5
2B88
 10
-38.3346
 20
141.665
 30
-3.14244e-14
  70
    32
  0
VERTEX
  8
0
  5
2B89
 10
-38.3244
 20
141.649
 30
-3.14211e-14
  70
    32
  0
VERTEX
  8
0
  5
2B8A
 10
-38.3141
 20
141.633
 30
-3.14177e-14
  70
    32
  0
VERTEX
  8
0
  5
2B8B
 10
-38.3038
 20
141.617
 30
-3.14144e-14
  70
    32
  0
VERTEX
  8
0
  5
2B8C
 10
-38.2936
 20
141.601
 30
-3.14110e-14
  70
    32
  0
VERTEX
  8
0
  5
2B8D
 10
-38.2833
 20
141.585
 30
-3.14077e-14
  70
    32
  0
VERTEX
  8
0
  5
2B8E
 10
-38.2730
 20
141.569
 30
-3.14043e-14
  70
    32
  0
VERTEX
  8
0
  5
2B8F
 10
-38.2627
 20
141.554
 30
-3.14009e-14
  70
    32
  0
VERTEX
  8
0
  5
2B90
 10
-38.2523
 20
141.538
 30
-3.13976e-14
  70
    32
  0
VERTEX
  8
0
  5
2B91
 10
-38.2420
 20
141.522
 30
-3.13942e-14
  70
    32
  0
VERTEX
  8
0
  5
2B92
 10
-38.2317
 20
141.506
 30
-3.13909e-14
  70
    32
  0
VERTEX
  8
0
  5
2B93
 10
-38.2213
 20
141.490
 30
-3.13875e-14
  70
    32
  0
VERTEX
  8
0
  5
2B94
 10
-38.2110
 20
141.474
 30
-3.13842e-14
  70
    32
  0
VERTEX
  8
0
  5
2B95
 10
-38.2006
 20
141.458
 30
-3.13808e-14
  70
    32
  0
VERTEX
  8
0
  5
2B96
 10
-38.1903
 20
141.442
 30
-3.13775e-14
  70
    32
  0
VERTEX
  8
0
  5
2B97
 10
-38.1799
 20
141.426
 30
-3.13741e-14
  70
    32
  0
VERTEX
  8
0
  5
2B98
 10
-38.1695
 20
141.411
 30
-3.13707e-14
  70
    32
  0
VERTEX
  8
0
  5
2B99
 10
-38.1591
 20
141.395
 30
-3.13674e-14
  70
    32
  0
VERTEX
  8
0
  5
2B9A
 10
-38.1488
 20
141.379
 30
-3.13640e-14
  70
    32
  0
VERTEX
  8
0
  5
2B9B
 10
-38.1384
 20
141.363
 30
-3.13607e-14
  70
    32
  0
VERTEX
  8
0
  5
2B9C
 10
-38.1280
 20
141.347
 30
-3.13573e-14
  70
    32
  0
VERTEX
  8
0
  5
2B9D
 10
-38.1176
 20
141.331
 30
-3.13540e-14
  70
    32
  0
VERTEX
  8
0
  5
2B9E
 10
-38.1072
 20
141.315
 30
-3.13506e-14
  70
    32
  0
VERTEX
  8
0
  5
2B9F
 10
-38.0968
 20
141.299
 30
-3.13473e-14
  70
    32
  0
VERTEX
  8
0
  5
2BA0
 10
-38.0864
 20
141.284
 30
-3.13439e-14
  70
    32
  0
VERTEX
  8
0
  5
2BA1
 10
-38.0760
 20
141.268
 30
-3.13405e-14
  70
    32
  0
VERTEX
  8
0
  5
2BA2
 10
-38.0656
 20
141.252
 30
-3.13372e-14
  70
    32
  0
VERTEX
  8
0
  5
2BA3
 10
-38.0552
 20
141.236
 30
-3.13338e-14
  70
    32
  0
VERTEX
  8
0
  5
2BA4
 10
-38.0448
 20
141.220
 30
-3.13305e-14
  70
    32
  0
VERTEX
  8
0
  5
2BA5
 10
-38.0344
 20
141.204
 30
-3.13271e-14
  70
    32
  0
VERTEX
  8
0
  5
2BA6
 10
-38.0240
 20
141.188
 30
-3.13238e-14
  70
    32
  0
VERTEX
  8
0
  5
2BA7
 10
-38.0136
 20
141.172
 30
-3.13204e-14
  70
    32
  0
VERTEX
  8
0
  5
2BA8
 10
-38.0032
 20
141.156
 30
-3.13170e-14
  70
    32
  0
VERTEX
  8
0
  5
2BA9
 10
-37.9928
 20
141.140
 30
-3.13137e-14
  70
    32
  0
VERTEX
  8
0
  5
2BAA
 10
-37.9824
 20
141.125
 30
-3.13103e-14
  70
    32
  0
VERTEX
  8
0
  5
2BAB
 10
-37.9720
 20
141.109
 30
-3.13070e-14
  70
    32
  0
VERTEX
  8
0
  5
2BAC
 10
-37.9616
 20
141.093
 30
-3.13036e-14
  70
    32
  0
VERTEX
  8
0
  5
2BAD
 10
-37.9512
 20
141.077
 30
-3.13003e-14
  70
    32
  0
VERTEX
  8
0
  5
2BAE
 10
-37.9409
 20
141.061
 30
-3.12969e-14
  70
    32
  0
VERTEX
  8
0
  5
2BAF
 10
-37.9305
 20
141.045
 30
-3.12936e-14
  70
    32
  0
VERTEX
  8
0
  5
2BB0
 10
-37.9201
 20
141.029
 30
-3.12902e-14
  70
    32
  0
VERTEX
  8
0
  5
2BB1
 10
-37.9097
 20
141.013
 30
-3.12868e-14
  70
    32
  0
VERTEX
  8
0
  5
2BB2
 10
-37.8994
 20
140.997
 30
-3.12835e-14
  70
    32
  0
VERTEX
  8
0
  5
2BB3
 10
-37.8890
 20
140.981
 30
-3.12801e-14
  70
    32
  0
VERTEX
  8
0
  5
2BB4
 10
-37.8787
 20
140.965
 30
-3.12768e-14
  70
    32
  0
VERTEX
  8
0
  5
2BB5
 10
-37.8683
 20
140.949
 30
-3.12734e-14
  70
    32
  0
VERTEX
  8
0
  5
2BB6
 10
-37.8580
 20
140.933
 30
-3.12701e-14
  70
    32
  0
VERTEX
  8
0
  5
2BB7
 10
-37.8477
 20
140.917
 30
-3.12667e-14
  70
    32
  0
VERTEX
  8
0
  5
2BB8
 10
-37.8373
 20
140.901
 30
-3.12634e-14
  70
    32
  0
VERTEX
  8
0
  5
2BB9
 10
-37.8270
 20
140.885
 30
-3.12600e-14
  70
    32
  0
VERTEX
  8
0
  5
2BBA
 10
-37.8167
 20
140.869
 30
-3.12566e-14
  70
    32
  0
VERTEX
  8
0
  5
2BBB
 10
-37.8064
 20
140.853
 30
-3.12533e-14
  70
    32
  0
VERTEX
  8
0
  5
2BBC
 10
-37.7962
 20
140.837
 30
-3.12499e-14
  70
    32
  0
VERTEX
  8
0
  5
2BBD
 10
-37.7859
 20
140.820
 30
-3.12466e-14
  70
    32
  0
VERTEX
  8
0
  5
2BBE
 10
-37.7756
 20
140.804
 30
-3.12432e-14
  70
    32
  0
VERTEX
  8
0
  5
2BBF
 10
-37.7654
 20
140.788
 30
-3.12399e-14
  70
    32
  0
VERTEX
  8
0
  5
2BC0
 10
-37.7551
 20
140.772
 30
-3.12365e-14
  70
    32
  0
VERTEX
  8
0
  5
2BC1
 10
-37.7449
 20
140.756
 30
-3.12332e-14
  70
    32
  0
VERTEX
  8
0
  5
2BC2
 10
-37.7347
 20
140.740
 30
-3.12298e-14
  70
    32
  0
VERTEX
  8
0
  5
2BC3
 10
-37.7245
 20
140.724
 30
-3.12264e-14
  70
    32
  0
VERTEX
  8
0
  5
2BC4
 10
-37.7143
 20
140.707
 30
-3.12231e-14
  70
    32
  0
VERTEX
  8
0
  5
2BC5
 10
-37.7041
 20
140.691
 30
-3.12197e-14
  70
    32
  0
VERTEX
  8
0
  5
2BC6
 10
-37.6940
 20
140.675
 30
-3.12164e-14
  70
    32
  0
VERTEX
  8
0
  5
2BC7
 10
-37.6838
 20
140.659
 30
-3.12130e-14
  70
    32
  0
VERTEX
  8
0
  5
2BC8
 10
-37.6737
 20
140.642
 30
-3.12097e-14
  70
    32
  0
VERTEX
  8
0
  5
2BC9
 10
-37.6636
 20
140.626
 30
-3.12063e-14
  70
    32
  0
VERTEX
  8
0
  5
2BCA
 10
-37.6535
 20
140.610
 30
-3.12030e-14
  70
    32
  0
VERTEX
  8
0
  5
2BCB
 10
-37.6434
 20
140.593
 30
-3.11996e-14
  70
    32
  0
VERTEX
  8
0
  5
2BCC
 10
-37.6333
 20
140.577
 30
-3.11962e-14
  70
    32
  0
VERTEX
  8
0
  5
2BCD
 10
-37.6233
 20
140.561
 30
-3.11929e-14
  70
    32
  0
VERTEX
  8
0
  5
2BCE
 10
-37.6132
 20
140.544
 30
-3.11895e-14
  70
    32
  0
VERTEX
  8
0
  5
2BCF
 10
-37.6032
 20
140.528
 30
-3.11862e-14
  70
    32
  0
VERTEX
  8
0
  5
2BD0
 10
-37.5932
 20
140.512
 30
-3.11828e-14
  70
    32
  0
VERTEX
  8
0
  5
2BD1
 10
-37.5832
 20
140.495
 30
-3.11794e-14
  70
    32
  0
VERTEX
  8
0
  5
2BD2
 10
-37.5733
 20
140.479
 30
-3.11761e-14
  70
    32
  0
VERTEX
  8
0
  5
2BD3
 10
-37.5633
 20
140.462
 30
-3.11727e-14
  70
    32
  0
VERTEX
  8
0
  5
2BD4
 10
-37.5534
 20
140.446
 30
-3.11693e-14
  70
    32
  0
VERTEX
  8
0
  5
2BD5
 10
-37.5435
 20
140.429
 30
-3.11660e-14
  70
    32
  0
VERTEX
  8
0
  5
2BD6
 10
-37.5336
 20
140.413
 30
-3.11626e-14
  70
    32
  0
VERTEX
  8
0
  5
2BD7
 10
-37.5237
 20
140.396
 30
-3.11592e-14
  70
    32
  0
VERTEX
  8
0
  5
2BD8
 10
-37.5139
 20
140.379
 30
-3.11558e-14
  70
    32
  0
VERTEX
  8
0
  5
2BD9
 10
-37.5041
 20
140.363
 30
-3.11524e-14
  70
    32
  0
VERTEX
  8
0
  5
2BDA
 10
-37.4943
 20
140.346
 30
-3.11490e-14
  70
    32
  0
VERTEX
  8
0
  5
2BDB
 10
-37.4845
 20
140.330
 30
-3.11456e-14
  70
    32
  0
VERTEX
  8
0
  5
2BDC
 10
-37.4748
 20
140.313
 30
-3.11422e-14
  70
    32
  0
VERTEX
  8
0
  5
2BDD
 10
-37.4650
 20
140.296
 30
-3.11388e-14
  70
    32
  0
VERTEX
  8
0
  5
2BDE
 10
-37.4553
 20
140.279
 30
-3.11354e-14
  70
    32
  0
VERTEX
  8
0
  5
2BDF
 10
-37.4457
 20
140.263
 30
-3.11319e-14
  70
    32
  0
VERTEX
  8
0
  5
2BE0
 10
-37.4360
 20
140.246
 30
-3.11285e-14
  70
    32
  0
VERTEX
  8
0
  5
2BE1
 10
-37.4264
 20
140.229
 30
-3.11250e-14
  70
    32
  0
VERTEX
  8
0
  5
2BE2
 10
-37.4168
 20
140.212
 30
-3.11216e-14
  70
    32
  0
VERTEX
  8
0
  5
2BE3
 10
-37.4072
 20
140.195
 30
-3.11181e-14
  70
    32
  0
VERTEX
  8
0
  5
2BE4
 10
-37.3977
 20
140.179
 30
-3.11146e-14
  70
    32
  0
VERTEX
  8
0
  5
2BE5
 10
-37.3881
 20
140.162
 30
-3.11111e-14
  70
    32
  0
VERTEX
  8
0
  5
2BE6
 10
-37.3786
 20
140.145
 30
-3.11076e-14
  70
    32
  0
VERTEX
  8
0
  5
2BE7
 10
-37.3692
 20
140.128
 30
-3.11041e-14
  70
    32
  0
VERTEX
  8
0
  5
2BE8
 10
-37.3597
 20
140.111
 30
-3.11006e-14
  70
    32
  0
VERTEX
  8
0
  5
2BE9
 10
-37.3503
 20
140.094
 30
-3.10970e-14
  70
    32
  0
VERTEX
  8
0
  5
2BEA
 10
-37.3409
 20
140.077
 30
-3.10935e-14
  70
    32
  0
VERTEX
  8
0
  5
2BEB
 10
-37.3316
 20
140.059
 30
-3.10899e-14
  70
    32
  0
VERTEX
  8
0
  5
2BEC
 10
-37.3223
 20
140.042
 30
-3.10863e-14
  70
    32
  0
VERTEX
  8
0
  5
2BED
 10
-37.3130
 20
140.025
 30
-3.10827e-14
  70
    32
  0
VERTEX
  8
0
  5
2BEE
 10
-37.3037
 20
140.008
 30
-3.10791e-14
  70
    32
  0
VERTEX
  8
0
  5
2BEF
 10
-37.2945
 20
139.991
 30
-3.10755e-14
  70
    32
  0
VERTEX
  8
0
  5
2BF0
 10
-37.2853
 20
139.974
 30
-3.10719e-14
  70
    32
  0
VERTEX
  8
0
  5
2BF1
 10
-37.2761
 20
139.956
 30
-3.10682e-14
  70
    32
  0
VERTEX
  8
0
  5
2BF2
 10
-37.2670
 20
139.939
 30
-3.10645e-14
  70
    32
  0
VERTEX
  8
0
  5
2BF3
 10
-37.2579
 20
139.922
 30
-3.10609e-14
  70
    32
  0
VERTEX
  8
0
  5
2BF4
 10
-37.2488
 20
139.904
 30
-3.10572e-14
  70
    32
  0
VERTEX
  8
0
  5
2BF5
 10
-37.2398
 20
139.887
 30
-3.10534e-14
  70
    32
  0
VERTEX
  8
0
  5
2BF6
 10
-37.2308
 20
139.869
 30
-3.10497e-14
  70
    32
  0
VERTEX
  8
0
  5
2BF7
 10
-37.2218
 20
139.852
 30
-3.10459e-14
  70
    32
  0
VERTEX
  8
0
  5
2BF8
 10
-37.2129
 20
139.834
 30
-3.10422e-14
  70
    32
  0
VERTEX
  8
0
  5
2BF9
 10
-37.2040
 20
139.817
 30
-3.10384e-14
  70
    32
  0
VERTEX
  8
0
  5
2BFA
 10
-37.1951
 20
139.799
 30
-3.10346e-14
  70
    32
  0
VERTEX
  8
0
  5
2BFB
 10
-37.1863
 20
139.782
 30
-3.10307e-14
  70
    32
  0
VERTEX
  8
0
  5
2BFC
 10
-37.1775
 20
139.764
 30
-3.10269e-14
  70
    32
  0
VERTEX
  8
0
  5
2BFD
 10
-37.1687
 20
139.746
 30
-3.10230e-14
  70
    32
  0
VERTEX
  8
0
  5
2BFE
 10
-37.1600
 20
139.729
 30
-3.10191e-14
  70
    32
  0
VERTEX
  8
0
  5
2BFF
 10
-37.1513
 20
139.711
 30
-3.10152e-14
  70
    32
  0
VERTEX
  8
0
  5
2C00
 10
-37.1427
 20
139.693
 30
-3.10113e-14
  70
    32
  0
VERTEX
  8
0
  5
2C01
 10
-37.1341
 20
139.675
 30
-3.10073e-14
  70
    32
  0
VERTEX
  8
0
  5
2C02
 10
-37.1255
 20
139.657
 30
-3.10033e-14
  70
    32
  0
VERTEX
  8
0
  5
2C03
 10
-37.1170
 20
139.639
 30
-3.09993e-14
  70
    32
  0
VERTEX
  8
0
  5
2C04
 10
-37.1085
 20
139.621
 30
-3.09953e-14
  70
    32
  0
VERTEX
  8
0
  5
2C05
 10
-37.1001
 20
139.603
 30
-3.09912e-14
  70
    32
  0
VERTEX
  8
0
  5
2C06
 10
-37.0917
 20
139.585
 30
-3.09872e-14
  70
    32
  0
VERTEX
  8
0
  5
2C07
 10
-37.0833
 20
139.567
 30
-3.09831e-14
  70
    32
  0
VERTEX
  8
0
  5
2C08
 10
-37.0750
 20
139.549
 30
-3.09789e-14
  70
    32
  0
VERTEX
  8
0
  5
2C09
 10
-37.0667
 20
139.531
 30
-3.09748e-14
  70
    32
  0
VERTEX
  8
0
  5
2C0A
 10
-37.0585
 20
139.513
 30
-3.09706e-14
  70
    32
  0
VERTEX
  8
0
  5
2C0B
 10
-37.0503
 20
139.494
 30
-3.09664e-14
  70
    32
  0
VERTEX
  8
0
  5
2C0C
 10
-37.0421
 20
139.476
 30
-3.09622e-14
  70
    32
  0
VERTEX
  8
0
  5
2C0D
 10
-37.0340
 20
139.458
 30
-3.09579e-14
  70
    32
  0
VERTEX
  8
0
  5
2C0E
 10
-37.0260
 20
139.439
 30
-3.09536e-14
  70
    32
  0
VERTEX
  8
0
  5
2C0F
 10
-37.0179
 20
139.421
 30
-3.09493e-14
  70
    32
  0
VERTEX
  8
0
  5
2C10
 10
-37.0100
 20
139.403
 30
-3.09449e-14
  70
    32
  0
VERTEX
  8
0
  5
2C11
 10
-37.0020
 20
139.384
 30
-3.09406e-14
  70
    32
  0
VERTEX
  8
0
  5
2C12
 10
-36.9942
 20
139.365
 30
-3.09362e-14
  70
    32
  0
VERTEX
  8
0
  5
2C13
 10
-36.9863
 20
139.347
 30
-3.09317e-14
  70
    32
  0
VERTEX
  8
0
  5
2C14
 10
-36.9785
 20
139.328
 30
-3.09273e-14
  70
    32
  0
VERTEX
  8
0
  5
2C15
 10
-36.9708
 20
139.310
 30
-3.09228e-14
  70
    32
  0
VERTEX
  8
0
  5
2C16
 10
-36.9631
 20
139.291
 30
-3.09183e-14
  70
    32
  0
VERTEX
  8
0
  5
2C17
 10
-36.9554
 20
139.272
 30
-3.09137e-14
  70
    32
  0
VERTEX
  8
0
  5
2C18
 10
-36.9478
 20
139.253
 30
-3.09091e-14
  70
    32
  0
VERTEX
  8
0
  5
2C19
 10
-36.9403
 20
139.234
 30
-3.09045e-14
  70
    32
  0
VERTEX
  8
0
  5
2C1A
 10
-36.9328
 20
139.215
 30
-3.08998e-14
  70
    32
  0
VERTEX
  8
0
  5
2C1B
 10
-36.9253
 20
139.196
 30
-3.08952e-14
  70
    32
  0
VERTEX
  8
0
  5
2C1C
 10
-36.9179
 20
139.177
 30
-3.08904e-14
  70
    32
  0
VERTEX
  8
0
  5
2C1D
 10
-36.9106
 20
139.158
 30
-3.08857e-14
  70
    32
  0
VERTEX
  8
0
  5
2C1E
 10
-36.9033
 20
139.139
 30
-3.08809e-14
  70
    32
  0
VERTEX
  8
0
  5
2C1F
 10
-36.8960
 20
139.120
 30
-3.08761e-14
  70
    32
  0
VERTEX
  8
0
  5
2C20
 10
-36.8888
 20
139.101
 30
-3.08712e-14
  70
    32
  0
VERTEX
  8
0
  5
2C21
 10
-36.8817
 20
139.082
 30
-3.08663e-14
  70
    32
  0
VERTEX
  8
0
  5
2C22
 10
-36.8746
 20
139.062
 30
-3.08614e-14
  70
    32
  0
VERTEX
  8
0
  5
2C23
 10
-36.8675
 20
139.043
 30
-3.08564e-14
  70
    32
  0
VERTEX
  8
0
  5
2C24
 10
-36.8605
 20
139.023
 30
-3.08514e-14
  70
    32
  0
VERTEX
  8
0
  5
2C25
 10
-36.8536
 20
139.004
 30
-3.08464e-14
  70
    32
  0
VERTEX
  8
0
  5
2C26
 10
-36.8467
 20
138.984
 30
-3.08414e-14
  70
    32
  0
VERTEX
  8
0
  5
2C27
 10
-36.8399
 20
138.965
 30
-3.08364e-14
  70
    32
  0
VERTEX
  8
0
  5
2C28
 10
-36.8331
 20
138.945
 30
-3.08315e-14
  70
    32
  0
VERTEX
  8
0
  5
2C29
 10
-36.8264
 20
138.925
 30
-3.08266e-14
  70
    32
  0
VERTEX
  8
0
  5
2C2A
 10
-36.8197
 20
138.906
 30
-3.08218e-14
  70
    32
  0
VERTEX
  8
0
  5
2C2B
 10
-36.8131
 20
138.886
 30
-3.08170e-14
  70
    32
  0
VERTEX
  8
0
  5
2C2C
 10
-36.8066
 20
138.866
 30
-3.08122e-14
  70
    32
  0
VERTEX
  8
0
  5
2C2D
 10
-36.8001
 20
138.846
 30
-3.08074e-14
  70
    32
  0
VERTEX
  8
0
  5
2C2E
 10
-36.7937
 20
138.826
 30
-3.08027e-14
  70
    32
  0
VERTEX
  8
0
  5
2C2F
 10
-36.7873
 20
138.806
 30
-3.07980e-14
  70
    32
  0
VERTEX
  8
0
  5
2C30
 10
-36.7810
 20
138.786
 30
-3.07933e-14
  70
    32
  0
VERTEX
  8
0
  5
2C31
 10
-36.7747
 20
138.766
 30
-3.07886e-14
  70
    32
  0
VERTEX
  8
0
  5
2C32
 10
-36.7685
 20
138.746
 30
-3.07840e-14
  70
    32
  0
VERTEX
  8
0
  5
2C33
 10
-36.7623
 20
138.726
 30
-3.07794e-14
  70
    32
  0
VERTEX
  8
0
  5
2C34
 10
-36.7563
 20
138.705
 30
-3.07748e-14
  70
    32
  0
VERTEX
  8
0
  5
2C35
 10
-36.7502
 20
138.685
 30
-3.07702e-14
  70
    32
  0
VERTEX
  8
0
  5
2C36
 10
-36.7443
 20
138.665
 30
-3.07656e-14
  70
    32
  0
VERTEX
  8
0
  5
2C37
 10
-36.7384
 20
138.644
 30
-3.07611e-14
  70
    32
  0
VERTEX
  8
0
  5
2C38
 10
-36.7325
 20
138.624
 30
-3.07566e-14
  70
    32
  0
VERTEX
  8
0
  5
2C39
 10
-36.7267
 20
138.603
 30
-3.07520e-14
  70
    32
  0
VERTEX
  8
0
  5
2C3A
 10
-36.7210
 20
138.582
 30
-3.07475e-14
  70
    32
  0
VERTEX
  8
0
  5
2C3B
 10
-36.7154
 20
138.562
 30
-3.07431e-14
  70
    32
  0
VERTEX
  8
0
  5
2C3C
 10
-36.7098
 20
138.541
 30
-3.07386e-14
  70
    32
  0
VERTEX
  8
0
  5
2C3D
 10
-36.7043
 20
138.520
 30
-3.07341e-14
  70
    32
  0
VERTEX
  8
0
  5
2C3E
 10
-36.6988
 20
138.499
 30
-3.07297e-14
  70
    32
  0
VERTEX
  8
0
  5
2C3F
 10
-36.6934
 20
138.478
 30
-3.07252e-14
  70
    32
  0
VERTEX
  8
0
  5
2C40
 10
-36.6881
 20
138.457
 30
-3.07208e-14
  70
    32
  0
VERTEX
  8
0
  5
2C41
 10
-36.6828
 20
138.436
 30
-3.07163e-14
  70
    32
  0
VERTEX
  8
0
  5
2C42
 10
-36.6776
 20
138.415
 30
-3.07119e-14
  70
    32
  0
VERTEX
  8
0
  5
2C43
 10
-36.6724
 20
138.394
 30
-3.07075e-14
  70
    32
  0
VERTEX
  8
0
  5
2C44
 10
-36.6674
 20
138.372
 30
-3.07030e-14
  70
    32
  0
VERTEX
  8
0
  5
2C45
 10
-36.6624
 20
138.351
 30
-3.06986e-14
  70
    32
  0
VERTEX
  8
0
  5
2C46
 10
-36.6574
 20
138.330
 30
-3.06942e-14
  70
    32
  0
VERTEX
  8
0
  5
2C47
 10
-36.6526
 20
138.308
 30
-3.06897e-14
  70
    32
  0
VERTEX
  8
0
  5
2C48
 10
-36.6478
 20
138.287
 30
-3.06853e-14
  70
    32
  0
VERTEX
  8
0
  5
2C49
 10
-36.6430
 20
138.265
 30
-3.06809e-14
  70
    32
  0
VERTEX
  8
0
  5
2C4A
 10
-36.6384
 20
138.244
 30
-3.06764e-14
  70
    32
  0
VERTEX
  8
0
  5
2C4B
 10
-36.6338
 20
138.222
 30
-3.06720e-14
  70
    32
  0
VERTEX
  8
0
  5
2C4C
 10
-36.6292
 20
138.200
 30
-3.06675e-14
  70
    32
  0
VERTEX
  8
0
  5
2C4D
 10
-36.6248
 20
138.178
 30
-3.06630e-14
  70
    32
  0
VERTEX
  8
0
  5
2C4E
 10
-36.6204
 20
138.156
 30
-3.06586e-14
  70
    32
  0
VERTEX
  8
0
  5
2C4F
 10
-36.6161
 20
138.134
 30
-3.06541e-14
  70
    32
  0
VERTEX
  8
0
  5
2C50
 10
-36.6119
 20
138.112
 30
-3.06496e-14
  70
    32
  0
VERTEX
  8
0
  5
2C51
 10
-36.6077
 20
138.090
 30
-3.06451e-14
  70
    32
  0
VERTEX
  8
0
  5
2C52
 10
-36.6036
 20
138.068
 30
-3.06405e-14
  70
    32
  0
VERTEX
  8
0
  5
2C53
 10
-36.5996
 20
138.046
 30
-3.06360e-14
  70
    32
  0
VERTEX
  8
0
  5
2C54
 10
-36.5956
 20
138.023
 30
-3.06314e-14
  70
    32
  0
VERTEX
  8
0
  5
2C55
 10
-36.5917
 20
138.001
 30
-3.06269e-14
  70
    32
  0
VERTEX
  8
0
  5
2C56
 10
-36.5879
 20
137.978
 30
-3.06223e-14
  70
    32
  0
VERTEX
  8
0
  5
2C57
 10
-36.5842
 20
137.956
 30
-3.06176e-14
  70
    32
  0
VERTEX
  8
0
  5
2C58
 10
-36.5805
 20
137.933
 30
-3.06130e-14
  70
    32
  0
VERTEX
  8
0
  5
2C59
 10
-36.5770
 20
137.911
 30
-3.06083e-14
  70
    32
  0
VERTEX
  8
0
  5
2C5A
 10
-36.5735
 20
137.888
 30
-3.06037e-14
  70
    32
  0
VERTEX
  8
0
  5
2C5B
 10
-36.5700
 20
137.865
 30
-3.05989e-14
  70
    32
  0
VERTEX
  8
0
  5
2C5C
 10
-36.5667
 20
137.842
 30
-3.05942e-14
  70
    32
  0
VERTEX
  8
0
  5
2C5D
 10
-36.5634
 20
137.819
 30
-3.05894e-14
  70
    32
  0
VERTEX
  8
0
  5
2C5E
 10
-36.5602
 20
137.796
 30
-3.05846e-14
  70
    32
  0
VERTEX
  8
0
  5
2C5F
 10
-36.5571
 20
137.773
 30
-3.05798e-14
  70
    32
  0
VERTEX
  8
0
  5
2C60
 10
-36.5540
 20
137.750
 30
-3.05750e-14
  70
    32
  0
VERTEX
  8
0
  5
2C61
 10
-36.5511
 20
137.727
 30
-3.05701e-14
  70
    32
  0
VERTEX
  8
0
  5
2C62
 10
-36.5482
 20
137.703
 30
-3.05652e-14
  70
    32
  0
VERTEX
  8
0
  5
2C63
 10
-36.5454
 20
137.680
 30
-3.05602e-14
  70
    32
  0
VERTEX
  8
0
  5
2C64
 10
-36.5427
 20
137.656
 30
-3.05552e-14
  70
    32
  0
VERTEX
  8
0
  5
2C65
 10
-36.5400
 20
137.633
 30
-3.05502e-14
  70
    32
  0
VERTEX
  8
0
  5
2C66
 10
-36.5375
 20
137.609
 30
-3.05451e-14
  70
    32
  0
VERTEX
  8
0
  5
2C67
 10
-36.5350
 20
137.585
 30
-3.05400e-14
  70
    32
  0
VERTEX
  8
0
  5
2C68
 10
-36.5326
 20
137.562
 30
-3.05349e-14
  70
    32
  0
VERTEX
  8
0
  5
2C69
 10
-36.5302
 20
137.538
 30
-3.05297e-14
  70
    32
  0
VERTEX
  8
0
  5
2C6A
 10
-36.5280
 20
137.514
 30
-3.05245e-14
  70
    32
  0
VERTEX
  8
0
  5
2C6B
 10
-36.5258
 20
137.490
 30
-3.05192e-14
  70
    32
  0
VERTEX
  8
0
  5
2C6C
 10
-36.5238
 20
137.466
 30
-3.05139e-14
  70
    32
  0
VERTEX
  8
0
  5
2C6D
 10
-36.5218
 20
137.441
 30
-3.05085e-14
  70
    32
  0
VERTEX
  8
0
  5
2C6E
 10
-36.5199
 20
137.417
 30
-3.05031e-14
  70
    32
  0
VERTEX
  8
0
  5
2C6F
 10
-36.5181
 20
137.393
 30
-3.04977e-14
  70
    32
  0
VERTEX
  8
0
  5
2C70
 10
-36.5163
 20
137.368
 30
-3.04922e-14
  70
    32
  0
VERTEX
  8
0
  5
2C71
 10
-36.5147
 20
137.344
 30
-3.04866e-14
  70
    32
  0
VERTEX
  8
0
  5
2C72
 10
-36.5131
 20
137.319
 30
-3.04810e-14
  70
    32
  0
VERTEX
  8
0
  5
2C73
 10
-36.5116
 20
137.295
 30
-3.04753e-14
  70
    32
  0
VERTEX
  8
0
  5
2C74
 10
-36.5102
 20
137.270
 30
-3.04696e-14
  70
    32
  0
VERTEX
  8
0
  5
2C75
 10
-36.5089
 20
137.245
 30
-3.04638e-14
  70
    32
  0
VERTEX
  8
0
  5
2C76
 10
-36.5077
 20
137.220
 30
-3.04580e-14
  70
    32
  0
VERTEX
  8
0
  5
2C77
 10
-36.5066
 20
137.195
 30
-3.04521e-14
  70
    32
  0
VERTEX
  8
0
  5
2C78
 10
-36.5055
 20
137.170
 30
-3.04462e-14
  70
    32
  0
VERTEX
  8
0
  5
2C79
 10
-36.5046
 20
137.145
 30
-3.04402e-14
  70
    32
  0
VERTEX
  8
0
  5
2C7A
 10
-36.5037
 20
137.120
 30
-3.04341e-14
  70
    32
  0
VERTEX
  8
0
  5
2C7B
 10
-36.5029
 20
137.094
 30
-3.04280e-14
  70
    32
  0
VERTEX
  8
0
  5
2C7C
 10
-36.5023
 20
137.069
 30
-3.04218e-14
  70
    32
  0
VERTEX
  8
0
  5
2C7D
 10
-36.5017
 20
137.044
 30
-3.04155e-14
  70
    32
  0
VERTEX
  8
0
  5
2C7E
 10
-36.5012
 20
137.018
 30
-3.04093e-14
  70
    32
  0
VERTEX
  8
0
  5
2C7F
 10
-36.5007
 20
136.992
 30
-3.04048e-14
  70
    32
  0
VERTEX
  8
0
  5
2C80
 10
-36.5004
 20
136.967
 30
-3.04020e-14
  70
    32
  0
VERTEX
  8
0
  5
2C81
 10
-36.5002
 20
136.941
 30
-3.04006e-14
  70
    32
  0
VERTEX
  8
0
  5
2C82
 10
-36.5000
 20
136.915
 30
-3.04001e-14
  70
    32
  0
VERTEX
  8
0
  5
2C83
 10
-36.5000
 20
136.889
 30
-3.04000e-14
  70
    32
  0
SEQEND
  8
0
  5
2C84
  0
POLYLINE
  8
0
  5
2C85
  62
3
  66
     1
 10
0.000000
 20
0.000000
 30
0.000000
  70
     8
  0
VERTEX
  8
0
  5
2C86
 10
39.6000
 20
145.389
 30
-3.23000e-14
  70
    32
  0
VERTEX
  8
0
  5
2C87
 10
39.6000
 20
145.364
 30
-3.22929e-14
  70
    32
  0
VERTEX
  8
0
  5
2C88
 10
39.5998
 20
145.340
 30
-3.22859e-14
  70
    32
  0
VERTEX
  8
0
  5
2C89
 10
39.5996
 20
145.316
 30
-3.22790e-14
  70
    32
  0
VERTEX
  8
0
  5
2C8A
 10
39.5993
 20
145.292
 30
-3.22721e-14
  70
    32
  0
VERTEX
  8
0
  5
2C8B
 10
39.5988
 20
145.267
 30
-3.22654e-14
  70
    32
  0
VERTEX
  8
0
  5
2C8C
 10
39.5983
 20
145.243
 30
-3.22587e-14
  70
    32
  0
VERTEX
  8
0
  5
2C8D
 10
39.5977
 20
145.219
 30
-3.22521e-14
  70
    32
  0
VERTEX
  8
0
  5
2C8E
 10
39.5971
 20
145.196
 30
-3.22455e-14
  70
    32
  0
VERTEX
  8
0
  5
2C8F
 10
39.5963
 20
145.172
 30
-3.22391e-14
  70
    32
  0
VERTEX
  8
0
  5
2C90
 10
39.5954
 20
145.148
 30
-3.22327e-14
  70
    32
  0
VERTEX
  8
0
  5
2C91
 10
39.5945
 20
145.124
 30
-3.22264e-14
  70
    32
  0
VERTEX
  8
0
  5
2C92
 10
39.5934
 20
145.101
 30
-3.22202e-14
  70
    32
  0
VERTEX
  8
0
  5
2C93
 10
39.5923
 20
145.077
 30
-3.22140e-14
  70
    32
  0
VERTEX
  8
0
  5
2C94
 10
39.5911
 20
145.054
 30
-3.22080e-14
  70
    32
  0
VERTEX
  8
0
  5
2C95
 10
39.5898
 20
145.031
 30
-3.22020e-14
  70
    32
  0
VERTEX
  8
0
  5
2C96
 10
39.5884
 20
145.007
 30
-3.21960e-14
  70
    32
  0
VERTEX
  8
0
  5
2C97
 10
39.5869
 20
144.984
 30
-3.21902e-14
  70
    32
  0
VERTEX
  8
0
  5
2C98
 10
39.5853
 20
144.961
 30
-3.21843e-14
  70
    32
  0
VERTEX
  8
0
  5
2C99
 10
39.5837
 20
144.938
 30
-3.21786e-14
  70
    32
  0
VERTEX
  8
0
  5
2C9A
 10
39.5819
 20
144.915
 30
-3.21729e-14
  70
    32
  0
VERTEX
  8
0
  5
2C9B
 10
39.5801
 20
144.892
 30
-3.21673e-14
  70
    32
  0
VERTEX
  8
0
  5
2C9C
 10
39.5782
 20
144.869
 30
-3.21618e-14
  70
    32
  0
VERTEX
  8
0
  5
2C9D
 10
39.5762
 20
144.847
 30
-3.21563e-14
  70
    32
  0
VERTEX
  8
0
  5
2C9E
 10
39.5742
 20
144.824
 30
-3.21509e-14
  70
    32
  0
VERTEX
  8
0
  5
2C9F
 10
39.5720
 20
144.801
 30
-3.21456e-14
  70
    32
  0
VERTEX
  8
0
  5
2CA0
 10
39.5698
 20
144.779
 30
-3.21403e-14
  70
    32
  0
VERTEX
  8
0
  5
2CA1
 10
39.5674
 20
144.756
 30
-3.21351e-14
  70
    32
  0
VERTEX
  8
0
  5
2CA2
 10
39.5650
 20
144.734
 30
-3.21299e-14
  70
    32
  0
VERTEX
  8
0
  5
2CA3
 10
39.5625
 20
144.712
 30
-3.21248e-14
  70
    32
  0
VERTEX
  8
0
  5
2CA4
 10
39.5600
 20
144.689
 30
-3.21197e-14
  70
    32
  0
VERTEX
  8
0
  5
2CA5
 10
39.5573
 20
144.667
 30
-3.21147e-14
  70
    32
  0
VERTEX
  8
0
  5
2CA6
 10
39.5546
 20
144.645
 30
-3.21098e-14
  70
    32
  0
VERTEX
  8
0
  5
2CA7
 10
39.5518
 20
144.623
 30
-3.21049e-14
  70
    32
  0
VERTEX
  8
0
  5
2CA8
 10
39.5489
 20
144.601
 30
-3.21000e-14
  70
    32
  0
VERTEX
  8
0
  5
2CA9
 10
39.5460
 20
144.579
 30
-3.20952e-14
  70
    32
  0
VERTEX
  8
0
  5
2CAA
 10
39.5429
 20
144.557
 30
-3.20905e-14
  70
    32
  0
VERTEX
  8
0
  5
2CAB
 10
39.5398
 20
144.535
 30
-3.20858e-14
  70
    32
  0
VERTEX
  8
0
  5
2CAC
 10
39.5366
 20
144.514
 30
-3.20812e-14
  70
    32
  0
VERTEX
  8
0
  5
2CAD
 10
39.5333
 20
144.492
 30
-3.20766e-14
  70
    32
  0
VERTEX
  8
0
  5
2CAE
 10
39.5300
 20
144.471
 30
-3.20720e-14
  70
    32
  0
VERTEX
  8
0
  5
2CAF
 10
39.5265
 20
144.449
 30
-3.20675e-14
  70
    32
  0
VERTEX
  8
0
  5
2CB0
 10
39.5230
 20
144.428
 30
-3.20631e-14
  70
    32
  0
VERTEX
  8
0
  5
2CB1
 10
39.5195
 20
144.406
 30
-3.20586e-14
  70
    32
  0
VERTEX
  8
0
  5
2CB2
 10
39.5158
 20
144.385
 30
-3.20543e-14
  70
    32
  0
VERTEX
  8
0
  5
2CB3
 10
39.5121
 20
144.364
 30
-3.20500e-14
  70
    32
  0
VERTEX
  8
0
  5
2CB4
 10
39.5083
 20
144.342
 30
-3.20457e-14
  70
    32
  0
VERTEX
  8
0
  5
2CB5
 10
39.5044
 20
144.321
 30
-3.20414e-14
  70
    32
  0
VERTEX
  8
0
  5
2CB6
 10
39.5004
 20
144.300
 30
-3.20372e-14
  70
    32
  0
VERTEX
  8
0
  5
2CB7
 10
39.4964
 20
144.279
 30
-3.20330e-14
  70
    32
  0
VERTEX
  8
0
  5
2CB8
 10
39.4923
 20
144.258
 30
-3.20289e-14
  70
    32
  0
VERTEX
  8
0
  5
2CB9
 10
39.4881
 20
144.237
 30
-3.20248e-14
  70
    32
  0
VERTEX
  8
0
  5
2CBA
 10
39.4839
 20
144.217
 30
-3.20207e-14
  70
    32
  0
VERTEX
  8
0
  5
2CBB
 10
39.4796
 20
144.196
 30
-3.20167e-14
  70
    32
  0
VERTEX
  8
0
  5
2CBC
 10
39.4752
 20
144.175
 30
-3.20127e-14
  70
    32
  0
VERTEX
  8
0
  5
2CBD
 10
39.4708
 20
144.154
 30
-3.20088e-14
  70
    32
  0
VERTEX
  8
0
  5
2CBE
 10
39.4662
 20
144.134
 30
-3.20048e-14
  70
    32
  0
VERTEX
  8
0
  5
2CBF
 10
39.4616
 20
144.113
 30
-3.20009e-14
  70
    32
  0
VERTEX
  8
0
  5
2CC0
 10
39.4570
 20
144.093
 30
-3.19970e-14
  70
    32
  0
VERTEX
  8
0
  5
2CC1
 10
39.4522
 20
144.072
 30
-3.19932e-14
  70
    32
  0
VERTEX
  8
0
  5
2CC2
 10
39.4474
 20
144.052
 30
-3.19894e-14
  70
    32
  0
VERTEX
  8
0
  5
2CC3
 10
39.4426
 20
144.032
 30
-3.19856e-14
  70
    32
  0
VERTEX
  8
0
  5
2CC4
 10
39.4376
 20
144.012
 30
-3.19818e-14
  70
    32
  0
VERTEX
  8
0
  5
2CC5
 10
39.4326
 20
143.991
 30
-3.19781e-14
  70
    32
  0
VERTEX
  8
0
  5
2CC6
 10
39.4276
 20
143.971
 30
-3.19744e-14
  70
    32
  0
VERTEX
  8
0
  5
2CC7
 10
39.4224
 20
143.951
 30
-3.19707e-14
  70
    32
  0
VERTEX
  8
0
  5
2CC8
 10
39.4172
 20
143.931
 30
-3.19670e-14
  70
    32
  0
VERTEX
  8
0
  5
2CC9
 10
39.4119
 20
143.911
 30
-3.19633e-14
  70
    32
  0
VERTEX
  8
0
  5
2CCA
 10
39.4066
 20
143.891
 30
-3.19597e-14
  70
    32
  0
VERTEX
  8
0
  5
2CCB
 10
39.4012
 20
143.871
 30
-3.19561e-14
  70
    32
  0
VERTEX
  8
0
  5
2CCC
 10
39.3957
 20
143.852
 30
-3.19525e-14
  70
    32
  0
VERTEX
  8
0
  5
2CCD
 10
39.3902
 20
143.832
 30
-3.19489e-14
  70
    32
  0
VERTEX
  8
0
  5
2CCE
 10
39.3846
 20
143.812
 30
-3.19453e-14
  70
    32
  0
VERTEX
  8
0
  5
2CCF
 10
39.3790
 20
143.793
 30
-3.19418e-14
  70
    32
  0
VERTEX
  8
0
  5
2CD0
 10
39.3733
 20
143.773
 30
-3.19382e-14
  70
    32
  0
VERTEX
  8
0
  5
2CD1
 10
39.3675
 20
143.754
 30
-3.19347e-14
  70
    32
  0
VERTEX
  8
0
  5
2CD2
 10
39.3616
 20
143.734
 30
-3.19312e-14
  70
    32
  0
VERTEX
  8
0
  5
2CD3
 10
39.3557
 20
143.715
 30
-3.19277e-14
  70
    32
  0
VERTEX
  8
0
  5
2CD4
 10
39.3498
 20
143.695
 30
-3.19242e-14
  70
    32
  0
VERTEX
  8
0
  5
2CD5
 10
39.3437
 20
143.676
 30
-3.19207e-14
  70
    32
  0
VERTEX
  8
0
  5
2CD6
 10
39.3377
 20
143.657
 30
-3.19172e-14
  70
    32
  0
VERTEX
  8
0
  5
2CD7
 10
39.3315
 20
143.637
 30
-3.19137e-14
  70
    32
  0
VERTEX
  8
0
  5
2CD8
 10
39.3253
 20
143.618
 30
-3.19103e-14
  70
    32
  0
VERTEX
  8
0
  5
2CD9
 10
39.3190
 20
143.599
 30
-3.19068e-14
  70
    32
  0
VERTEX
  8
0
  5
2CDA
 10
39.3127
 20
143.580
 30
-3.19033e-14
  70
    32
  0
VERTEX
  8
0
  5
2CDB
 10
39.3063
 20
143.561
 30
-3.18999e-14
  70
    32
  0
VERTEX
  8
0
  5
2CDC
 10
39.2999
 20
143.542
 30
-3.18963e-14
  70
    32
  0
VERTEX
  8
0
  5
2CDD
 10
39.2934
 20
143.523
 30
-3.18927e-14
  70
    32
  0
VERTEX
  8
0
  5
2CDE
 10
39.2869
 20
143.504
 30
-3.18890e-14
  70
    32
  0
VERTEX
  8
0
  5
2CDF
 10
39.2803
 20
143.485
 30
-3.18852e-14
  70
    32
  0
VERTEX
  8
0
  5
2CE0
 10
39.2736
 20
143.467
 30
-3.18814e-14
  70
    32
  0
VERTEX
  8
0
  5
2CE1
 10
39.2669
 20
143.448
 30
-3.18775e-14
  70
    32
  0
VERTEX
  8
0
  5
2CE2
 10
39.2601
 20
143.429
 30
-3.18735e-14
  70
    32
  0
VERTEX
  8
0
  5
2CE3
 10
39.2533
 20
143.411
 30
-3.18695e-14
  70
    32
  0
VERTEX
  8
0
  5
2CE4
 10
39.2464
 20
143.392
 30
-3.18654e-14
  70
    32
  0
VERTEX
  8
0
  5
2CE5
 10
39.2395
 20
143.373
 30
-3.18613e-14
  70
    32
  0
VERTEX
  8
0
  5
2CE6
 10
39.2325
 20
143.355
 30
-3.18571e-14
  70
    32
  0
VERTEX
  8
0
  5
2CE7
 10
39.2254
 20
143.337
 30
-3.18529e-14
  70
    32
  0
VERTEX
  8
0
  5
2CE8
 10
39.2183
 20
143.318
 30
-3.18486e-14
  70
    32
  0
VERTEX
  8
0
  5
2CE9
 10
39.2112
 20
143.300
 30
-3.18443e-14
  70
    32
  0
VERTEX
  8
0
  5
2CEA
 10
39.2040
 20
143.281
 30
-3.18399e-14
  70
    32
  0
VERTEX
  8
0
  5
2CEB
 10
39.1967
 20
143.263
 30
-3.18355e-14
  70
    32
  0
VERTEX
  8
0
  5
2CEC
 10
39.1894
 20
143.245
 30
-3.18310e-14
  70
    32
  0
VERTEX
  8
0
  5
2CED
 10
39.1821
 20
143.227
 30
-3.18265e-14
  70
    32
  0
VERTEX
  8
0
  5
2CEE
 10
39.1747
 20
143.208
 30
-3.18219e-14
  70
    32
  0
VERTEX
  8
0
  5
2CEF
 10
39.1672
 20
143.190
 30
-3.18173e-14
  70
    32
  0
VERTEX
  8
0
  5
2CF0
 10
39.1597
 20
143.172
 30
-3.18127e-14
  70
    32
  0
VERTEX
  8
0
  5
2CF1
 10
39.1522
 20
143.154
 30
-3.18080e-14
  70
    32
  0
VERTEX
  8
0
  5
2CF2
 10
39.1446
 20
143.136
 30
-3.18033e-14
  70
    32
  0
VERTEX
  8
0
  5
2CF3
 10
39.1369
 20
143.118
 30
-3.17986e-14
  70
    32
  0
VERTEX
  8
0
  5
2CF4
 10
39.1292
 20
143.100
 30
-3.17938e-14
  70
    32
  0
VERTEX
  8
0
  5
2CF5
 10
39.1215
 20
143.082
 30
-3.17890e-14
  70
    32
  0
VERTEX
  8
0
  5
2CF6
 10
39.1137
 20
143.065
 30
-3.17841e-14
  70
    32
  0
VERTEX
  8
0
  5
2CF7
 10
39.1058
 20
143.047
 30
-3.17793e-14
  70
    32
  0
VERTEX
  8
0
  5
2CF8
 10
39.0980
 20
143.029
 30
-3.17744e-14
  70
    32
  0
VERTEX
  8
0
  5
2CF9
 10
39.0900
 20
143.011
 30
-3.17695e-14
  70
    32
  0
VERTEX
  8
0
  5
2CFA
 10
39.0821
 20
142.994
 30
-3.17646e-14
  70
    32
  0
VERTEX
  8
0
  5
2CFB
 10
39.0740
 20
142.976
 30
-3.17596e-14
  70
    32
  0
VERTEX
  8
0
  5
2CFC
 10
39.0660
 20
142.958
 30
-3.17546e-14
  70
    32
  0
VERTEX
  8
0
  5
2CFD
 10
39.0579
 20
142.941
 30
-3.17497e-14
  70
    32
  0
VERTEX
  8
0
  5
2CFE
 10
39.0497
 20
142.923
 30
-3.17447e-14
  70
    32
  0
VERTEX
  8
0
  5
2CFF
 10
39.0415
 20
142.906
 30
-3.17397e-14
  70
    32
  0
VERTEX
  8
0
  5
2D00
 10
39.0333
 20
142.888
 30
-3.17346e-14
  70
    32
  0
VERTEX
  8
0
  5
2D01
 10
39.0250
 20
142.871
 30
-3.17296e-14
  70
    32
  0
VERTEX
  8
0
  5
2D02
 10
39.0167
 20
142.853
 30
-3.17246e-14
  70
    32
  0
VERTEX
  8
0
  5
2D03
 10
39.0083
 20
142.836
 30
-3.17195e-14
  70
    32
  0
VERTEX
  8
0
  5
2D04
 10
38.9999
 20
142.819
 30
-3.17144e-14
  70
    32
  0
VERTEX
  8
0
  5
2D05
 10
38.9915
 20
142.801
 30
-3.17094e-14
  70
    32
  0
VERTEX
  8
0
  5
2D06
 10
38.9830
 20
142.784
 30
-3.17043e-14
  70
    32
  0
VERTEX
  8
0
  5
2D07
 10
38.9745
 20
142.767
 30
-3.16993e-14
  70
    32
  0
VERTEX
  8
0
  5
2D08
 10
38.9659
 20
142.750
 30
-3.16942e-14
  70
    32
  0
VERTEX
  8
0
  5
2D09
 10
38.9573
 20
142.732
 30
-3.16892e-14
  70
    32
  0
VERTEX
  8
0
  5
2D0A
 10
38.9487
 20
142.715
 30
-3.16841e-14
  70
    32
  0
VERTEX
  8
0
  5
2D0B
 10
38.9400
 20
142.698
 30
-3.16791e-14
  70
    32
  0
VERTEX
  8
0
  5
2D0C
 10
38.9313
 20
142.681
 30
-3.16740e-14
  70
    32
  0
VERTEX
  8
0
  5
2D0D
 10
38.9225
 20
142.664
 30
-3.16690e-14
  70
    32
  0
VERTEX
  8
0
  5
2D0E
 10
38.9137
 20
142.647
 30
-3.16640e-14
  70
    32
  0
VERTEX
  8
0
  5
2D0F
 10
38.9049
 20
142.630
 30
-3.16590e-14
  70
    32
  0
VERTEX
  8
0
  5
2D10
 10
38.8960
 20
142.613
 30
-3.16540e-14
  70
    32
  0
VERTEX
  8
0
  5
2D11
 10
38.8871
 20
142.596
 30
-3.16490e-14
  70
    32
  0
VERTEX
  8
0
  5
2D12
 10
38.8782
 20
142.579
 30
-3.16441e-14
  70
    32
  0
VERTEX
  8
0
  5
2D13
 10
38.8692
 20
142.562
 30
-3.16392e-14
  70
    32
  0
VERTEX
  8
0
  5
2D14
 10
38.8602
 20
142.545
 30
-3.16342e-14
  70
    32
  0
VERTEX
  8
0
  5
2D15
 10
38.8512
 20
142.528
 30
-3.16294e-14
  70
    32
  0
VERTEX
  8
0
  5
2D16
 10
38.8421
 20
142.512
 30
-3.16245e-14
  70
    32
  0
VERTEX
  8
0
  5
2D17
 10
38.8330
 20
142.495
 30
-3.16197e-14
  70
    32
  0
VERTEX
  8
0
  5
2D18
 10
38.8239
 20
142.478
 30
-3.16148e-14
  70
    32
  0
VERTEX
  8
0
  5
2D19
 10
38.8147
 20
142.461
 30
-3.16101e-14
  70
    32
  0
VERTEX
  8
0
  5
2D1A
 10
38.8055
 20
142.445
 30
-3.16053e-14
  70
    32
  0
VERTEX
  8
0
  5
2D1B
 10
38.7963
 20
142.428
 30
-3.16006e-14
  70
    32
  0
VERTEX
  8
0
  5
2D1C
 10
38.7870
 20
142.411
 30
-3.15959e-14
  70
    32
  0
VERTEX
  8
0
  5
2D1D
 10
38.7777
 20
142.395
 30
-3.15913e-14
  70
    32
  0
VERTEX
  8
0
  5
2D1E
 10
38.7684
 20
142.378
 30
-3.15867e-14
  70
    32
  0
VERTEX
  8
0
  5
2D1F
 10
38.7591
 20
142.362
 30
-3.15821e-14
  70
    32
  0
VERTEX
  8
0
  5
2D20
 10
38.7497
 20
142.345
 30
-3.15776e-14
  70
    32
  0
VERTEX
  8
0
  5
2D21
 10
38.7403
 20
142.328
 30
-3.15731e-14
  70
    32
  0
VERTEX
  8
0
  5
2D22
 10
38.7308
 20
142.312
 30
-3.15687e-14
  70
    32
  0
VERTEX
  8
0
  5
2D23
 10
38.7214
 20
142.295
 30
-3.15643e-14
  70
    32
  0
VERTEX
  8
0
  5
2D24
 10
38.7119
 20
142.279
 30
-3.15599e-14
  70
    32
  0
VERTEX
  8
0
  5
2D25
 10
38.7023
 20
142.262
 30
-3.15556e-14
  70
    32
  0
VERTEX
  8
0
  5
2D26
 10
38.6928
 20
142.246
 30
-3.15514e-14
  70
    32
  0
VERTEX
  8
0
  5
2D27
 10
38.6832
 20
142.230
 30
-3.15472e-14
  70
    32
  0
VERTEX
  8
0
  5
2D28
 10
38.6736
 20
142.213
 30
-3.15431e-14
  70
    32
  0
VERTEX
  8
0
  5
2D29
 10
38.6640
 20
142.197
 30
-3.15390e-14
  70
    32
  0
VERTEX
  8
0
  5
2D2A
 10
38.6543
 20
142.180
 30
-3.15350e-14
  70
    32
  0
VERTEX
  8
0
  5
2D2B
 10
38.6447
 20
142.164
 30
-3.15310e-14
  70
    32
  0
VERTEX
  8
0
  5
2D2C
 10
38.6350
 20
142.148
 30
-3.15271e-14
  70
    32
  0
VERTEX
  8
0
  5
2D2D
 10
38.6252
 20
142.132
 30
-3.15232e-14
  70
    32
  0
VERTEX
  8
0
  5
2D2E
 10
38.6155
 20
142.115
 30
-3.15195e-14
  70
    32
  0
VERTEX
  8
0
  5
2D2F
 10
38.6057
 20
142.099
 30
-3.15158e-14
  70
    32
  0
VERTEX
  8
0
  5
2D30
 10
38.5959
 20
142.083
 30
-3.15121e-14
  70
    32
  0
VERTEX
  8
0
  5
2D31
 10
38.5861
 20
142.067
 30
-3.15086e-14
  70
    32
  0
VERTEX
  8
0
  5
2D32
 10
38.5763
 20
142.050
 30
-3.15050e-14
  70
    32
  0
VERTEX
  8
0
  5
2D33
 10
38.5664
 20
142.034
 30
-3.15016e-14
  70
    32
  0
VERTEX
  8
0
  5
2D34
 10
38.5565
 20
142.018
 30
-3.14983e-14
  70
    32
  0
VERTEX
  8
0
  5
2D35
 10
38.5466
 20
142.002
 30
-3.14949e-14
  70
    32
  0
VERTEX
  8
0
  5
2D36
 10
38.5367
 20
141.986
 30
-3.14915e-14
  70
    32
  0
VERTEX
  8
0
  5
2D37
 10
38.5267
 20
141.969
 30
-3.14882e-14
  70
    32
  0
VERTEX
  8
0
  5
2D38
 10
38.5168
 20
141.953
 30
-3.14848e-14
  70
    32
  0
VERTEX
  8
0
  5
2D39
 10
38.5068
 20
141.937
 30
-3.14815e-14
  70
    32
  0
VERTEX
  8
0
  5
2D3A
 10
38.4968
 20
141.921
 30
-3.14781e-14
  70
    32
  0
VERTEX
  8
0
  5
2D3B
 10
38.4868
 20
141.905
 30
-3.14748e-14
  70
    32
  0
VERTEX
  8
0
  5
2D3C
 10
38.4767
 20
141.889
 30
-3.14714e-14
  70
    32
  0
VERTEX
  8
0
  5
2D3D
 10
38.4667
 20
141.873
 30
-3.14681e-14
  70
    32
  0
VERTEX
  8
0
  5
2D3E
 10
38.4566
 20
141.857
 30
-3.14647e-14
  70
    32
  0
VERTEX
  8
0
  5
2D3F
 10
38.4465
 20
141.841
 30
-3.14613e-14
  70
    32
  0
VERTEX
  8
0
  5
2D40
 10
38.4364
 20
141.825
 30
-3.14580e-14
  70
    32
  0
VERTEX
  8
0
  5
2D41
 10
38.4263
 20
141.809
 30
-3.14546e-14
  70
    32
  0
VERTEX
  8
0
  5
2D42
 10
38.4162
 20
141.793
 30
-3.14513e-14
  70
    32
  0
VERTEX
  8
0
  5
2D43
 10
38.4060
 20
141.777
 30
-3.14479e-14
  70
    32
  0
VERTEX
  8
0
  5
2D44
 10
38.3959
 20
141.761
 30
-3.14446e-14
  70
    32
  0
VERTEX
  8
0
  5
2D45
 10
38.3857
 20
141.745
 30
-3.14412e-14
  70
    32
  0
VERTEX
  8
0
  5
2D46
 10
38.3755
 20
141.729
 30
-3.14379e-14
  70
    32
  0
VERTEX
  8
0
  5
2D47
 10
38.3653
 20
141.713
 30
-3.14345e-14
  70
    32
  0
VERTEX
  8
0
  5
2D48
 10
38.3551
 20
141.697
 30
-3.14311e-14
  70
    32
  0
VERTEX
  8
0
  5
2D49
 10
38.3449
 20
141.681
 30
-3.14278e-14
  70
    32
  0
VERTEX
  8
0
  5
2D4A
 10
38.3346
 20
141.665
 30
-3.14244e-14
  70
    32
  0
VERTEX
  8
0
  5
2D4B
 10
38.3244
 20
141.649
 30
-3.14211e-14
  70
    32
  0
VERTEX
  8
0
  5
2D4C
 10
38.3141
 20
141.633
 30
-3.14177e-14
  70
    32
  0
VERTEX
  8
0
  5
2D4D
 10
38.3038
 20
141.617
 30
-3.14144e-14
  70
    32
  0
VERTEX
  8
0
  5
2D4E
 10
38.2936
 20
141.601
 30
-3.14110e-14
  70
    32
  0
VERTEX
  8
0
  5
2D4F
 10
38.2833
 20
141.585
 30
-3.14077e-14
  70
    32
  0
VERTEX
  8
0
  5
2D50
 10
38.2730
 20
141.569
 30
-3.14043e-14
  70
    32
  0
VERTEX
  8
0
  5
2D51
 10
38.2627
 20
141.554
 30
-3.14009e-14
  70
    32
  0
VERTEX
  8
0
  5
2D52
 10
38.2523
 20
141.538
 30
-3.13976e-14
  70
    32
  0
VERTEX
  8
0
  5
2D53
 10
38.2420
 20
141.522
 30
-3.13942e-14
  70
    32
  0
VERTEX
  8
0
  5
2D54
 10
38.2317
 20
141.506
 30
-3.13909e-14
  70
    32
  0
VERTEX
  8
0
  5
2D55
 10
38.2213
 20
141.490
 30
-3.13875e-14
  70
    32
  0
VERTEX
  8
0
  5
2D56
 10
38.2110
 20
141.474
 30
-3.13842e-14
  70
    32
  0
VERTEX
  8
0
  5
2D57
 10
38.2006
 20
141.458
 30
-3.13808e-14
  70
    32
  0
VERTEX
  8
0
  5
2D58
 10
38.1903
 20
141.442
 30
-3.13775e-14
  70
    32
  0
VERTEX
  8
0
  5
2D59
 10
38.1799
 20
141.426
 30
-3.13741e-14
  70
    32
  0
VERTEX
  8
0
  5
2D5A
 10
38.1695
 20
141.411
 30
-3.13707e-14
  70
    32
  0
VERTEX
  8
0
  5
2D5B
 10
38.1591
 20
141.395
 30
-3.13674e-14
  70
    32
  0
VERTEX
  8
0
  5
2D5C
 10
38.1488
 20
141.379
 30
-3.13640e-14
  70
    32
  0
VERTEX
  8
0
  5
2D5D
 10
38.1384
 20
141.363
 30
-3.13607e-14
  70
    32
  0
VERTEX
  8
0
  5
2D5E
 10
38.1280
 20
141.347
 30
-3.13573e-14
  70
    32
  0
VERTEX
  8
0
  5
2D5F
 10
38.1176
 20
141.331
 30
-3.13540e-14
  70
    32
  0
VERTEX
  8
0
  5
2D60
 10
38.1072
 20
141.315
 30
-3.13506e-14
  70
    32
  0
VERTEX
  8
0
  5
2D61
 10
38.0968
 20
141.299
 30
-3.13473e-14
  70
    32
  0
VERTEX
  8
0
  5
2D62
 10
38.0864
 20
141.284
 30
-3.13439e-14
  70
    32
  0
VERTEX
  8
0
  5
2D63
 10
38.0760
 20
141.268
 30
-3.13405e-14
  70
    32
  0
VERTEX
  8
0
  5
2D64
 10
38.0656
 20
141.252
 30
-3.13372e-14
  70
    32
  0
VERTEX
  8
0
  5
2D65
 10
38.0552
 20
141.236
 30
-3.13338e-14
  70
    32
  0
VERTEX
  8
0
  5
2D66
 10
38.0448
 20
141.220
 30
-3.13305e-14
  70
    32
  0
VERTEX
  8
0
  5
2D67
 10
38.0344
 20
141.204
 30
-3.13271e-14
  70
    32
  0
VERTEX
  8
0
  5
2D68
 10
38.0240
 20
141.188
 30
-3.13238e-14
  70
    32
  0
VERTEX
  8
0
  5
2D69
 10
38.0136
 20
141.172
 30
-3.13204e-14
  70
    32
  0
VERTEX
  8
0
  5
2D6A
 10
38.0032
 20
141.156
 30
-3.13170e-14
  70
    32
  0
VERTEX
  8
0
  5
2D6B
 10
37.9928
 20
141.140
 30
-3.13137e-14
  70
    32
  0
VERTEX
  8
0
  5
2D6C
 10
37.9824
 20
141.125
 30
-3.13103e-14
  70
    32
  0
VERTEX
  8
0
  5
2D6D
 10
37.9720
 20
141.109
 30
-3.13070e-14
  70
    32
  0
VERTEX
  8
0
  5
2D6E
 10
37.9616
 20
141.093
 30
-3.13036e-14
  70
    32
  0
VERTEX
  8
0
  5
2D6F
 10
37.9512
 20
141.077
 30
-3.13003e-14
  70
    32
  0
VERTEX
  8
0
  5
2D70
 10
37.9409
 20
141.061
 30
-3.12969e-14
  70
    32
  0
VERTEX
  8
0
  5
2D71
 10
37.9305
 20
141.045
 30
-3.12936e-14
  70
    32
  0
VERTEX
  8
0
  5
2D72
 10
37.9201
 20
141.029
 30
-3.12902e-14
  70
    32
  0
VERTEX
  8
0
  5
2D73
 10
37.9097
 20
141.013
 30
-3.12868e-14
  70
    32
  0
VERTEX
  8
0
  5
2D74
 10
37.8994
 20
140.997
 30
-3.12835e-14
  70
    32
  0
VERTEX
  8
0
  5
2D75
 10
37.8890
 20
140.981
 30
-3.12801e-14
  70
    32
  0
VERTEX
  8
0
  5
2D76
 10
37.8787
 20
140.965
 30
-3.12768e-14
  70
    32
  0
VERTEX
  8
0
  5
2D77
 10
37.8683
 20
140.949
 30
-3.12734e-14
  70
    32
  0
VERTEX
  8
0
  5
2D78
 10
37.8580
 20
140.933
 30
-3.12701e-14
  70
    32
  0
VERTEX
  8
0
  5
2D79
 10
37.8477
 20
140.917
 30
-3.12667e-14
  70
    32
  0
VERTEX
  8
0
  5
2D7A
 10
37.8373
 20
140.901
 30
-3.12634e-14
  70
    32
  0
VERTEX
  8
0
  5
2D7B
 10
37.8270
 20
140.885
 30
-3.12600e-14
  70
    32
  0
VERTEX
  8
0
  5
2D7C
 10
37.8167
 20
140.869
 30
-3.12566e-14
  70
    32
  0
VERTEX
  8
0
  5
2D7D
 10
37.8064
 20
140.853
 30
-3.12533e-14
  70
    32
  0
VERTEX
  8
0
  5
2D7E
 10
37.7962
 20
140.837
 30
-3.12499e-14
  70
    32
  0
VERTEX
  8
0
  5
2D7F
 10
37.7859
 20
140.820
 30
-3.12466e-14
  70
    32
  0
VERTEX
  8
0
  5
2D80
 10
37.7756
 20
140.804
 30
-3.12432e-14
  70
    32
  0
VERTEX
  8
0
  5
2D81
 10
37.7654
 20
140.788
 30
-3.12399e-14
  70
    32
  0
VERTEX
  8
0
  5
2D82
 10
37.7551
 20
140.772
 30
-3.12365e-14
  70
    32
  0
VERTEX
  8
0
  5
2D83
 10
37.7449
 20
140.756
 30
-3.12332e-14
  70
    32
  0
VERTEX
  8
0
  5
2D84
 10
37.7347
 20
140.740
 30
-3.12298e-14
  70
    32
  0
VERTEX
  8
0
  5
2D85
 10
37.7245
 20
140.724
 30
-3.12264e-14
  70
    32
  0
VERTEX
  8
0
  5
2D86
 10
37.7143
 20
140.707
 30
-3.12231e-14
  70
    32
  0
VERTEX
  8
0
  5
2D87
 10
37.7041
 20
140.691
 30
-3.12197e-14
  70
    32
  0
VERTEX
  8
0
  5
2D88
 10
37.6940
 20
140.675
 30
-3.12164e-14
  70
    32
  0
VERTEX
  8
0
  5
2D89
 10
37.6838
 20
140.659
 30
-3.12130e-14
  70
    32
  0
VERTEX
  8
0
  5
2D8A
 10
37.6737
 20
140.642
 30
-3.12097e-14
  70
    32
  0
VERTEX
  8
0
  5
2D8B
 10
37.6636
 20
140.626
 30
-3.12063e-14
  70
    32
  0
VERTEX
  8
0
  5
2D8C
 10
37.6535
 20
140.610
 30
-3.12030e-14
  70
    32
  0
VERTEX
  8
0
  5
2D8D
 10
37.6434
 20
140.593
 30
-3.11996e-14
  70
    32
  0
VERTEX
  8
0
  5
2D8E
 10
37.6333
 20
140.577
 30
-3.11962e-14
  70
    32
  0
VERTEX
  8
0
  5
2D8F
 10
37.6233
 20
140.561
 30
-3.11929e-14
  70
    32
  0
VERTEX
  8
0
  5
2D90
 10
37.6132
 20
140.544
 30
-3.11895e-14
  70
    32
  0
VERTEX
  8
0
  5
2D91
 10
37.6032
 20
140.528
 30
-3.11862e-14
  70
    32
  0
VERTEX
  8
0
  5
2D92
 10
37.5932
 20
140.512
 30
-3.11828e-14
  70
    32
  0
VERTEX
  8
0
  5
2D93
 10
37.5832
 20
140.495
 30
-3.11794e-14
  70
    32
  0
VERTEX
  8
0
  5
2D94
 10
37.5733
 20
140.479
 30
-3.11761e-14
  70
    32
  0
VERTEX
  8
0
  5
2D95
 10
37.5633
 20
140.462
 30
-3.11727e-14
  70
    32
  0
VERTEX
  8
0
  5
2D96
 10
37.5534
 20
140.446
 30
-3.11693e-14
  70
    32
  0
VERTEX
  8
0
  5
2D97
 10
37.5435
 20
140.429
 30
-3.11660e-14
  70
    32
  0
VERTEX
  8
0
  5
2D98
 10
37.5336
 20
140.413
 30
-3.11626e-14
  70
    32
  0
VERTEX
  8
0
  5
2D99
 10
37.5237
 20
140.396
 30
-3.11592e-14
  70
    32
  0
VERTEX
  8
0
  5
2D9A
 10
37.5139
 20
140.379
 30
-3.11558e-14
  70
    32
  0
VERTEX
  8
0
  5
2D9B
 10
37.5041
 20
140.363
 30
-3.11524e-14
  70
    32
  0
VERTEX
  8
0
  5
2D9C
 10
37.4943
 20
140.346
 30
-3.11490e-14
  70
    32
  0
VERTEX
  8
0
  5
2D9D
 10
37.4845
 20
140.330
 30
-3.11456e-14
  70
    32
  0
VERTEX
  8
0
  5
2D9E
 10
37.4748
 20
140.313
 30
-3.11422e-14
  70
    32
  0
VERTEX
  8
0
  5
2D9F
 10
37.4650
 20
140.296
 30
-3.11388e-14
  70
    32
  0
VERTEX
  8
0
  5
2DA0
 10
37.4553
 20
140.279
 30
-3.11354e-14
  70
    32
  0
VERTEX
  8
0
  5
2DA1
 10
37.4457
 20
140.263
 30
-3.11319e-14
  70
    32
  0
VERTEX
  8
0
  5
2DA2
 10
37.4360
 20
140.246
 30
-3.11285e-14
  70
    32
  0
VERTEX
  8
0
  5
2DA3
 10
37.4264
 20
140.229
 30
-3.11250e-14
  70
    32
  0
VERTEX
  8
0
  5
2DA4
 10
37.4168
 20
140.212
 30
-3.11216e-14
  70
    32
  0
VERTEX
  8
0
  5
2DA5
 10
37.4072
 20
140.195
 30
-3.11181e-14
  70
    32
  0
VERTEX
  8
0
  5
2DA6
 10
37.3977
 20
140.179
 30
-3.11146e-14
  70
    32
  0
VERTEX
  8
0
  5
2DA7
 10
37.3881
 20
140.162
 30
-3.11111e-14
  70
    32
  0
VERTEX
  8
0
  5
2DA8
 10
37.3786
 20
140.145
 30
-3.11076e-14
  70
    32
  0
VERTEX
  8
0
  5
2DA9
 10
37.3692
 20
140.128
 30
-3.11041e-14
  70
    32
  0
VERTEX
  8
0
  5
2DAA
 10
37.3597
 20
140.111
 30
-3.11006e-14
  70
    32
  0
VERTEX
  8
0
  5
2DAB
 10
37.3503
 20
140.094
 30
-3.10970e-14
  70
    32
  0
VERTEX
  8
0
  5
2DAC
 10
37.3409
 20
140.077
 30
-3.10935e-14
  70
    32
  0
VERTEX
  8
0
  5
2DAD
 10
37.3316
 20
140.059
 30
-3.10899e-14
  70
    32
  0
VERTEX
  8
0
  5
2DAE
 10
37.3223
 20
140.042
 30
-3.10863e-14
  70
    32
  0
VERTEX
  8
0
  5
2DAF
 10
37.3130
 20
140.025
 30
-3.10827e-14
  70
    32
  0
VERTEX
  8
0
  5
2DB0
 10
37.3037
 20
140.008
 30
-3.10791e-14
  70
    32
  0
VERTEX
  8
0
  5
2DB1
 10
37.2945
 20
139.991
 30
-3.10755e-14
  70
    32
  0
VERTEX
  8
0
  5
2DB2
 10
37.2853
 20
139.974
 30
-3.10719e-14
  70
    32
  0
VERTEX
  8
0
  5
2DB3
 10
37.2761
 20
139.956
 30
-3.10682e-14
  70
    32
  0
VERTEX
  8
0
  5
2DB4
 10
37.2670
 20
139.939
 30
-3.10645e-14
  70
    32
  0
VERTEX
  8
0
  5
2DB5
 10
37.2579
 20
139.922
 30
-3.10609e-14
  70
    32
  0
VERTEX
  8
0
  5
2DB6
 10
37.2488
 20
139.904
 30
-3.10572e-14
  70
    32
  0
VERTEX
  8
0
  5
2DB7
 10
37.2398
 20
139.887
 30
-3.10534e-14
  70
    32
  0
VERTEX
  8
0
  5
2DB8
 10
37.2308
 20
139.869
 30
-3.10497e-14
  70
    32
  0
VERTEX
  8
0
  5
2DB9
 10
37.2218
 20
139.852
 30
-3.10459e-14
  70
    32
  0
VERTEX
  8
0
  5
2DBA
 10
37.2129
 20
139.834
 30
-3.10422e-14
  70
    32
  0
VERTEX
  8
0
  5
2DBB
 10
37.2040
 20
139.817
 30
-3.10384e-14
  70
    32
  0
VERTEX
  8
0
  5
2DBC
 10
37.1951
 20
139.799
 30
-3.10346e-14
  70
    32
  0
VERTEX
  8
0
  5
2DBD
 10
37.1863
 20
139.782
 30
-3.10307e-14
  70
    32
  0
VERTEX
  8
0
  5
2DBE
 10
37.1775
 20
139.764
 30
-3.10269e-14
  70
    32
  0
VERTEX
  8
0
  5
2DBF
 10
37.1687
 20
139.746
 30
-3.10230e-14
  70
    32
  0
VERTEX
  8
0
  5
2DC0
 10
37.1600
 20
139.729
 30
-3.10191e-14
  70
    32
  0
VERTEX
  8
0
  5
2DC1
 10
37.1513
 20
139.711
 30
-3.10152e-14
  70
    32
  0
VERTEX
  8
0
  5
2DC2
 10
37.1427
 20
139.693
 30
-3.10113e-14
  70
    32
  0
VERTEX
  8
0
  5
2DC3
 10
37.1341
 20
139.675
 30
-3.10073e-14
  70
    32
  0
VERTEX
  8
0
  5
2DC4
 10
37.1255
 20
139.657
 30
-3.10033e-14
  70
    32
  0
VERTEX
  8
0
  5
2DC5
 10
37.1170
 20
139.639
 30
-3.09993e-14
  70
    32
  0
VERTEX
  8
0
  5
2DC6
 10
37.1085
 20
139.621
 30
-3.09953e-14
  70
    32
  0
VERTEX
  8
0
  5
2DC7
 10
37.1001
 20
139.603
 30
-3.09912e-14
  70
    32
  0
VERTEX
  8
0
  5
2DC8
 10
37.0917
 20
139.585
 30
-3.09872e-14
  70
    32
  0
VERTEX
  8
0
  5
2DC9
 10
37.0833
 20
139.567
 30
-3.09831e-14
  70
    32
  0
VERTEX
  8
0
  5
2DCA
 10
37.0750
 20
139.549
 30
-3.09789e-14
  70
    32
  0
VERTEX
  8
0
  5
2DCB
 10
37.0667
 20
139.531
 30
-3.09748e-14
  70
    32
  0
VERTEX
  8
0
  5
2DCC
 10
37.0585
 20
139.513
 30
-3.09706e-14
  70
    32
  0
VERTEX
  8
0
  5
2DCD
 10
37.0503
 20
139.494
 30
-3.09664e-14
  70
    32
  0
VERTEX
  8
0
  5
2DCE
 10
37.0421
 20
139.476
 30
-3.09622e-14
  70
    32
  0
VERTEX
  8
0
  5
2DCF
 10
37.0340
 20
139.458
 30
-3.09579e-14
  70
    32
  0
VERTEX
  8
0
  5
2DD0
 10
37.0260
 20
139.439
 30
-3.09536e-14
  70
    32
  0
VERTEX
  8
0
  5
2DD1
 10
37.0179
 20
139.421
 30
-3.09493e-14
  70
    32
  0
VERTEX
  8
0
  5
2DD2
 10
37.0100
 20
139.403
 30
-3.09449e-14
  70
    32
  0
VERTEX
  8
0
  5
2DD3
 10
37.0020
 20
139.384
 30
-3.09406e-14
  70
    32
  0
VERTEX
  8
0
  5
2DD4
 10
36.9942
 20
139.365
 30
-3.09362e-14
  70
    32
  0
VERTEX
  8
0
  5
2DD5
 10
36.9863
 20
139.347
 30
-3.09317e-14
  70
    32
  0
VERTEX
  8
0
  5
2DD6
 10
36.9785
 20
139.328
 30
-3.09273e-14
  70
    32
  0
VERTEX
  8
0
  5
2DD7
 10
36.9708
 20
139.310
 30
-3.09228e-14
  70
    32
  0
VERTEX
  8
0
  5
2DD8
 10
36.9631
 20
139.291
 30
-3.09183e-14
  70
    32
  0
VERTEX
  8
0
  5
2DD9
 10
36.9554
 20
139.272
 30
-3.09137e-14
  70
    32
  0
VERTEX
  8
0
  5
2DDA
 10
36.9478
 20
139.253
 30
-3.09091e-14
  70
    32
  0
VERTEX
  8
0
  5
2DDB
 10
36.9403
 20
139.234
 30
-3.09045e-14
  70
    32
  0
VERTEX
  8
0
  5
2DDC
 10
36.9328
 20
139.215
 30
-3.08998e-14
  70
    32
  0
VERTEX
  8
0
  5
2DDD
 10
36.9253
 20
139.196
 30
-3.08952e-14
  70
    32
  0
VERTEX
  8
0
  5
2DDE
 10
36.9179
 20
139.177
 30
-3.08904e-14
  70
    32
  0
VERTEX
  8
0
  5
2DDF
 10
36.9106
 20
139.158
 30
-3.08857e-14
  70
    32
  0
VERTEX
  8
0
  5
2DE0
 10
36.9033
 20
139.139
 30
-3.08809e-14
  70
    32
  0
VERTEX
  8
0
  5
2DE1
 10
36.8960
 20
139.120
 30
-3.08761e-14
  70
    32
  0
VERTEX
  8
0
  5
2DE2
 10
36.8888
 20
139.101
 30
-3.08712e-14
  70
    32
  0
VERTEX
  8
0
  5
2DE3
 10
36.8817
 20
139.082
 30
-3.08663e-14
  70
    32
  0
VERTEX
  8
0
  5
2DE4
 10
36.8746
 20
139.062
 30
-3.08614e-14
  70
    32
  0
VERTEX
  8
0
  5
2DE5
 10
36.8675
 20
139.043
 30
-3.08564e-14
  70
    32
  0
VERTEX
  8
0
  5
2DE6
 10
36.8605
 20
139.023
 30
-3.08514e-14
  70
    32
  0
VERTEX
  8
0
  5
2DE7
 10
36.8536
 20
139.004
 30
-3.08464e-14
  70
    32
  0
VERTEX
  8
0
  5
2DE8
 10
36.8467
 20
138.984
 30
-3.08414e-14
  70
    32
  0
VERTEX
  8
0
  5
2DE9
 10
36.8399
 20
138.965
 30
-3.08364e-14
  70
    32
  0
VERTEX
  8
0
  5
2DEA
 10
36.8331
 20
138.945
 30
-3.08315e-14
  70
    32
  0
VERTEX
  8
0
  5
2DEB
 10
36.8264
 20
138.925
 30
-3.08266e-14
  70
    32
  0
VERTEX
  8
0
  5
2DEC
 10
36.8197
 20
138.906
 30
-3.08218e-14
  70
    32
  0
VERTEX
  8
0
  5
2DED
 10
36.8131
 20
138.886
 30
-3.08170e-14
  70
    32
  0
VERTEX
  8
0
  5
2DEE
 10
36.8066
 20
138.866
 30
-3.08122e-14
  70
    32
  0
VERTEX
  8
0
  5
2DEF
 10
36.8001
 20
138.846
 30
-3.08074e-14
  70
    32
  0
VERTEX
  8
0
  5
2DF0
 10
36.7937
 20
138.826
 30
-3.08027e-14
  70
    32
  0
VERTEX
  8
0
  5
2DF1
 10
36.7873
 20
138.806
 30
-3.07980e-14
  70
    32
  0
VERTEX
  8
0
  5
2DF2
 10
36.7810
 20
138.786
 30
-3.07933e-14
  70
    32
  0
VERTEX
  8
0
  5
2DF3
 10
36.7747
 20
138.766
 30
-3.07886e-14
  70
    32
  0
VERTEX
  8
0
  5
2DF4
 10
36.7685
 20
138.746
 30
-3.07840e-14
  70
    32
  0
VERTEX
  8
0
  5
2DF5
 10
36.7623
 20
138.726
 30
-3.07794e-14
  70
    32
  0
VERTEX
  8
0
  5
2DF6
 10
36.7563
 20
138.705
 30
-3.07748e-14
  70
    32
  0
VERTEX
  8
0
  5
2DF7
 10
36.7502
 20
138.685
 30
-3.07702e-14
  70
    32
  0
VERTEX
  8
0
  5
2DF8
 10
36.7443
 20
138.665
 30
-3.07656e-14
  70
    32
  0
VERTEX
  8
0
  5
2DF9
 10
36.7384
 20
138.644
 30
-3.07611e-14
  70
    32
  0
VERTEX
  8
0
  5
2DFA
 10
36.7325
 20
138.624
 30
-3.07566e-14
  70
    32
  0
VERTEX
  8
0
  5
2DFB
 10
36.7267
 20
138.603
 30
-3.07520e-14
  70
    32
  0
VERTEX
  8
0
  5
2DFC
 10
36.7210
 20
138.582
 30
-3.07475e-14
  70
    32
  0
VERTEX
  8
0
  5
2DFD
 10
36.7154
 20
138.562
 30
-3.07431e-14
  70
    32
  0
VERTEX
  8
0
  5
2DFE
 10
36.7098
 20
138.541
 30
-3.07386e-14
  70
    32
  0
VERTEX
  8
0
  5
2DFF
 10
36.7043
 20
138.520
 30
-3.07341e-14
  70
    32
  0
VERTEX
  8
0
  5
2E00
 10
36.6988
 20
138.499
 30
-3.07297e-14
  70
    32
  0
VERTEX
  8
0
  5
2E01
 10
36.6934
 20
138.478
 30
-3.07252e-14
  70
    32
  0
VERTEX
  8
0
  5
2E02
 10
36.6881
 20
138.457
 30
-3.07208e-14
  70
    32
  0
VERTEX
  8
0
  5
2E03
 10
36.6828
 20
138.436
 30
-3.07163e-14
  70
    32
  0
VERTEX
  8
0
  5
2E04
 10
36.6776
 20
138.415
 30
-3.07119e-14
  70
    32
  0
VERTEX
  8
0
  5
2E05
 10
36.6724
 20
138.394
 30
-3.07075e-14
  70
    32
  0
VERTEX
  8
0
  5
2E06
 10
36.6674
 20
138.372
 30
-3.07030e-14
  70
    32
  0
VERTEX
  8
0
  5
2E07
 10
36.6624
 20
138.351
 30
-3.06986e-14
  70
    32
  0
VERTEX
  8
0
  5
2E08
 10
36.6574
 20
138.330
 30
-3.06942e-14
  70
    32
  0
VERTEX
  8
0
  5
2E09
 10
36.6526
 20
138.308
 30
-3.06897e-14
  70
    32
  0
VERTEX
  8
0
  5
2E0A
 10
36.6478
 20
138.287
 30
-3.06853e-14
  70
    32
  0
VERTEX
  8
0
  5
2E0B
 10
36.6430
 20
138.265
 30
-3.06809e-14
  70
    32
  0
VERTEX
  8
0
  5
2E0C
 10
36.6384
 20
138.244
 30
-3.06764e-14
  70
    32
  0
VERTEX
  8
0
  5
2E0D
 10
36.6338
 20
138.222
 30
-3.06720e-14
  70
    32
  0
VERTEX
  8
0
  5
2E0E
 10
36.6292
 20
138.200
 30
-3.06675e-14
  70
    32
  0
VERTEX
  8
0
  5
2E0F
 10
36.6248
 20
138.178
 30
-3.06630e-14
  70
    32
  0
VERTEX
  8
0
  5
2E10
 10
36.6204
 20
138.156
 30
-3.06586e-14
  70
    32
  0
VERTEX
  8
0
  5
2E11
 10
36.6161
 20
138.134
 30
-3.06541e-14
  70
    32
  0
VERTEX
  8
0
  5
2E12
 10
36.6119
 20
138.112
 30
-3.06496e-14
  70
    32
  0
VERTEX
  8
0
  5
2E13
 10
36.6077
 20
138.090
 30
-3.06451e-14
  70
    32
  0
VERTEX
  8
0
  5
2E14
 10
36.6036
 20
138.068
 30
-3.06405e-14
  70
    32
  0
VERTEX
  8
0
  5
2E15
 10
36.5996
 20
138.046
 30
-3.06360e-14
  70
    32
  0
VERTEX
  8
0
  5
2E16
 10
36.5956
 20
138.023
 30
-3.06314e-14
  70
    32
  0
VERTEX
  8
0
  5
2E17
 10
36.5917
 20
138.001
 30
-3.06269e-14
  70
    32
  0
VERTEX
  8
0
  5
2E18
 10
36.5879
 20
137.978
 30
-3.06223e-14
  70
    32
  0
VERTEX
  8
0
  5
2E19
 10
36.5842
 20
137.956
 30
-3.06176e-14
  70
    32
  0
VERTEX
  8
0
  5
2E1A
 10
36.5805
 20
137.933
 30
-3.06130e-14
  70
    32
  0
VERTEX
  8
0
  5
2E1B
 10
36.5770
 20
137.911
 30
-3.06083e-14
  70
    32
  0
VERTEX
  8
0
  5
2E1C
 10
36.5735
 20
137.888
 30
-3.06037e-14
  70
    32
  0
VERTEX
  8
0
  5
2E1D
 10
36.5700
 20
137.865
 30
-3.05989e-14
  70
    32
  0
VERTEX
  8
0
  5
2E1E
 10
36.5667
 20
137.842
 30
-3.05942e-14
  70
    32
  0
VERTEX
  8
0
  5
2E1F
 10
36.5634
 20
137.819
 30
-3.05894e-14
  70
    32
  0
VERTEX
  8
0
  5
2E20
 10
36.5602
 20
137.796
 30
-3.05846e-14
  70
    32
  0
VERTEX
  8
0
  5
2E21
 10
36.5571
 20
137.773
 30
-3.05798e-14
  70
    32
  0
VERTEX
  8
0
  5
2E22
 10
36.5540
 20
137.750
 30
-3.05750e-14
  70
    32
  0
VERTEX
  8
0
  5
2E23
 10
36.5511
 20
137.727
 30
-3.05701e-14
  70
    32
  0
VERTEX
  8
0
  5
2E24
 10
36.5482
 20
137.703
 30
-3.05652e-14
  70
    32
  0
VERTEX
  8
0
  5
2E25
 10
36.5454
 20
137.680
 30
-3.05602e-14
  70
    32
  0
VERTEX
  8
0
  5
2E26
 10
36.5427
 20
137.656
 30
-3.05552e-14
  70
    32
  0
VERTEX
  8
0
  5
2E27
 10
36.5400
 20
137.633
 30
-3.05502e-14
  70
    32
  0
VERTEX
  8
0
  5
2E28
 10
36.5375
 20
137.609
 30
-3.05451e-14
  70
    32
  0
VERTEX
  8
0
  5
2E29
 10
36.5350
 20
137.585
 30
-3.05400e-14
  70
    32
  0
VERTEX
  8
0
  5
2E2A
 10
36.5326
 20
137.562
 30
-3.05349e-14
  70
    32
  0
VERTEX
  8
0
  5
2E2B
 10
36.5302
 20
137.538
 30
-3.05297e-14
  70
    32
  0
VERTEX
  8
0
  5
2E2C
 10
36.5280
 20
137.514
 30
-3.05245e-14
  70
    32
  0
VERTEX
  8
0
  5
2E2D
 10
36.5258
 20
137.490
 30
-3.05192e-14
  70
    32
  0
VERTEX
  8
0
  5
2E2E
 10
36.5238
 20
137.466
 30
-3.05139e-14
  70
    32
  0
VERTEX
  8
0
  5
2E2F
 10
36.5218
 20
137.441
 30
-3.05085e-14
  70
    32
  0
VERTEX
  8
0
  5
2E30
 10
36.5199
 20
137.417
 30
-3.05031e-14
  70
    32
  0
VERTEX
  8
0
  5
2E31
 10
36.5181
 20
137.393
 30
-3.04977e-14
  70
    32
  0
VERTEX
  8
0
  5
2E32
 10
36.5163
 20
137.368
 30
-3.04922e-14
  70
    32
  0
VERTEX
  8
0
  5
2E33
 10
36.5147
 20
137.344
 30
-3.04866e-14
  70
    32
  0
VERTEX
  8
0
  5
2E34
 10
36.5131
 20
137.319
 30
-3.04810e-14
  70
    32
  0
VERTEX
  8
0
  5
2E35
 10
36.5116
 20
137.295
 30
-3.04753e-14
  70
    32
  0
VERTEX
  8
0
  5
2E36
 10
36.5102
 20
137.270
 30
-3.04696e-14
  70
    32
  0
VERTEX
  8
0
  5
2E37
 10
36.5089
 20
137.245
 30
-3.04638e-14
  70
    32
  0
VERTEX
  8
0
  5
2E38
 10
36.5077
 20
137.220
 30
-3.04580e-14
  70
    32
  0
VERTEX
  8
0
  5
2E39
 10
36.5066
 20
137.195
 30
-3.04521e-14
  70
    32
  0
VERTEX
  8
0
  5
2E3A
 10
36.5055
 20
137.170
 30
-3.04462e-14
  70
    32
  0
VERTEX
  8
0
  5
2E3B
 10
36.5046
 20
137.145
 30
-3.04402e-14
  70
    32
  0
VERTEX
  8
0
  5
2E3C
 10
36.5037
 20
137.120
 30
-3.04341e-14
  70
    32
  0
VERTEX
  8
0
  5
2E3D
 10
36.5029
 20
137.094
 30
-3.04280e-14
  70
    32
  0
VERTEX
  8
0
  5
2E3E
 10
36.5023
 20
137.069
 30
-3.04218e-14
  70
    32
  0
VERTEX
  8
0
  5
2E3F
 10
36.5017
 20
137.044
 30
-3.04155e-14
  70
    32
  0
VERTEX
  8
0
  5
2E40
 10
36.5012
 20
137.018
 30
-3.04093e-14
  70
    32
  0
VERTEX
  8
0
  5
2E41
 10
36.5007
 20
136.992
 30
-3.04048e-14
  70
    32
  0
VERTEX
  8
0
  5
2E42
 10
36.5004
 20
136.967
 30
-3.04020e-14
  70
    32
  0
VERTEX
  8
0
  5
2E43
 10
36.5002
 20
136.941
 30
-3.04006e-14
  70
    32
  0
VERTEX
  8
0
  5
2E44
 10
36.5000
 20
136.915
 30
-3.04001e-14
  70
    32
  0
VERTEX
  8
0
  5
2E45
 10
36.5000
 20
136.889
 30
-3.04000e-14
  70
    32
  0
SEQEND
  8
0
  5
2E46
  0
LINE
  5
2A20
  8
0
  6
CONTINUOUS
 62
     3
 10
39.4500924592586273
 20
195.0000000000013927
 30
-0.0000000000000433
 11
39.7576946759155874
 21
194.3403449176165907
 31
-0.0000000000000432
210
0.0
220
1.0
230
-0.0000000000000002
  0
LINE
  5
2A21
  8
0
  6
CONTINUOUS
 62
     3
 10
-39.4500924592586202
 20
195.0000000000013927
 30
-0.0000000000000433
 11
-39.7576946759155803
 21
194.3403449176165907
 31
-0.0000000000000432
210
0.0
220
1.0
230
-0.0000000000000002
  0
ARC
  5
2A22
  8
0
  6
CONTINUOUS
 62
     3
 10
-17.1000000000008612
 20
183.7748883740977988
 30
0.0
 40
24.9999999999991616
210
0.0
220
-0.0000000000000002
230
-1.0
 50
154.9999999999957936
 51
180.0000000000003979
  0
ARC
  5
2A23
  8
0
  6
CONTINUOUS
 62
     3
 10
17.1000000000011383
 20
183.7748883740979124
 30
0.0
 40
24.9999999999988702
210
0.0
220
-0.0000000000000002
230
-1.0
 50
359.9999999999993179
 51
25.0000000000043805
  0
LINE
  5
2A24
  8
0
  6
CONTINUOUS
 62
     3
 10
-42.1000000000000227
 20
179.7682800481877905
 30
-0.0000000000000399
 11
-42.1000000000000227
 21
183.7748883740975998
 31
-0.0000000000000408
210
0.0
220
1.0
230
-0.0000000000000002
  0
LINE
  5
2A25
  8
0
  6
CONTINUOUS
 62
     3
 10
42.1000000000000227
 20
179.7682800481877905
 30
-0.0000000000000399
 11
42.1000000000000227
 21
183.7748883740975998
 31
-0.0000000000000408
210
0.0
220
1.0
230
-0.0000000000000002
  0
ARC
  5
2A26
  8
0
  6
CONTINUOUS
 62
     3
 10
-17.0999999999881815
 20
179.7000000000045077
 30
0.0
 40
25.0000932431375489
210
0.0
220
-0.0000000000000002
230
-1.0
 50
179.8435140456656995
 51
201.1831543930327939
  0
ARC
  5
2A27
  8
0
  6
CONTINUOUS
 62
     3
 10
17.0999999999881709
 20
179.7000000000045077
 30
0.0
 40
25.0000932431375489
210
0.0
220
-0.0000000000000002
230
-1.0
 50
338.8168456069672061
 51
0.1564859543342713
  0
ARC
  5
2A28
  8
0
  6
CONTINUOUS
 62
     3
 10
-51.6000000000018275
 20
166.3300000000020873
 30
0.0
 40
12.0000000000017994
210
0.0
220
-0.0000000000000002
230
-1.0
 50
0.0000000000015012
 51
21.1831543930283495
  0
ARC
  5
2A29
  8
0
  6
CONTINUOUS
 62
     3
 10
51.6000000000018275
 20
166.3300000000020873
 30
0.0
 40
12.0000000000017994
210
0.0
220
-0.0000000000000002
230
-1.0
 50
158.8168456069716115
 51
179.9999999999984936
  0
LINE
  5
2A2A
  8
0
  6
CONTINUOUS
 62
     3
 10
-39.6000000000000227
 20
145.3887264174165068
 30
-0.0000000000000323
 11
-39.6000000000000227
 21
166.3300000000023999
 31
-0.0000000000000369
210
0.0
220
1.0
230
-0.0000000000000002
  0
LINE
  5
2A2B
  8
0
  6
CONTINUOUS
 62
     3
 10
39.6000000000000227
 20
145.3887264174165068
 30
-0.0000000000000323
 11
39.6000000000000227
 21
166.3300000000023999
 31
-0.0000000000000369
210
0.0
220
1.0
230
-0.0000000000000002
  0
LINE
  5
2A2C
  8
0
  6
VERDECKT
 62
     1
 10
-37.1305655825774465
 20
129.2879416687366927
 30
-0.0000000000000287
 11
37.1305655825774465
 21
129.2879416687366927
 31
-0.0000000000000287
210
0.0
220
1.0
230
-0.0000000000000002
  0
LINE
  5
2A2D
  8
0
  6
VERDECKT
 62
     1
 10
48.1327239685572223
 20
0.1743114854951955
 30
0.0
 11
-48.1327239685572223
 21
0.1743114854951955
 31
0.0
210
0.0
220
1.0
230
-0.0000000000000002
  0
LINE
  5
2A2E
  8
0
  6
VERDECKT
 62
     1
 10
49.0
 20
96.2332298383498994
 30
-0.0000000000000214
 11
49.0
 21
10.0873218858156406
 31
-0.0000000000000022
210
0.0
220
1.0
230
-0.0000000000000002
  0
LINE
  5
2A2F
  8
0
  6
VERDECKT
 62
     1
 10
-49.0
 20
96.2332298383498994
 30
-0.0000000000000214
 11
-49.0
 21
10.0873218858156406
 31
-0.0000000000000022
210
0.0
220
1.0
230
-0.0000000000000002
  0
ARC
  5
2A30
  8
0
  6
VERDECKT
 62
     1
 10
39.0000000000019185
 20
96.2332298383503115
 30
0.0
 40
9.9999999999980744
210
0.0
220
-0.0000000000000002
230
-1.0
 50
359.9999999999977263
 51
20.8174940078855215
  0
ARC
  5
2A31
  8
0
  6
VERDECKT
 62
     1
 10
-39.0000000000014921
 20
96.2332298383502405
 30
0.0
 40
9.9999999999985043
210
0.0
220
-0.0000000000000002
230
-1.0
 50
159.1825059921150114
 51
180.0000000000017906
  0
LINE
  5
2A32
  8
0
  6
VERDECKT
 62
     1
 10
37.1305655825773897
 20
129.2879416687366927
 30
-0.0000000000000287
 11
48.3471720871130515
 21
99.7871535817488819
 31
-0.0000000000000222
210
0.0
220
1.0
230
-0.0000000000000002
  0
LINE
  5
2A33
  8
0
  6
VERDECKT
 62
     1
 10
-37.1305655825773968
 20
129.2879416687366927
 30
-0.0000000000000287
 11
-48.3471720871130373
 21
99.7871535817488962
 31
-0.0000000000000222
210
0.0
220
1.0
230
-0.0000000000000002
  0
LINE
  5
2A34
  8
0
  6
VERDECKT
 62
     1
 10
-37.1305655825774323
 20
129.2879416687368064
 30
-0.0000000000000287
 11
-39.0
 21
129.998726417416492
 31
-0.0000000000000289
210
0.0
220
1.0
230
-0.0000000000000002
  0
LINE
  5
2A35
  8
0
  6
VERDECKT
 62
     1
 10
37.1305655825773897
 20
129.2879416687366927
 30
-0.0000000000000287
 11
39.0
 21
129.998726417416492
 31
-0.0000000000000289
210
0.0
220
1.0
230
-0.0000000000000002
  0
LINE
  5
2A36
  8
0
  6
VERDECKT
 62
     1
 10
-48.1327239685572223
 20
0.1743114854951955
 30
0.0
 11
-49.0
 21
10.0873218858156406
 31
-0.0000000000000022
210
0.0
220
1.0
230
-0.0000000000000002
  0
LINE
  5
2A37
  8
0
  6
VERDECKT
 62
     1
 10
48.1327239685572223
 20
0.1743114854951955
 30
0.0
 11
49.0
 21
10.0873218858156406
 31
-0.0000000000000022
210
0.0
220
1.0
230
-0.0000000000000002
  0
LINE
  5
2A38
  8
0
  6
VERDECKT
 62
     1
 10
48.1327239685572223
 20
0.1743114854951955
 30
0.0
 11
50.125113364740848
 21
-0.0000000000001137
 31
0.0
210
0.0
220
1.0
230
-0.0000000000000002
  0
LINE
  5
2A39
  8
0
  6
VERDECKT
 62
     1
 10
-48.1327239685572223
 20
0.1743114854951955
 30
0.0
 11
-50.125113364740848
 21
-0.0000000000001137
 31
0.0
210
0.0
220
1.0
230
-0.0000000000000002
  0
LINE
  5
2A3A
  8
0
  6
VERDECKT
 62
     1
 10
-38.1000000000001435
 20
145.3887264174165068
 30
-0.0000000000000323
 11
38.1000000000001435
 21
145.3887264174165068
 31
-0.0000000000000323
210
0.0
220
1.0
230
-0.0000000000000002
  0
LINE
  5
2A3B
  8
0
  6
VERDECKT
 62
     1
 10
37.6076293635526326
 20
129.440780173805905
 30
-0.0000000000000287
 11
-37.6076293635526326
 21
129.440780173805905
 31
-0.0000000000000287
210
0.0
220
1.0
230
-0.0000000000000002
  0
LINE
  5
2A3C
  8
0
  6
VERDECKT
 62
     1
 10
38.0
 20
194.3238107812161957
 30
-0.0000000000000431
 11
-38.0
 21
194.3238107812161957
 31
-0.0000000000000431
210
0.0
220
1.0
230
-0.0000000000000002
  0
POLYLINE
  8
0
  5
2E47
  62
1
  66
     1
 10
0.000000
 20
0.000000
 30
0.000000
  70
     8
  0
VERTEX
  8
0
  5
2E48
 10
-35.0000
 20
136.889
 30
-3.04000e-14
  70
    32
  0
VERTEX
  8
0
  5
2E49
 10
-35.0001
 20
136.920
 30
-3.04067e-14
  70
    32
  0
VERTEX
  8
0
  5
2E4A
 10
-35.0002
 20
136.951
 30
-3.04134e-14
  70
    32
  0
VERTEX
  8
0
  5
2E4B
 10
-35.0005
 20
136.983
 30
-3.04202e-14
  70
    32
  0
VERTEX
  8
0
  5
2E4C
 10
-35.0009
 20
137.014
 30
-3.04269e-14
  70
    32
  0
VERTEX
  8
0
  5
2E4D
 10
-35.0014
 20
137.045
 30
-3.04336e-14
  70
    32
  0
VERTEX
  8
0
  5
2E4E
 10
-35.0021
 20
137.076
 30
-3.04403e-14
  70
    32
  0
VERTEX
  8
0
  5
2E4F
 10
-35.0028
 20
137.107
 30
-3.04471e-14
  70
    32
  0
VERTEX
  8
0
  5
2E50
 10
-35.0037
 20
137.138
 30
-3.04538e-14
  70
    32
  0
VERTEX
  8
0
  5
2E51
 10
-35.0046
 20
137.168
 30
-3.04605e-14
  70
    32
  0
VERTEX
  8
0
  5
2E52
 10
-35.0057
 20
137.199
 30
-3.04672e-14
  70
    32
  0
VERTEX
  8
0
  5
2E53
 10
-35.0069
 20
137.230
 30
-3.04739e-14
  70
    32
  0
VERTEX
  8
0
  5
2E54
 10
-35.0082
 20
137.260
 30
-3.04806e-14
  70
    32
  0
VERTEX
  8
0
  5
2E55
 10
-35.0096
 20
137.291
 30
-3.04873e-14
  70
    32
  0
VERTEX
  8
0
  5
2E56
 10
-35.0111
 20
137.321
 30
-3.04940e-14
  70
    32
  0
VERTEX
  8
0
  5
2E57
 10
-35.0128
 20
137.352
 30
-3.05006e-14
  70
    32
  0
VERTEX
  8
0
  5
2E58
 10
-35.0145
 20
137.382
 30
-3.05073e-14
  70
    32
  0
VERTEX
  8
0
  5
2E59
 10
-35.0163
 20
137.412
 30
-3.05140e-14
  70
    32
  0
VERTEX
  8
0
  5
2E5A
 10
-35.0183
 20
137.442
 30
-3.05206e-14
  70
    32
  0
VERTEX
  8
0
  5
2E5B
 10
-35.0203
 20
137.472
 30
-3.05273e-14
  70
    32
  0
VERTEX
  8
0
  5
2E5C
 10
-35.0225
 20
137.502
 30
-3.05339e-14
  70
    32
  0
VERTEX
  8
0
  5
2E5D
 10
-35.0248
 20
137.532
 30
-3.05406e-14
  70
    32
  0
VERTEX
  8
0
  5
2E5E
 10
-35.0271
 20
137.562
 30
-3.05472e-14
  70
    32
  0
VERTEX
  8
0
  5
2E5F
 10
-35.0296
 20
137.591
 30
-3.05538e-14
  70
    32
  0
VERTEX
  8
0
  5
2E60
 10
-35.0322
 20
137.621
 30
-3.05604e-14
  70
    32
  0
VERTEX
  8
0
  5
2E61
 10
-35.0349
 20
137.651
 30
-3.05670e-14
  70
    32
  0
VERTEX
  8
0
  5
2E62
 10
-35.0377
 20
137.680
 30
-3.05736e-14
  70
    32
  0
VERTEX
  8
0
  5
2E63
 10
-35.0405
 20
137.710
 30
-3.05802e-14
  70
    32
  0
VERTEX
  8
0
  5
2E64
 10
-35.0435
 20
137.739
 30
-3.05868e-14
  70
    32
  0
VERTEX
  8
0
  5
2E65
 10
-35.0466
 20
137.768
 30
-3.05933e-14
  70
    32
  0
VERTEX
  8
0
  5
2E66
 10
-35.0498
 20
137.797
 30
-3.05998e-14
  70
    32
  0
VERTEX
  8
0
  5
2E67
 10
-35.0531
 20
137.827
 30
-3.06064e-14
  70
    32
  0
VERTEX
  8
0
  5
2E68
 10
-35.0565
 20
137.856
 30
-3.06129e-14
  70
    32
  0
VERTEX
  8
0
  5
2E69
 10
-35.0600
 20
137.885
 30
-3.06194e-14
  70
    32
  0
VERTEX
  8
0
  5
2E6A
 10
-35.0636
 20
137.913
 30
-3.06259e-14
  70
    32
  0
VERTEX
  8
0
  5
2E6B
 10
-35.0673
 20
137.942
 30
-3.06323e-14
  70
    32
  0
VERTEX
  8
0
  5
2E6C
 10
-35.0711
 20
137.971
 30
-3.06388e-14
  70
    32
  0
VERTEX
  8
0
  5
2E6D
 10
-35.0750
 20
138.000
 30
-3.06452e-14
  70
    32
  0
VERTEX
  8
0
  5
2E6E
 10
-35.0789
 20
138.028
 30
-3.06517e-14
  70
    32
  0
VERTEX
  8
0
  5
2E6F
 10
-35.0830
 20
138.057
 30
-3.06581e-14
  70
    32
  0
VERTEX
  8
0
  5
2E70
 10
-35.0872
 20
138.085
 30
-3.06645e-14
  70
    32
  0
VERTEX
  8
0
  5
2E71
 10
-35.0914
 20
138.114
 30
-3.06709e-14
  70
    32
  0
VERTEX
  8
0
  5
2E72
 10
-35.0958
 20
138.142
 30
-3.06772e-14
  70
    32
  0
VERTEX
  8
0
  5
2E73
 10
-35.1003
 20
138.170
 30
-3.06836e-14
  70
    32
  0
VERTEX
  8
0
  5
2E74
 10
-35.1048
 20
138.198
 30
-3.06899e-14
  70
    32
  0
VERTEX
  8
0
  5
2E75
 10
-35.1095
 20
138.226
 30
-3.06962e-14
  70
    32
  0
VERTEX
  8
0
  5
2E76
 10
-35.1142
 20
138.254
 30
-3.07025e-14
  70
    32
  0
VERTEX
  8
0
  5
2E77
 10
-35.1190
 20
138.282
 30
-3.07087e-14
  70
    32
  0
VERTEX
  8
0
  5
2E78
 10
-35.1239
 20
138.310
 30
-3.07150e-14
  70
    32
  0
VERTEX
  8
0
  5
2E79
 10
-35.1289
 20
138.338
 30
-3.07212e-14
  70
    32
  0
VERTEX
  8
0
  5
2E7A
 10
-35.1340
 20
138.365
 30
-3.07274e-14
  70
    32
  0
VERTEX
  8
0
  5
2E7B
 10
-35.1392
 20
138.393
 30
-3.07336e-14
  70
    32
  0
VERTEX
  8
0
  5
2E7C
 10
-35.1445
 20
138.420
 30
-3.07398e-14
  70
    32
  0
VERTEX
  8
0
  5
2E7D
 10
-35.1499
 20
138.448
 30
-3.07459e-14
  70
    32
  0
VERTEX
  8
0
  5
2E7E
 10
-35.1553
 20
138.475
 30
-3.07520e-14
  70
    32
  0
VERTEX
  8
0
  5
2E7F
 10
-35.1609
 20
138.502
 30
-3.07581e-14
  70
    32
  0
VERTEX
  8
0
  5
2E80
 10
-35.1665
 20
138.530
 30
-3.07642e-14
  70
    32
  0
VERTEX
  8
0
  5
2E81
 10
-35.1722
 20
138.557
 30
-3.07702e-14
  70
    32
  0
VERTEX
  8
0
  5
2E82
 10
-35.1780
 20
138.584
 30
-3.07763e-14
  70
    32
  0
VERTEX
  8
0
  5
2E83
 10
-35.1839
 20
138.611
 30
-3.07823e-14
  70
    32
  0
VERTEX
  8
0
  5
2E84
 10
-35.1899
 20
138.638
 30
-3.07882e-14
  70
    32
  0
VERTEX
  8
0
  5
2E85
 10
-35.1959
 20
138.664
 30
-3.07942e-14
  70
    32
  0
VERTEX
  8
0
  5
2E86
 10
-35.2021
 20
138.691
 30
-3.08001e-14
  70
    32
  0
VERTEX
  8
0
  5
2E87
 10
-35.2083
 20
138.718
 30
-3.08060e-14
  70
    32
  0
VERTEX
  8
0
  5
2E88
 10
-35.2146
 20
138.744
 30
-3.08119e-14
  70
    32
  0
VERTEX
  8
0
  5
2E89
 10
-35.2210
 20
138.771
 30
-3.08177e-14
  70
    32
  0
VERTEX
  8
0
  5
2E8A
 10
-35.2275
 20
138.797
 30
-3.08235e-14
  70
    32
  0
VERTEX
  8
0
  5
2E8B
 10
-35.2340
 20
138.824
 30
-3.08293e-14
  70
    32
  0
VERTEX
  8
0
  5
2E8C
 10
-35.2406
 20
138.850
 30
-3.08351e-14
  70
    32
  0
VERTEX
  8
0
  5
2E8D
 10
-35.2474
 20
138.876
 30
-3.08408e-14
  70
    32
  0
VERTEX
  8
0
  5
2E8E
 10
-35.2542
 20
138.902
 30
-3.08465e-14
  70
    32
  0
VERTEX
  8
0
  5
2E8F
 10
-35.2610
 20
138.928
 30
-3.08522e-14
  70
    32
  0
VERTEX
  8
0
  5
2E90
 10
-35.2680
 20
138.954
 30
-3.08578e-14
  70
    32
  0
VERTEX
  8
0
  5
2E91
 10
-35.2750
 20
138.980
 30
-3.08635e-14
  70
    32
  0
VERTEX
  8
0
  5
2E92
 10
-35.2821
 20
139.006
 30
-3.08690e-14
  70
    32
  0
VERTEX
  8
0
  5
2E93
 10
-35.2893
 20
139.032
 30
-3.08746e-14
  70
    32
  0
VERTEX
  8
0
  5
2E94
 10
-35.2966
 20
139.057
 30
-3.08801e-14
  70
    32
  0
VERTEX
  8
0
  5
2E95
 10
-35.3039
 20
139.083
 30
-3.08856e-14
  70
    32
  0
VERTEX
  8
0
  5
2E96
 10
-35.3113
 20
139.108
 30
-3.08910e-14
  70
    32
  0
VERTEX
  8
0
  5
2E97
 10
-35.3188
 20
139.134
 30
-3.08965e-14
  70
    32
  0
VERTEX
  8
0
  5
2E98
 10
-35.3264
 20
139.159
 30
-3.09018e-14
  70
    32
  0
VERTEX
  8
0
  5
2E99
 10
-35.3340
 20
139.184
 30
-3.09072e-14
  70
    32
  0
VERTEX
  8
0
  5
2E9A
 10
-35.3417
 20
139.209
 30
-3.09125e-14
  70
    32
  0
VERTEX
  8
0
  5
2E9B
 10
-35.3495
 20
139.234
 30
-3.09178e-14
  70
    32
  0
VERTEX
  8
0
  5
2E9C
 10
-35.3574
 20
139.259
 30
-3.09230e-14
  70
    32
  0
VERTEX
  8
0
  5
2E9D
 10
-35.3653
 20
139.284
 30
-3.09283e-14
  70
    32
  0
VERTEX
  8
0
  5
2E9E
 10
-35.3733
 20
139.309
 30
-3.09334e-14
  70
    32
  0
VERTEX
  8
0
  5
2E9F
 10
-35.3814
 20
139.334
 30
-3.09386e-14
  70
    32
  0
VERTEX
  8
0
  5
2EA0
 10
-35.3895
 20
139.359
 30
-3.09437e-14
  70
    32
  0
VERTEX
  8
0
  5
2EA1
 10
-35.3977
 20
139.383
 30
-3.09487e-14
  70
    32
  0
VERTEX
  8
0
  5
2EA2
 10
-35.4060
 20
139.408
 30
-3.09538e-14
  70
    32
  0
VERTEX
  8
0
  5
2EA3
 10
-35.4143
 20
139.432
 30
-3.09589e-14
  70
    32
  0
VERTEX
  8
0
  5
2EA4
 10
-35.4227
 20
139.456
 30
-3.09640e-14
  70
    32
  0
VERTEX
  8
0
  5
2EA5
 10
-35.4312
 20
139.481
 30
-3.09692e-14
  70
    32
  0
VERTEX
  8
0
  5
2EA6
 10
-35.4397
 20
139.505
 30
-3.09743e-14
  70
    32
  0
VERTEX
  8
0
  5
2EA7
 10
-35.4483
 20
139.529
 30
-3.09796e-14
  70
    32
  0
VERTEX
  8
0
  5
2EA8
 10
-35.4570
 20
139.553
 30
-3.09848e-14
  70
    32
  0
VERTEX
  8
0
  5
2EA9
 10
-35.4657
 20
139.577
 30
-3.09901e-14
  70
    32
  0
VERTEX
  8
0
  5
2EAA
 10
-35.4745
 20
139.601
 30
-3.09954e-14
  70
    32
  0
VERTEX
  8
0
  5
2EAB
 10
-35.4833
 20
139.625
 30
-3.10007e-14
  70
    32
  0
VERTEX
  8
0
  5
2EAC
 10
-35.4922
 20
139.648
 30
-3.10061e-14
  70
    32
  0
VERTEX
  8
0
  5
2EAD
 10
-35.5011
 20
139.672
 30
-3.10115e-14
  70
    32
  0
VERTEX
  8
0
  5
2EAE
 10
-35.5101
 20
139.696
 30
-3.10169e-14
  70
    32
  0
VERTEX
  8
0
  5
2EAF
 10
-35.5192
 20
139.719
 30
-3.10223e-14
  70
    32
  0
VERTEX
  8
0
  5
2EB0
 10
-35.5283
 20
139.742
 30
-3.10277e-14
  70
    32
  0
VERTEX
  8
0
  5
2EB1
 10
-35.5374
 20
139.766
 30
-3.10332e-14
  70
    32
  0
VERTEX
  8
0
  5
2EB2
 10
-35.5466
 20
139.789
 30
-3.10387e-14
  70
    32
  0
VERTEX
  8
0
  5
2EB3
 10
-35.5559
 20
139.812
 30
-3.10442e-14
  70
    32
  0
VERTEX
  8
0
  5
2EB4
 10
-35.5652
 20
139.835
 30
-3.10497e-14
  70
    32
  0
VERTEX
  8
0
  5
2EB5
 10
-35.5746
 20
139.858
 30
-3.10552e-14
  70
    32
  0
VERTEX
  8
0
  5
2EB6
 10
-35.5840
 20
139.881
 30
-3.10608e-14
  70
    32
  0
VERTEX
  8
0
  5
2EB7
 10
-35.5935
 20
139.904
 30
-3.10663e-14
  70
    32
  0
VERTEX
  8
0
  5
2EB8
 10
-35.6030
 20
139.927
 30
-3.10719e-14
  70
    32
  0
VERTEX
  8
0
  5
2EB9
 10
-35.6125
 20
139.949
 30
-3.10774e-14
  70
    32
  0
VERTEX
  8
0
  5
2EBA
 10
-35.6222
 20
139.972
 30
-3.10830e-14
  70
    32
  0
VERTEX
  8
0
  5
2EBB
 10
-35.6318
 20
139.995
 30
-3.10886e-14
  70
    32
  0
VERTEX
  8
0
  5
2EBC
 10
-35.6415
 20
140.017
 30
-3.10942e-14
  70
    32
  0
VERTEX
  8
0
  5
2EBD
 10
-35.6513
 20
140.040
 30
-3.10998e-14
  70
    32
  0
VERTEX
  8
0
  5
2EBE
 10
-35.6610
 20
140.062
 30
-3.11054e-14
  70
    32
  0
VERTEX
  8
0
  5
2EBF
 10
-35.6709
 20
140.084
 30
-3.11110e-14
  70
    32
  0
VERTEX
  8
0
  5
2EC0
 10
-35.6807
 20
140.106
 30
-3.11166e-14
  70
    32
  0
VERTEX
  8
0
  5
2EC1
 10
-35.6907
 20
140.128
 30
-3.11221e-14
  70
    32
  0
VERTEX
  8
0
  5
2EC2
 10
-35.7006
 20
140.150
 30
-3.11277e-14
  70
    32
  0
VERTEX
  8
0
  5
2EC3
 10
-35.7106
 20
140.172
 30
-3.11333e-14
  70
    32
  0
VERTEX
  8
0
  5
2EC4
 10
-35.7207
 20
140.194
 30
-3.11389e-14
  70
    32
  0
VERTEX
  8
0
  5
2EC5
 10
-35.7307
 20
140.216
 30
-3.11445e-14
  70
    32
  0
VERTEX
  8
0
  5
2EC6
 10
-35.7408
 20
140.238
 30
-3.11501e-14
  70
    32
  0
VERTEX
  8
0
  5
2EC7
 10
-35.7510
 20
140.259
 30
-3.11556e-14
  70
    32
  0
VERTEX
  8
0
  5
2EC8
 10
-35.7612
 20
140.281
 30
-3.11612e-14
  70
    32
  0
VERTEX
  8
0
  5
2EC9
 10
-35.7714
 20
140.302
 30
-3.11667e-14
  70
    32
  0
VERTEX
  8
0
  5
2ECA
 10
-35.7817
 20
140.324
 30
-3.11722e-14
  70
    32
  0
VERTEX
  8
0
  5
2ECB
 10
-35.7920
 20
140.345
 30
-3.11777e-14
  70
    32
  0
VERTEX
  8
0
  5
2ECC
 10
-35.8023
 20
140.367
 30
-3.11832e-14
  70
    32
  0
VERTEX
  8
0
  5
2ECD
 10
-35.8126
 20
140.388
 30
-3.11887e-14
  70
    32
  0
VERTEX
  8
0
  5
2ECE
 10
-35.8230
 20
140.409
 30
-3.11942e-14
  70
    32
  0
VERTEX
  8
0
  5
2ECF
 10
-35.8334
 20
140.430
 30
-3.11996e-14
  70
    32
  0
VERTEX
  8
0
  5
2ED0
 10
-35.8439
 20
140.451
 30
-3.12050e-14
  70
    32
  0
VERTEX
  8
0
  5
2ED1
 10
-35.8544
 20
140.472
 30
-3.12104e-14
  70
    32
  0
VERTEX
  8
0
  5
2ED2
 10
-35.8649
 20
140.493
 30
-3.12158e-14
  70
    32
  0
VERTEX
  8
0
  5
2ED3
 10
-35.8754
 20
140.514
 30
-3.12212e-14
  70
    32
  0
VERTEX
  8
0
  5
2ED4
 10
-35.8860
 20
140.534
 30
-3.12265e-14
  70
    32
  0
VERTEX
  8
0
  5
2ED5
 10
-35.8966
 20
140.555
 30
-3.12318e-14
  70
    32
  0
VERTEX
  8
0
  5
2ED6
 10
-35.9072
 20
140.576
 30
-3.12371e-14
  70
    32
  0
VERTEX
  8
0
  5
2ED7
 10
-35.9178
 20
140.596
 30
-3.12423e-14
  70
    32
  0
VERTEX
  8
0
  5
2ED8
 10
-35.9285
 20
140.616
 30
-3.12475e-14
  70
    32
  0
VERTEX
  8
0
  5
2ED9
 10
-35.9392
 20
140.637
 30
-3.12527e-14
  70
    32
  0
VERTEX
  8
0
  5
2EDA
 10
-35.9499
 20
140.657
 30
-3.12579e-14
  70
    32
  0
VERTEX
  8
0
  5
2EDB
 10
-35.9607
 20
140.677
 30
-3.12630e-14
  70
    32
  0
VERTEX
  8
0
  5
2EDC
 10
-35.9714
 20
140.698
 30
-3.12681e-14
  70
    32
  0
VERTEX
  8
0
  5
2EDD
 10
-35.9822
 20
140.718
 30
-3.12731e-14
  70
    32
  0
VERTEX
  8
0
  5
2EDE
 10
-35.9930
 20
140.738
 30
-3.12781e-14
  70
    32
  0
VERTEX
  8
0
  5
2EDF
 10
-36.0038
 20
140.758
 30
-3.12831e-14
  70
    32
  0
VERTEX
  8
0
  5
2EE0
 10
-36.0147
 20
140.778
 30
-3.12880e-14
  70
    32
  0
VERTEX
  8
0
  5
2EE1
 10
-36.0255
 20
140.798
 30
-3.12929e-14
  70
    32
  0
VERTEX
  8
0
  5
2EE2
 10
-36.0364
 20
140.817
 30
-3.12978e-14
  70
    32
  0
VERTEX
  8
0
  5
2EE3
 10
-36.0473
 20
140.837
 30
-3.13026e-14
  70
    32
  0
VERTEX
  8
0
  5
2EE4
 10
-36.0582
 20
140.857
 30
-3.13073e-14
  70
    32
  0
VERTEX
  8
0
  5
2EE5
 10
-36.0691
 20
140.876
 30
-3.13120e-14
  70
    32
  0
VERTEX
  8
0
  5
2EE6
 10
-36.0801
 20
140.896
 30
-3.13167e-14
  70
    32
  0
VERTEX
  8
0
  5
2EE7
 10
-36.0910
 20
140.915
 30
-3.13213e-14
  70
    32
  0
VERTEX
  8
0
  5
2EE8
 10
-36.1020
 20
140.935
 30
-3.13259e-14
  70
    32
  0
VERTEX
  8
0
  5
2EE9
 10
-36.1129
 20
140.954
 30
-3.13304e-14
  70
    32
  0
VERTEX
  8
0
  5
2EEA
 10
-36.1239
 20
140.973
 30
-3.13348e-14
  70
    32
  0
VERTEX
  8
0
  5
2EEB
 10
-36.1349
 20
140.992
 30
-3.13392e-14
  70
    32
  0
VERTEX
  8
0
  5
2EEC
 10
-36.1459
 20
141.012
 30
-3.13436e-14
  70
    32
  0
VERTEX
  8
0
  5
2EED
 10
-36.1569
 20
141.031
 30
-3.13479e-14
  70
    32
  0
VERTEX
  8
0
  5
2EEE
 10
-36.1680
 20
141.050
 30
-3.13521e-14
  70
    32
  0
VERTEX
  8
0
  5
2EEF
 10
-36.1790
 20
141.069
 30
-3.13563e-14
  70
    32
  0
VERTEX
  8
0
  5
2EF0
 10
-36.1900
 20
141.087
 30
-3.13604e-14
  70
    32
  0
VERTEX
  8
0
  5
2EF1
 10
-36.2011
 20
141.106
 30
-3.13644e-14
  70
    32
  0
VERTEX
  8
0
  5
2EF2
 10
-36.2121
 20
141.125
 30
-3.13684e-14
  70
    32
  0
VERTEX
  8
0
  5
2EF3
 10
-36.2232
 20
141.144
 30
-3.13723e-14
  70
    32
  0
VERTEX
  8
0
  5
2EF4
 10
-36.2342
 20
141.162
 30
-3.13762e-14
  70
    32
  0
VERTEX
  8
0
  5
2EF5
 10
-36.2453
 20
141.181
 30
-3.13800e-14
  70
    32
  0
VERTEX
  8
0
  5
2EF6
 10
-36.2563
 20
141.199
 30
-3.13837e-14
  70
    32
  0
VERTEX
  8
0
  5
2EF7
 10
-36.2674
 20
141.218
 30
-3.13874e-14
  70
    32
  0
VERTEX
  8
0
  5
2EF8
 10
-36.2785
 20
141.236
 30
-3.13910e-14
  70
    32
  0
VERTEX
  8
0
  5
2EF9
 10
-36.2895
 20
141.255
 30
-3.13945e-14
  70
    32
  0
VERTEX
  8
0
  5
2EFA
 10
-36.3006
 20
141.273
 30
-3.13979e-14
  70
    32
  0
VERTEX
  8
0
  5
2EFB
 10
-36.3117
 20
141.291
 30
-3.14013e-14
  70
    32
  0
VERTEX
  8
0
  5
2EFC
 10
-36.3227
 20
141.309
 30
-3.14046e-14
  70
    32
  0
VERTEX
  8
0
  5
2EFD
 10
-36.3338
 20
141.327
 30
-3.14080e-14
  70
    32
  0
VERTEX
  8
0
  5
2EFE
 10
-36.3448
 20
141.345
 30
-3.14113e-14
  70
    32
  0
VERTEX
  8
0
  5
2EFF
 10
-36.3559
 20
141.363
 30
-3.14147e-14
  70
    32
  0
VERTEX
  8
0
  5
2F00
 10
-36.3669
 20
141.381
 30
-3.14181e-14
  70
    32
  0
VERTEX
  8
0
  5
2F01
 10
-36.3780
 20
141.399
 30
-3.14214e-14
  70
    32
  0
VERTEX
  8
0
  5
2F02
 10
-36.3890
 20
141.417
 30
-3.14248e-14
  70
    32
  0
VERTEX
  8
0
  5
2F03
 10
-36.4000
 20
141.435
 30
-3.14281e-14
  70
    32
  0
VERTEX
  8
0
  5
2F04
 10
-36.4110
 20
141.452
 30
-3.14315e-14
  70
    32
  0
VERTEX
  8
0
  5
2F05
 10
-36.4220
 20
141.470
 30
-3.14348e-14
  70
    32
  0
VERTEX
  8
0
  5
2F06
 10
-36.4330
 20
141.488
 30
-3.14382e-14
  70
    32
  0
VERTEX
  8
0
  5
2F07
 10
-36.4440
 20
141.505
 30
-3.14415e-14
  70
    32
  0
VERTEX
  8
0
  5
2F08
 10
-36.4550
 20
141.523
 30
-3.14449e-14
  70
    32
  0
VERTEX
  8
0
  5
2F09
 10
-36.4660
 20
141.540
 30
-3.14483e-14
  70
    32
  0
VERTEX
  8
0
  5
2F0A
 10
-36.4770
 20
141.558
 30
-3.14516e-14
  70
    32
  0
VERTEX
  8
0
  5
2F0B
 10
-36.4879
 20
141.575
 30
-3.14550e-14
  70
    32
  0
VERTEX
  8
0
  5
2F0C
 10
-36.4989
 20
141.592
 30
-3.14583e-14
  70
    32
  0
VERTEX
  8
0
  5
2F0D
 10
-36.5098
 20
141.610
 30
-3.14617e-14
  70
    32
  0
VERTEX
  8
0
  5
2F0E
 10
-36.5208
 20
141.627
 30
-3.14650e-14
  70
    32
  0
VERTEX
  8
0
  5
2F0F
 10
-36.5317
 20
141.644
 30
-3.14684e-14
  70
    32
  0
VERTEX
  8
0
  5
2F10
 10
-36.5426
 20
141.661
 30
-3.14717e-14
  70
    32
  0
VERTEX
  8
0
  5
2F11
 10
-36.5535
 20
141.678
 30
-3.14751e-14
  70
    32
  0
VERTEX
  8
0
  5
2F12
 10
-36.5643
 20
141.695
 30
-3.14785e-14
  70
    32
  0
VERTEX
  8
0
  5
2F13
 10
-36.5752
 20
141.712
 30
-3.14818e-14
  70
    32
  0
VERTEX
  8
0
  5
2F14
 10
-36.5861
 20
141.729
 30
-3.14852e-14
  70
    32
  0
VERTEX
  8
0
  5
2F15
 10
-36.5969
 20
141.746
 30
-3.14885e-14
  70
    32
  0
VERTEX
  8
0
  5
2F16
 10
-36.6077
 20
141.763
 30
-3.14919e-14
  70
    32
  0
VERTEX
  8
0
  5
2F17
 10
-36.6185
 20
141.779
 30
-3.14952e-14
  70
    32
  0
VERTEX
  8
0
  5
2F18
 10
-36.6293
 20
141.796
 30
-3.14986e-14
  70
    32
  0
VERTEX
  8
0
  5
2F19
 10
-36.6401
 20
141.813
 30
-3.15019e-14
  70
    32
  0
VERTEX
  8
0
  5
2F1A
 10
-36.6509
 20
141.829
 30
-3.15053e-14
  70
    32
  0
VERTEX
  8
0
  5
2F1B
 10
-36.6616
 20
141.846
 30
-3.15087e-14
  70
    32
  0
VERTEX
  8
0
  5
2F1C
 10
-36.6723
 20
141.862
 30
-3.15120e-14
  70
    32
  0
VERTEX
  8
0
  5
2F1D
 10
-36.6831
 20
141.879
 30
-3.15154e-14
  70
    32
  0
VERTEX
  8
0
  5
2F1E
 10
-36.6937
 20
141.895
 30
-3.15187e-14
  70
    32
  0
VERTEX
  8
0
  5
2F1F
 10
-36.7044
 20
141.912
 30
-3.15221e-14
  70
    32
  0
VERTEX
  8
0
  5
2F20
 10
-36.7151
 20
141.928
 30
-3.15254e-14
  70
    32
  0
VERTEX
  8
0
  5
2F21
 10
-36.7257
 20
141.944
 30
-3.15288e-14
  70
    32
  0
VERTEX
  8
0
  5
2F22
 10
-36.7363
 20
141.961
 30
-3.15322e-14
  70
    32
  0
VERTEX
  8
0
  5
2F23
 10
-36.7469
 20
141.977
 30
-3.15355e-14
  70
    32
  0
VERTEX
  8
0
  5
2F24
 10
-36.7575
 20
141.993
 30
-3.15389e-14
  70
    32
  0
VERTEX
  8
0
  5
2F25
 10
-36.7681
 20
142.009
 30
-3.15422e-14
  70
    32
  0
VERTEX
  8
0
  5
2F26
 10
-36.7786
 20
142.025
 30
-3.15456e-14
  70
    32
  0
VERTEX
  8
0
  5
2F27
 10
-36.7891
 20
142.041
 30
-3.15489e-14
  70
    32
  0
VERTEX
  8
0
  5
2F28
 10
-36.7996
 20
142.058
 30
-3.15523e-14
  70
    32
  0
VERTEX
  8
0
  5
2F29
 10
-36.8100
 20
142.074
 30
-3.15556e-14
  70
    32
  0
VERTEX
  8
0
  5
2F2A
 10
-36.8205
 20
142.089
 30
-3.15590e-14
  70
    32
  0
VERTEX
  8
0
  5
2F2B
 10
-36.8309
 20
142.105
 30
-3.15624e-14
  70
    32
  0
VERTEX
  8
0
  5
2F2C
 10
-36.8413
 20
142.121
 30
-3.15657e-14
  70
    32
  0
VERTEX
  8
0
  5
2F2D
 10
-36.8517
 20
142.137
 30
-3.15691e-14
  70
    32
  0
VERTEX
  8
0
  5
2F2E
 10
-36.8620
 20
142.153
 30
-3.15724e-14
  70
    32
  0
VERTEX
  8
0
  5
2F2F
 10
-36.8723
 20
142.169
 30
-3.15758e-14
  70
    32
  0
VERTEX
  8
0
  5
2F30
 10
-36.8826
 20
142.184
 30
-3.15791e-14
  70
    32
  0
VERTEX
  8
0
  5
2F31
 10
-36.8929
 20
142.200
 30
-3.15825e-14
  70
    32
  0
VERTEX
  8
0
  5
2F32
 10
-36.9031
 20
142.216
 30
-3.15858e-14
  70
    32
  0
VERTEX
  8
0
  5
2F33
 10
-36.9133
 20
142.231
 30
-3.15892e-14
  70
    32
  0
VERTEX
  8
0
  5
2F34
 10
-36.9235
 20
142.247
 30
-3.15926e-14
  70
    32
  0
VERTEX
  8
0
  5
2F35
 10
-36.9337
 20
142.262
 30
-3.15959e-14
  70
    32
  0
VERTEX
  8
0
  5
2F36
 10
-36.9438
 20
142.278
 30
-3.15993e-14
  70
    32
  0
VERTEX
  8
0
  5
2F37
 10
-36.9539
 20
142.293
 30
-3.16026e-14
  70
    32
  0
VERTEX
  8
0
  5
2F38
 10
-36.9640
 20
142.309
 30
-3.16060e-14
  70
    32
  0
VERTEX
  8
0
  5
2F39
 10
-36.9740
 20
142.324
 30
-3.16093e-14
  70
    32
  0
VERTEX
  8
0
  5
2F3A
 10
-36.9840
 20
142.339
 30
-3.16127e-14
  70
    32
  0
VERTEX
  8
0
  5
2F3B
 10
-36.9940
 20
142.355
 30
-3.16160e-14
  70
    32
  0
VERTEX
  8
0
  5
2F3C
 10
-37.0039
 20
142.370
 30
-3.16194e-14
  70
    32
  0
VERTEX
  8
0
  5
2F3D
 10
-37.0138
 20
142.385
 30
-3.16228e-14
  70
    32
  0
VERTEX
  8
0
  5
2F3E
 10
-37.0237
 20
142.400
 30
-3.16261e-14
  70
    32
  0
VERTEX
  8
0
  5
2F3F
 10
-37.0336
 20
142.416
 30
-3.16295e-14
  70
    32
  0
VERTEX
  8
0
  5
2F40
 10
-37.0434
 20
142.431
 30
-3.16328e-14
  70
    32
  0
VERTEX
  8
0
  5
2F41
 10
-37.0532
 20
142.446
 30
-3.16362e-14
  70
    32
  0
VERTEX
  8
0
  5
2F42
 10
-37.0629
 20
142.461
 30
-3.16395e-14
  70
    32
  0
VERTEX
  8
0
  5
2F43
 10
-37.0726
 20
142.476
 30
-3.16429e-14
  70
    32
  0
VERTEX
  8
0
  5
2F44
 10
-37.0823
 20
142.491
 30
-3.16462e-14
  70
    32
  0
VERTEX
  8
0
  5
2F45
 10
-37.0920
 20
142.506
 30
-3.16496e-14
  70
    32
  0
VERTEX
  8
0
  5
2F46
 10
-37.1016
 20
142.521
 30
-3.16530e-14
  70
    32
  0
VERTEX
  8
0
  5
2F47
 10
-37.1111
 20
142.536
 30
-3.16563e-14
  70
    32
  0
VERTEX
  8
0
  5
2F48
 10
-37.1207
 20
142.551
 30
-3.16597e-14
  70
    32
  0
VERTEX
  8
0
  5
2F49
 10
-37.1302
 20
142.566
 30
-3.16630e-14
  70
    32
  0
VERTEX
  8
0
  5
2F4A
 10
-37.1396
 20
142.581
 30
-3.16664e-14
  70
    32
  0
VERTEX
  8
0
  5
2F4B
 10
-37.1491
 20
142.596
 30
-3.16697e-14
  70
    32
  0
VERTEX
  8
0
  5
2F4C
 10
-37.1585
 20
142.610
 30
-3.16731e-14
  70
    32
  0
VERTEX
  8
0
  5
2F4D
 10
-37.1678
 20
142.625
 30
-3.16764e-14
  70
    32
  0
VERTEX
  8
0
  5
2F4E
 10
-37.1771
 20
142.640
 30
-3.16798e-14
  70
    32
  0
VERTEX
  8
0
  5
2F4F
 10
-37.1864
 20
142.655
 30
-3.16832e-14
  70
    32
  0
VERTEX
  8
0
  5
2F50
 10
-37.1956
 20
142.669
 30
-3.16865e-14
  70
    32
  0
VERTEX
  8
0
  5
2F51
 10
-37.2048
 20
142.684
 30
-3.16899e-14
  70
    32
  0
VERTEX
  8
0
  5
2F52
 10
-37.2139
 20
142.699
 30
-3.16932e-14
  70
    32
  0
VERTEX
  8
0
  5
2F53
 10
-37.2230
 20
142.713
 30
-3.16966e-14
  70
    32
  0
VERTEX
  8
0
  5
2F54
 10
-37.2321
 20
142.728
 30
-3.16999e-14
  70
    32
  0
VERTEX
  8
0
  5
2F55
 10
-37.2411
 20
142.742
 30
-3.17033e-14
  70
    32
  0
VERTEX
  8
0
  5
2F56
 10
-37.2501
 20
142.757
 30
-3.17066e-14
  70
    32
  0
VERTEX
  8
0
  5
2F57
 10
-37.2590
 20
142.771
 30
-3.17100e-14
  70
    32
  0
VERTEX
  8
0
  5
2F58
 10
-37.2679
 20
142.786
 30
-3.17134e-14
  70
    32
  0
VERTEX
  8
0
  5
2F59
 10
-37.2768
 20
142.800
 30
-3.17167e-14
  70
    32
  0
VERTEX
  8
0
  5
2F5A
 10
-37.2856
 20
142.815
 30
-3.17201e-14
  70
    32
  0
VERTEX
  8
0
  5
2F5B
 10
-37.2944
 20
142.829
 30
-3.17234e-14
  70
    32
  0
VERTEX
  8
0
  5
2F5C
 10
-37.3031
 20
142.844
 30
-3.17268e-14
  70
    32
  0
VERTEX
  8
0
  5
2F5D
 10
-37.3118
 20
142.858
 30
-3.17301e-14
  70
    32
  0
VERTEX
  8
0
  5
2F5E
 10
-37.3204
 20
142.872
 30
-3.17335e-14
  70
    32
  0
VERTEX
  8
0
  5
2F5F
 10
-37.3290
 20
142.887
 30
-3.17368e-14
  70
    32
  0
VERTEX
  8
0
  5
2F60
 10
-37.3376
 20
142.901
 30
-3.17402e-14
  70
    32
  0
VERTEX
  8
0
  5
2F61
 10
-37.3461
 20
142.915
 30
-3.17436e-14
  70
    32
  0
VERTEX
  8
0
  5
2F62
 10
-37.3546
 20
142.930
 30
-3.17469e-14
  70
    32
  0
VERTEX
  8
0
  5
2F63
 10
-37.3630
 20
142.944
 30
-3.17503e-14
  70
    32
  0
VERTEX
  8
0
  5
2F64
 10
-37.3714
 20
142.958
 30
-3.17536e-14
  70
    32
  0
VERTEX
  8
0
  5
2F65
 10
-37.3797
 20
142.972
 30
-3.17570e-14
  70
    32
  0
VERTEX
  8
0
  5
2F66
 10
-37.3880
 20
142.986
 30
-3.17603e-14
  70
    32
  0
VERTEX
  8
0
  5
2F67
 10
-37.3963
 20
143.001
 30
-3.17637e-14
  70
    32
  0
VERTEX
  8
0
  5
2F68
 10
-37.4045
 20
143.015
 30
-3.17671e-14
  70
    32
  0
VERTEX
  8
0
  5
2F69
 10
-37.4126
 20
143.029
 30
-3.17704e-14
  70
    32
  0
VERTEX
  8
0
  5
2F6A
 10
-37.4207
 20
143.043
 30
-3.17738e-14
  70
    32
  0
VERTEX
  8
0
  5
2F6B
 10
-37.4288
 20
143.057
 30
-3.17771e-14
  70
    32
  0
VERTEX
  8
0
  5
2F6C
 10
-37.4369
 20
143.071
 30
-3.17805e-14
  70
    32
  0
VERTEX
  8
0
  5
2F6D
 10
-37.4449
 20
143.085
 30
-3.17838e-14
  70
    32
  0
VERTEX
  8
0
  5
2F6E
 10
-37.4528
 20
143.099
 30
-3.17872e-14
  70
    32
  0
VERTEX
  8
0
  5
2F6F
 10
-37.4607
 20
143.113
 30
-3.17905e-14
  70
    32
  0
VERTEX
  8
0
  5
2F70
 10
-37.4686
 20
143.127
 30
-3.17939e-14
  70
    32
  0
VERTEX
  8
0
  5
2F71
 10
-37.4764
 20
143.141
 30
-3.17973e-14
  70
    32
  0
VERTEX
  8
0
  5
2F72
 10
-37.4841
 20
143.155
 30
-3.18006e-14
  70
    32
  0
VERTEX
  8
0
  5
2F73
 10
-37.4919
 20
143.169
 30
-3.18040e-14
  70
    32
  0
VERTEX
  8
0
  5
2F74
 10
-37.4995
 20
143.183
 30
-3.18073e-14
  70
    32
  0
VERTEX
  8
0
  5
2F75
 10
-37.5072
 20
143.197
 30
-3.18107e-14
  70
    32
  0
VERTEX
  8
0
  5
2F76
 10
-37.5148
 20
143.211
 30
-3.18140e-14
  70
    32
  0
VERTEX
  8
0
  5
2F77
 10
-37.5223
 20
143.225
 30
-3.18174e-14
  70
    32
  0
VERTEX
  8
0
  5
2F78
 10
-37.5298
 20
143.239
 30
-3.18207e-14
  70
    32
  0
VERTEX
  8
0
  5
2F79
 10
-37.5373
 20
143.253
 30
-3.18241e-14
  70
    32
  0
VERTEX
  8
0
  5
2F7A
 10
-37.5447
 20
143.266
 30
-3.18275e-14
  70
    32
  0
VERTEX
  8
0
  5
2F7B
 10
-37.5520
 20
143.280
 30
-3.18308e-14
  70
    32
  0
VERTEX
  8
0
  5
2F7C
 10
-37.5594
 20
143.294
 30
-3.18342e-14
  70
    32
  0
VERTEX
  8
0
  5
2F7D
 10
-37.5666
 20
143.308
 30
-3.18375e-14
  70
    32
  0
VERTEX
  8
0
  5
2F7E
 10
-37.5739
 20
143.322
 30
-3.18409e-14
  70
    32
  0
VERTEX
  8
0
  5
2F7F
 10
-37.5811
 20
143.336
 30
-3.18442e-14
  70
    32
  0
VERTEX
  8
0
  5
2F80
 10
-37.5882
 20
143.350
 30
-3.18476e-14
  70
    32
  0
VERTEX
  8
0
  5
2F81
 10
-37.5953
 20
143.363
 30
-3.18509e-14
  70
    32
  0
VERTEX
  8
0
  5
2F82
 10
-37.6023
 20
143.377
 30
-3.18543e-14
  70
    32
  0
VERTEX
  8
0
  5
2F83
 10
-37.6093
 20
143.391
 30
-3.18577e-14
  70
    32
  0
VERTEX
  8
0
  5
2F84
 10
-37.6163
 20
143.405
 30
-3.18610e-14
  70
    32
  0
VERTEX
  8
0
  5
2F85
 10
-37.6232
 20
143.419
 30
-3.18644e-14
  70
    32
  0
VERTEX
  8
0
  5
2F86
 10
-37.6301
 20
143.432
 30
-3.18677e-14
  70
    32
  0
VERTEX
  8
0
  5
2F87
 10
-37.6369
 20
143.446
 30
-3.18711e-14
  70
    32
  0
VERTEX
  8
0
  5
2F88
 10
-37.6437
 20
143.460
 30
-3.18744e-14
  70
    32
  0
VERTEX
  8
0
  5
2F89
 10
-37.6504
 20
143.474
 30
-3.18778e-14
  70
    32
  0
VERTEX
  8
0
  5
2F8A
 10
-37.6571
 20
143.487
 30
-3.18811e-14
  70
    32
  0
VERTEX
  8
0
  5
2F8B
 10
-37.6637
 20
143.501
 30
-3.18845e-14
  70
    32
  0
VERTEX
  8
0
  5
2F8C
 10
-37.6703
 20
143.515
 30
-3.18879e-14
  70
    32
  0
VERTEX
  8
0
  5
2F8D
 10
-37.6768
 20
143.529
 30
-3.18912e-14
  70
    32
  0
VERTEX
  8
0
  5
2F8E
 10
-37.6833
 20
143.542
 30
-3.18946e-14
  70
    32
  0
VERTEX
  8
0
  5
2F8F
 10
-37.6897
 20
143.556
 30
-3.18979e-14
  70
    32
  0
VERTEX
  8
0
  5
2F90
 10
-37.6961
 20
143.570
 30
-3.19013e-14
  70
    32
  0
VERTEX
  8
0
  5
2F91
 10
-37.7025
 20
143.584
 30
-3.19046e-14
  70
    32
  0
VERTEX
  8
0
  5
2F92
 10
-37.7088
 20
143.598
 30
-3.19080e-14
  70
    32
  0
VERTEX
  8
0
  5
2F93
 10
-37.7150
 20
143.611
 30
-3.19113e-14
  70
    32
  0
VERTEX
  8
0
  5
2F94
 10
-37.7212
 20
143.625
 30
-3.19147e-14
  70
    32
  0
VERTEX
  8
0
  5
2F95
 10
-37.7274
 20
143.639
 30
-3.19181e-14
  70
    32
  0
VERTEX
  8
0
  5
2F96
 10
-37.7335
 20
143.653
 30
-3.19214e-14
  70
    32
  0
VERTEX
  8
0
  5
2F97
 10
-37.7396
 20
143.666
 30
-3.19248e-14
  70
    32
  0
VERTEX
  8
0
  5
2F98
 10
-37.7456
 20
143.680
 30
-3.19281e-14
  70
    32
  0
VERTEX
  8
0
  5
2F99
 10
-37.7516
 20
143.694
 30
-3.19315e-14
  70
    32
  0
VERTEX
  8
0
  5
2F9A
 10
-37.7575
 20
143.708
 30
-3.19348e-14
  70
    32
  0
VERTEX
  8
0
  5
2F9B
 10
-37.7634
 20
143.721
 30
-3.19382e-14
  70
    32
  0
VERTEX
  8
0
  5
2F9C
 10
-37.7692
 20
143.735
 30
-3.19415e-14
  70
    32
  0
VERTEX
  8
0
  5
2F9D
 10
-37.7750
 20
143.749
 30
-3.19449e-14
  70
    32
  0
VERTEX
  8
0
  5
2F9E
 10
-37.7807
 20
143.763
 30
-3.19483e-14
  70
    32
  0
VERTEX
  8
0
  5
2F9F
 10
-37.7864
 20
143.777
 30
-3.19516e-14
  70
    32
  0
VERTEX
  8
0
  5
2FA0
 10
-37.7920
 20
143.790
 30
-3.19550e-14
  70
    32
  0
VERTEX
  8
0
  5
2FA1
 10
-37.7976
 20
143.804
 30
-3.19583e-14
  70
    32
  0
VERTEX
  8
0
  5
2FA2
 10
-37.8031
 20
143.818
 30
-3.19617e-14
  70
    32
  0
VERTEX
  8
0
  5
2FA3
 10
-37.8086
 20
143.832
 30
-3.19650e-14
  70
    32
  0
VERTEX
  8
0
  5
2FA4
 10
-37.8140
 20
143.846
 30
-3.19684e-14
  70
    32
  0
VERTEX
  8
0
  5
2FA5
 10
-37.8194
 20
143.860
 30
-3.19717e-14
  70
    32
  0
VERTEX
  8
0
  5
2FA6
 10
-37.8248
 20
143.873
 30
-3.19751e-14
  70
    32
  0
VERTEX
  8
0
  5
2FA7
 10
-37.8301
 20
143.887
 30
-3.19785e-14
  70
    32
  0
VERTEX
  8
0
  5
2FA8
 10
-37.8353
 20
143.901
 30
-3.19818e-14
  70
    32
  0
VERTEX
  8
0
  5
2FA9
 10
-37.8405
 20
143.915
 30
-3.19852e-14
  70
    32
  0
VERTEX
  8
0
  5
2FAA
 10
-37.8456
 20
143.929
 30
-3.19885e-14
  70
    32
  0
VERTEX
  8
0
  5
2FAB
 10
-37.8507
 20
143.943
 30
-3.19919e-14
  70
    32
  0
VERTEX
  8
0
  5
2FAC
 10
-37.8558
 20
143.957
 30
-3.19952e-14
  70
    32
  0
VERTEX
  8
0
  5
2FAD
 10
-37.8608
 20
143.971
 30
-3.19986e-14
  70
    32
  0
VERTEX
  8
0
  5
2FAE
 10
-37.8657
 20
143.985
 30
-3.20019e-14
  70
    32
  0
VERTEX
  8
0
  5
2FAF
 10
-37.8706
 20
143.999
 30
-3.20053e-14
  70
    32
  0
VERTEX
  8
0
  5
2FB0
 10
-37.8755
 20
144.013
 30
-3.20087e-14
  70
    32
  0
VERTEX
  8
0
  5
2FB1
 10
-37.8803
 20
144.027
 30
-3.20120e-14
  70
    32
  0
VERTEX
  8
0
  5
2FB2
 10
-37.8851
 20
144.041
 30
-3.20154e-14
  70
    32
  0
VERTEX
  8
0
  5
2FB3
 10
-37.8898
 20
144.055
 30
-3.20187e-14
  70
    32
  0
VERTEX
  8
0
  5
2FB4
 10
-37.8945
 20
144.069
 30
-3.20221e-14
  70
    32
  0
VERTEX
  8
0
  5
2FB5
 10
-37.8991
 20
144.083
 30
-3.20254e-14
  70
    32
  0
VERTEX
  8
0
  5
2FB6
 10
-37.9037
 20
144.097
 30
-3.20288e-14
  70
    32
  0
VERTEX
  8
0
  5
2FB7
 10
-37.9082
 20
144.111
 30
-3.20322e-14
  70
    32
  0
VERTEX
  8
0
  5
2FB8
 10
-37.9127
 20
144.125
 30
-3.20355e-14
  70
    32
  0
VERTEX
  8
0
  5
2FB9
 10
-37.9172
 20
144.139
 30
-3.20389e-14
  70
    32
  0
VERTEX
  8
0
  5
2FBA
 10
-37.9216
 20
144.153
 30
-3.20422e-14
  70
    32
  0
VERTEX
  8
0
  5
2FBB
 10
-37.9259
 20
144.168
 30
-3.20456e-14
  70
    32
  0
VERTEX
  8
0
  5
2FBC
 10
-37.9302
 20
144.182
 30
-3.20489e-14
  70
    32
  0
VERTEX
  8
0
  5
2FBD
 10
-37.9345
 20
144.196
 30
-3.20523e-14
  70
    32
  0
VERTEX
  8
0
  5
2FBE
 10
-37.9387
 20
144.210
 30
-3.20556e-14
  70
    32
  0
VERTEX
  8
0
  5
2FBF
 10
-37.9429
 20
144.225
 30
-3.20590e-14
  70
    32
  0
VERTEX
  8
0
  5
2FC0
 10
-37.9470
 20
144.239
 30
-3.20624e-14
  70
    32
  0
VERTEX
  8
0
  5
2FC1
 10
-37.9511
 20
144.253
 30
-3.20657e-14
  70
    32
  0
VERTEX
  8
0
  5
2FC2
 10
-37.9551
 20
144.268
 30
-3.20691e-14
  70
    32
  0
VERTEX
  8
0
  5
2FC3
 10
-37.9590
 20
144.282
 30
-3.20724e-14
  70
    32
  0
VERTEX
  8
0
  5
2FC4
 10
-37.9630
 20
144.297
 30
-3.20758e-14
  70
    32
  0
VERTEX
  8
0
  5
2FC5
 10
-37.9668
 20
144.311
 30
-3.20791e-14
  70
    32
  0
VERTEX
  8
0
  5
2FC6
 10
-37.9707
 20
144.326
 30
-3.20825e-14
  70
    32
  0
VERTEX
  8
0
  5
2FC7
 10
-37.9744
 20
144.340
 30
-3.20858e-14
  70
    32
  0
VERTEX
  8
0
  5
2FC8
 10
-37.9782
 20
144.355
 30
-3.20892e-14
  70
    32
  0
VERTEX
  8
0
  5
2FC9
 10
-37.9818
 20
144.370
 30
-3.20925e-14
  70
    32
  0
VERTEX
  8
0
  5
2FCA
 10
-37.9854
 20
144.384
 30
-3.20959e-14
  70
    32
  0
VERTEX
  8
0
  5
2FCB
 10
-37.9890
 20
144.399
 30
-3.20993e-14
  70
    32
  0
VERTEX
  8
0
  5
2FCC
 10
-37.9925
 20
144.414
 30
-3.21026e-14
  70
    32
  0
VERTEX
  8
0
  5
2FCD
 10
-37.9960
 20
144.429
 30
-3.21060e-14
  70
    32
  0
VERTEX
  8
0
  5
2FCE
 10
-37.9994
 20
144.444
 30
-3.21093e-14
  70
    32
  0
VERTEX
  8
0
  5
2FCF
 10
-38.0028
 20
144.459
 30
-3.21127e-14
  70
    32
  0
VERTEX
  8
0
  5
2FD0
 10
-38.0061
 20
144.473
 30
-3.21160e-14
  70
    32
  0
VERTEX
  8
0
  5
2FD1
 10
-38.0093
 20
144.488
 30
-3.21194e-14
  70
    32
  0
VERTEX
  8
0
  5
2FD2
 10
-38.0126
 20
144.504
 30
-3.21227e-14
  70
    32
  0
VERTEX
  8
0
  5
2FD3
 10
-38.0157
 20
144.519
 30
-3.21261e-14
  70
    32
  0
VERTEX
  8
0
  5
2FD4
 10
-38.0188
 20
144.534
 30
-3.21294e-14
  70
    32
  0
VERTEX
  8
0
  5
2FD5
 10
-38.0218
 20
144.549
 30
-3.21328e-14
  70
    32
  0
VERTEX
  8
0
  5
2FD6
 10
-38.0248
 20
144.564
 30
-3.21362e-14
  70
    32
  0
VERTEX
  8
0
  5
2FD7
 10
-38.0278
 20
144.579
 30
-3.21395e-14
  70
    32
  0
VERTEX
  8
0
  5
2FD8
 10
-38.0307
 20
144.595
 30
-3.21429e-14
  70
    32
  0
VERTEX
  8
0
  5
2FD9
 10
-38.0335
 20
144.610
 30
-3.21462e-14
  70
    32
  0
VERTEX
  8
0
  5
2FDA
 10
-38.0363
 20
144.626
 30
-3.21496e-14
  70
    32
  0
VERTEX
  8
0
  5
2FDB
 10
-38.0390
 20
144.641
 30
-3.21529e-14
  70
    32
  0
VERTEX
  8
0
  5
2FDC
 10
-38.0416
 20
144.657
 30
-3.21563e-14
  70
    32
  0
VERTEX
  8
0
  5
2FDD
 10
-38.0442
 20
144.672
 30
-3.21596e-14
  70
    32
  0
VERTEX
  8
0
  5
2FDE
 10
-38.0468
 20
144.688
 30
-3.21630e-14
  70
    32
  0
VERTEX
  8
0
  5
2FDF
 10
-38.0493
 20
144.704
 30
-3.21663e-14
  70
    32
  0
VERTEX
  8
0
  5
2FE0
 10
-38.0517
 20
144.719
 30
-3.21697e-14
  70
    32
  0
VERTEX
  8
0
  5
2FE1
 10
-38.0541
 20
144.735
 30
-3.21731e-14
  70
    32
  0
VERTEX
  8
0
  5
2FE2
 10
-38.0564
 20
144.751
 30
-3.21764e-14
  70
    32
  0
VERTEX
  8
0
  5
2FE3
 10
-38.0587
 20
144.767
 30
-3.21798e-14
  70
    32
  0
VERTEX
  8
0
  5
2FE4
 10
-38.0609
 20
144.783
 30
-3.21831e-14
  70
    32
  0
VERTEX
  8
0
  5
2FE5
 10
-38.0631
 20
144.799
 30
-3.21865e-14
  70
    32
  0
VERTEX
  8
0
  5
2FE6
 10
-38.0652
 20
144.815
 30
-3.21898e-14
  70
    32
  0
VERTEX
  8
0
  5
2FE7
 10
-38.0672
 20
144.831
 30
-3.21932e-14
  70
    32
  0
VERTEX
  8
0
  5
2FE8
 10
-38.0692
 20
144.848
 30
-3.21965e-14
  70
    32
  0
VERTEX
  8
0
  5
2FE9
 10
-38.0711
 20
144.864
 30
-3.21999e-14
  70
    32
  0
VERTEX
  8
0
  5
2FEA
 10
-38.0729
 20
144.880
 30
-3.22032e-14
  70
    32
  0
VERTEX
  8
0
  5
2FEB
 10
-38.0747
 20
144.897
 30
-3.22066e-14
  70
    32
  0
VERTEX
  8
0
  5
2FEC
 10
-38.0765
 20
144.913
 30
-3.22099e-14
  70
    32
  0
VERTEX
  8
0
  5
2FED
 10
-38.0782
 20
144.930
 30
-3.22133e-14
  70
    32
  0
VERTEX
  8
0
  5
2FEE
 10
-38.0798
 20
144.947
 30
-3.22166e-14
  70
    32
  0
VERTEX
  8
0
  5
2FEF
 10
-38.0813
 20
144.963
 30
-3.22200e-14
  70
    32
  0
VERTEX
  8
0
  5
2FF0
 10
-38.0828
 20
144.980
 30
-3.22233e-14
  70
    32
  0
VERTEX
  8
0
  5
2FF1
 10
-38.0843
 20
144.997
 30
-3.22267e-14
  70
    32
  0
VERTEX
  8
0
  5
2FF2
 10
-38.0857
 20
145.014
 30
-3.22300e-14
  70
    32
  0
VERTEX
  8
0
  5
2FF3
 10
-38.0870
 20
145.031
 30
-3.22334e-14
  70
    32
  0
VERTEX
  8
0
  5
2FF4
 10
-38.0882
 20
145.048
 30
-3.22367e-14
  70
    32
  0
VERTEX
  8
0
  5
2FF5
 10
-38.0894
 20
145.065
 30
-3.22401e-14
  70
    32
  0
VERTEX
  8
0
  5
2FF6
 10
-38.0905
 20
145.083
 30
-3.22435e-14
  70
    32
  0
VERTEX
  8
0
  5
2FF7
 10
-38.0916
 20
145.100
 30
-3.22468e-14
  70
    32
  0
VERTEX
  8
0
  5
2FF8
 10
-38.0926
 20
145.117
 30
-3.22502e-14
  70
    32
  0
VERTEX
  8
0
  5
2FF9
 10
-38.0936
 20
145.135
 30
-3.22535e-14
  70
    32
  0
VERTEX
  8
0
  5
2FFA
 10
-38.0944
 20
145.152
 30
-3.22569e-14
  70
    32
  0
VERTEX
  8
0
  5
2FFB
 10
-38.0953
 20
145.170
 30
-3.22602e-14
  70
    32
  0
VERTEX
  8
0
  5
2FFC
 10
-38.0960
 20
145.188
 30
-3.22636e-14
  70
    32
  0
VERTEX
  8
0
  5
2FFD
 10
-38.0967
 20
145.206
 30
-3.22669e-14
  70
    32
  0
VERTEX
  8
0
  5
2FFE
 10
-38.0973
 20
145.224
 30
-3.22703e-14
  70
    32
  0
VERTEX
  8
0
  5
2FFF
 10
-38.0979
 20
145.242
 30
-3.22736e-14
  70
    32
  0
VERTEX
  8
0
  5
3000
 10
-38.0984
 20
145.260
 30
-3.22770e-14
  70
    32
  0
VERTEX
  8
0
  5
3001
 10
-38.0988
 20
145.278
 30
-3.22803e-14
  70
    32
  0
VERTEX
  8
0
  5
3002
 10
-38.0992
 20
145.296
 30
-3.22837e-14
  70
    32
  0
VERTEX
  8
0
  5
3003
 10
-38.0995
 20
145.314
 30
-3.22870e-14
  70
    32
  0
VERTEX
  8
0
  5
3004
 10
-38.0997
 20
145.333
 30
-3.22904e-14
  70
    32
  0
VERTEX
  8
0
  5
3005
 10
-38.0999
 20
145.351
 30
-3.22937e-14
  70
    32
  0
VERTEX
  8
0
  5
3006
 10
-38.1000
 20
145.370
 30
-3.22971e-14
  70
    32
  0
VERTEX
  8
0
  5
3007
 10
-38.1000
 20
145.389
 30
-3.23000e-14
  70
    32
  0
SEQEND
  8
0
  5
3008
  0
POLYLINE
  8
0
  5
3009
  62
1
  66
     1
 10
0.000000
 20
0.000000
 30
0.000000
  70
     8
  0
VERTEX
  8
0
  5
300A
 10
35.0000
 20
136.889
 30
-3.04000e-14
  70
    32
  0
VERTEX
  8
0
  5
300B
 10
35.0001
 20
136.920
 30
-3.04067e-14
  70
    32
  0
VERTEX
  8
0
  5
300C
 10
35.0002
 20
136.951
 30
-3.04134e-14
  70
    32
  0
VERTEX
  8
0
  5
300D
 10
35.0005
 20
136.983
 30
-3.04202e-14
  70
    32
  0
VERTEX
  8
0
  5
300E
 10
35.0009
 20
137.014
 30
-3.04269e-14
  70
    32
  0
VERTEX
  8
0
  5
300F
 10
35.0014
 20
137.045
 30
-3.04336e-14
  70
    32
  0
VERTEX
  8
0
  5
3010
 10
35.0021
 20
137.076
 30
-3.04403e-14
  70
    32
  0
VERTEX
  8
0
  5
3011
 10
35.0028
 20
137.107
 30
-3.04471e-14
  70
    32
  0
VERTEX
  8
0
  5
3012
 10
35.0037
 20
137.138
 30
-3.04538e-14
  70
    32
  0
VERTEX
  8
0
  5
3013
 10
35.0046
 20
137.168
 30
-3.04605e-14
  70
    32
  0
VERTEX
  8
0
  5
3014
 10
35.0057
 20
137.199
 30
-3.04672e-14
  70
    32
  0
VERTEX
  8
0
  5
3015
 10
35.0069
 20
137.230
 30
-3.04739e-14
  70
    32
  0
VERTEX
  8
0
  5
3016
 10
35.0082
 20
137.260
 30
-3.04806e-14
  70
    32
  0
VERTEX
  8
0
  5
3017
 10
35.0096
 20
137.291
 30
-3.04873e-14
  70
    32
  0
VERTEX
  8
0
  5
3018
 10
35.0111
 20
137.321
 30
-3.04940e-14
  70
    32
  0
VERTEX
  8
0
  5
3019
 10
35.0128
 20
137.352
 30
-3.05006e-14
  70
    32
  0
VERTEX
  8
0
  5
301A
 10
35.0145
 20
137.382
 30
-3.05073e-14
  70
    32
  0
VERTEX
  8
0
  5
301B
 10
35.0163
 20
137.412
 30
-3.05140e-14
  70
    32
  0
VERTEX
  8
0
  5
301C
 10
35.0183
 20
137.442
 30
-3.05206e-14
  70
    32
  0
VERTEX
  8
0
  5
301D
 10
35.0203
 20
137.472
 30
-3.05273e-14
  70
    32
  0
VERTEX
  8
0
  5
301E
 10
35.0225
 20
137.502
 30
-3.05339e-14
  70
    32
  0
VERTEX
  8
0
  5
301F
 10
35.0248
 20
137.532
 30
-3.05406e-14
  70
    32
  0
VERTEX
  8
0
  5
3020
 10
35.0271
 20
137.562
 30
-3.05472e-14
  70
    32
  0
VERTEX
  8
0
  5
3021
 10
35.0296
 20
137.591
 30
-3.05538e-14
  70
    32
  0
VERTEX
  8
0
  5
3022
 10
35.0322
 20
137.621
 30
-3.05604e-14
  70
    32
  0
VERTEX
  8
0
  5
3023
 10
35.0349
 20
137.651
 30
-3.05670e-14
  70
    32
  0
VERTEX
  8
0
  5
3024
 10
35.0377
 20
137.680
 30
-3.05736e-14
  70
    32
  0
VERTEX
  8
0
  5
3025
 10
35.0405
 20
137.710
 30
-3.05802e-14
  70
    32
  0
VERTEX
  8
0
  5
3026
 10
35.0435
 20
137.739
 30
-3.05868e-14
  70
    32
  0
VERTEX
  8
0
  5
3027
 10
35.0466
 20
137.768
 30
-3.05933e-14
  70
    32
  0
VERTEX
  8
0
  5
3028
 10
35.0498
 20
137.797
 30
-3.05998e-14
  70
    32
  0
VERTEX
  8
0
  5
3029
 10
35.0531
 20
137.827
 30
-3.06064e-14
  70
    32
  0
VERTEX
  8
0
  5
302A
 10
35.0565
 20
137.856
 30
-3.06129e-14
  70
    32
  0
VERTEX
  8
0
  5
302B
 10
35.0600
 20
137.885
 30
-3.06194e-14
  70
    32
  0
VERTEX
  8
0
  5
302C
 10
35.0636
 20
137.913
 30
-3.06259e-14
  70
    32
  0
VERTEX
  8
0
  5
302D
 10
35.0673
 20
137.942
 30
-3.06323e-14
  70
    32
  0
VERTEX
  8
0
  5
302E
 10
35.0711
 20
137.971
 30
-3.06388e-14
  70
    32
  0
VERTEX
  8
0
  5
302F
 10
35.0750
 20
138.000
 30
-3.06452e-14
  70
    32
  0
VERTEX
  8
0
  5
3030
 10
35.0789
 20
138.028
 30
-3.06517e-14
  70
    32
  0
VERTEX
  8
0
  5
3031
 10
35.0830
 20
138.057
 30
-3.06581e-14
  70
    32
  0
VERTEX
  8
0
  5
3032
 10
35.0872
 20
138.085
 30
-3.06645e-14
  70
    32
  0
VERTEX
  8
0
  5
3033
 10
35.0914
 20
138.114
 30
-3.06709e-14
  70
    32
  0
VERTEX
  8
0
  5
3034
 10
35.0958
 20
138.142
 30
-3.06772e-14
  70
    32
  0
VERTEX
  8
0
  5
3035
 10
35.1003
 20
138.170
 30
-3.06836e-14
  70
    32
  0
VERTEX
  8
0
  5
3036
 10
35.1048
 20
138.198
 30
-3.06899e-14
  70
    32
  0
VERTEX
  8
0
  5
3037
 10
35.1095
 20
138.226
 30
-3.06962e-14
  70
    32
  0
VERTEX
  8
0
  5
3038
 10
35.1142
 20
138.254
 30
-3.07025e-14
  70
    32
  0
VERTEX
  8
0
  5
3039
 10
35.1190
 20
138.282
 30
-3.07087e-14
  70
    32
  0
VERTEX
  8
0
  5
303A
 10
35.1239
 20
138.310
 30
-3.07150e-14
  70
    32
  0
VERTEX
  8
0
  5
303B
 10
35.1289
 20
138.338
 30
-3.07212e-14
  70
    32
  0
VERTEX
  8
0
  5
303C
 10
35.1340
 20
138.365
 30
-3.07274e-14
  70
    32
  0
VERTEX
  8
0
  5
303D
 10
35.1392
 20
138.393
 30
-3.07336e-14
  70
    32
  0
VERTEX
  8
0
  5
303E
 10
35.1445
 20
138.420
 30
-3.07398e-14
  70
    32
  0
VERTEX
  8
0
  5
303F
 10
35.1499
 20
138.448
 30
-3.07459e-14
  70
    32
  0
VERTEX
  8
0
  5
3040
 10
35.1553
 20
138.475
 30
-3.07520e-14
  70
    32
  0
VERTEX
  8
0
  5
3041
 10
35.1609
 20
138.502
 30
-3.07581e-14
  70
    32
  0
VERTEX
  8
0
  5
3042
 10
35.1665
 20
138.530
 30
-3.07642e-14
  70
    32
  0
VERTEX
  8
0
  5
3043
 10
35.1722
 20
138.557
 30
-3.07702e-14
  70
    32
  0
VERTEX
  8
0
  5
3044
 10
35.1780
 20
138.584
 30
-3.07763e-14
  70
    32
  0
VERTEX
  8
0
  5
3045
 10
35.1839
 20
138.611
 30
-3.07823e-14
  70
    32
  0
VERTEX
  8
0
  5
3046
 10
35.1899
 20
138.638
 30
-3.07882e-14
  70
    32
  0
VERTEX
  8
0
  5
3047
 10
35.1959
 20
138.664
 30
-3.07942e-14
  70
    32
  0
VERTEX
  8
0
  5
3048
 10
35.2021
 20
138.691
 30
-3.08001e-14
  70
    32
  0
VERTEX
  8
0
  5
3049
 10
35.2083
 20
138.718
 30
-3.08060e-14
  70
    32
  0
VERTEX
  8
0
  5
304A
 10
35.2146
 20
138.744
 30
-3.08119e-14
  70
    32
  0
VERTEX
  8
0
  5
304B
 10
35.2210
 20
138.771
 30
-3.08177e-14
  70
    32
  0
VERTEX
  8
0
  5
304C
 10
35.2275
 20
138.797
 30
-3.08235e-14
  70
    32
  0
VERTEX
  8
0
  5
304D
 10
35.2340
 20
138.824
 30
-3.08293e-14
  70
    32
  0
VERTEX
  8
0
  5
304E
 10
35.2406
 20
138.850
 30
-3.08351e-14
  70
    32
  0
VERTEX
  8
0
  5
304F
 10
35.2474
 20
138.876
 30
-3.08408e-14
  70
    32
  0
VERTEX
  8
0
  5
3050
 10
35.2542
 20
138.902
 30
-3.08465e-14
  70
    32
  0
VERTEX
  8
0
  5
3051
 10
35.2610
 20
138.928
 30
-3.08522e-14
  70
    32
  0
VERTEX
  8
0
  5
3052
 10
35.2680
 20
138.954
 30
-3.08578e-14
  70
    32
  0
VERTEX
  8
0
  5
3053
 10
35.2750
 20
138.980
 30
-3.08635e-14
  70
    32
  0
VERTEX
  8
0
  5
3054
 10
35.2821
 20
139.006
 30
-3.08690e-14
  70
    32
  0
VERTEX
  8
0
  5
3055
 10
35.2893
 20
139.032
 30
-3.08746e-14
  70
    32
  0
VERTEX
  8
0
  5
3056
 10
35.2966
 20
139.057
 30
-3.08801e-14
  70
    32
  0
VERTEX
  8
0
  5
3057
 10
35.3039
 20
139.083
 30
-3.08856e-14
  70
    32
  0
VERTEX
  8
0
  5
3058
 10
35.3113
 20
139.108
 30
-3.08910e-14
  70
    32
  0
VERTEX
  8
0
  5
3059
 10
35.3188
 20
139.134
 30
-3.08965e-14
  70
    32
  0
VERTEX
  8
0
  5
305A
 10
35.3264
 20
139.159
 30
-3.09018e-14
  70
    32
  0
VERTEX
  8
0
  5
305B
 10
35.3340
 20
139.184
 30
-3.09072e-14
  70
    32
  0
VERTEX
  8
0
  5
305C
 10
35.3417
 20
139.209
 30
-3.09125e-14
  70
    32
  0
VERTEX
  8
0
  5
305D
 10
35.3495
 20
139.234
 30
-3.09178e-14
  70
    32
  0
VERTEX
  8
0
  5
305E
 10
35.3574
 20
139.259
 30
-3.09230e-14
  70
    32
  0
VERTEX
  8
0
  5
305F
 10
35.3653
 20
139.284
 30
-3.09283e-14
  70
    32
  0
VERTEX
  8
0
  5
3060
 10
35.3733
 20
139.309
 30
-3.09334e-14
  70
    32
  0
VERTEX
  8
0
  5
3061
 10
35.3814
 20
139.334
 30
-3.09386e-14
  70
    32
  0
VERTEX
  8
0
  5
3062
 10
35.3895
 20
139.359
 30
-3.09437e-14
  70
    32
  0
VERTEX
  8
0
  5
3063
 10
35.3977
 20
139.383
 30
-3.09487e-14
  70
    32
  0
VERTEX
  8
0
  5
3064
 10
35.4060
 20
139.408
 30
-3.09538e-14
  70
    32
  0
VERTEX
  8
0
  5
3065
 10
35.4143
 20
139.432
 30
-3.09589e-14
  70
    32
  0
VERTEX
  8
0
  5
3066
 10
35.4227
 20
139.456
 30
-3.09640e-14
  70
    32
  0
VERTEX
  8
0
  5
3067
 10
35.4312
 20
139.481
 30
-3.09692e-14
  70
    32
  0
VERTEX
  8
0
  5
3068
 10
35.4397
 20
139.505
 30
-3.09743e-14
  70
    32
  0
VERTEX
  8
0
  5
3069
 10
35.4483
 20
139.529
 30
-3.09796e-14
  70
    32
  0
VERTEX
  8
0
  5
306A
 10
35.4570
 20
139.553
 30
-3.09848e-14
  70
    32
  0
VERTEX
  8
0
  5
306B
 10
35.4657
 20
139.577
 30
-3.09901e-14
  70
    32
  0
VERTEX
  8
0
  5
306C
 10
35.4745
 20
139.601
 30
-3.09954e-14
  70
    32
  0
VERTEX
  8
0
  5
306D
 10
35.4833
 20
139.625
 30
-3.10007e-14
  70
    32
  0
VERTEX
  8
0
  5
306E
 10
35.4922
 20
139.648
 30
-3.10061e-14
  70
    32
  0
VERTEX
  8
0
  5
306F
 10
35.5011
 20
139.672
 30
-3.10115e-14
  70
    32
  0
VERTEX
  8
0
  5
3070
 10
35.5101
 20
139.696
 30
-3.10169e-14
  70
    32
  0
VERTEX
  8
0
  5
3071
 10
35.5192
 20
139.719
 30
-3.10223e-14
  70
    32
  0
VERTEX
  8
0
  5
3072
 10
35.5283
 20
139.742
 30
-3.10277e-14
  70
    32
  0
VERTEX
  8
0
  5
3073
 10
35.5374
 20
139.766
 30
-3.10332e-14
  70
    32
  0
VERTEX
  8
0
  5
3074
 10
35.5466
 20
139.789
 30
-3.10387e-14
  70
    32
  0
VERTEX
  8
0
  5
3075
 10
35.5559
 20
139.812
 30
-3.10442e-14
  70
    32
  0
VERTEX
  8
0
  5
3076
 10
35.5652
 20
139.835
 30
-3.10497e-14
  70
    32
  0
VERTEX
  8
0
  5
3077
 10
35.5746
 20
139.858
 30
-3.10552e-14
  70
    32
  0
VERTEX
  8
0
  5
3078
 10
35.5840
 20
139.881
 30
-3.10608e-14
  70
    32
  0
VERTEX
  8
0
  5
3079
 10
35.5935
 20
139.904
 30
-3.10663e-14
  70
    32
  0
VERTEX
  8
0
  5
307A
 10
35.6030
 20
139.927
 30
-3.10719e-14
  70
    32
  0
VERTEX
  8
0
  5
307B
 10
35.6125
 20
139.949
 30
-3.10774e-14
  70
    32
  0
VERTEX
  8
0
  5
307C
 10
35.6222
 20
139.972
 30
-3.10830e-14
  70
    32
  0
VERTEX
  8
0
  5
307D
 10
35.6318
 20
139.995
 30
-3.10886e-14
  70
    32
  0
VERTEX
  8
0
  5
307E
 10
35.6415
 20
140.017
 30
-3.10942e-14
  70
    32
  0
VERTEX
  8
0
  5
307F
 10
35.6513
 20
140.040
 30
-3.10998e-14
  70
    32
  0
VERTEX
  8
0
  5
3080
 10
35.6610
 20
140.062
 30
-3.11054e-14
  70
    32
  0
VERTEX
  8
0
  5
3081
 10
35.6709
 20
140.084
 30
-3.11110e-14
  70
    32
  0
VERTEX
  8
0
  5
3082
 10
35.6807
 20
140.106
 30
-3.11166e-14
  70
    32
  0
VERTEX
  8
0
  5
3083
 10
35.6907
 20
140.128
 30
-3.11221e-14
  70
    32
  0
VERTEX
  8
0
  5
3084
 10
35.7006
 20
140.150
 30
-3.11277e-14
  70
    32
  0
VERTEX
  8
0
  5
3085
 10
35.7106
 20
140.172
 30
-3.11333e-14
  70
    32
  0
VERTEX
  8
0
  5
3086
 10
35.7207
 20
140.194
 30
-3.11389e-14
  70
    32
  0
VERTEX
  8
0
  5
3087
 10
35.7307
 20
140.216
 30
-3.11445e-14
  70
    32
  0
VERTEX
  8
0
  5
3088
 10
35.7408
 20
140.238
 30
-3.11501e-14
  70
    32
  0
VERTEX
  8
0
  5
3089
 10
35.7510
 20
140.259
 30
-3.11556e-14
  70
    32
  0
VERTEX
  8
0
  5
308A
 10
35.7612
 20
140.281
 30
-3.11612e-14
  70
    32
  0
VERTEX
  8
0
  5
308B
 10
35.7714
 20
140.302
 30
-3.11667e-14
  70
    32
  0
VERTEX
  8
0
  5
308C
 10
35.7817
 20
140.324
 30
-3.11722e-14
  70
    32
  0
VERTEX
  8
0
  5
308D
 10
35.7920
 20
140.345
 30
-3.11777e-14
  70
    32
  0
VERTEX
  8
0
  5
308E
 10
35.8023
 20
140.367
 30
-3.11832e-14
  70
    32
  0
VERTEX
  8
0
  5
308F
 10
35.8126
 20
140.388
 30
-3.11887e-14
  70
    32
  0
VERTEX
  8
0
  5
3090
 10
35.8230
 20
140.409
 30
-3.11942e-14
  70
    32
  0
VERTEX
  8
0
  5
3091
 10
35.8334
 20
140.430
 30
-3.11996e-14
  70
    32
  0
VERTEX
  8
0
  5
3092
 10
35.8439
 20
140.451
 30
-3.12050e-14
  70
    32
  0
VERTEX
  8
0
  5
3093
 10
35.8544
 20
140.472
 30
-3.12104e-14
  70
    32
  0
VERTEX
  8
0
  5
3094
 10
35.8649
 20
140.493
 30
-3.12158e-14
  70
    32
  0
VERTEX
  8
0
  5
3095
 10
35.8754
 20
140.514
 30
-3.12212e-14
  70
    32
  0
VERTEX
  8
0
  5
3096
 10
35.8860
 20
140.534
 30
-3.12265e-14
  70
    32
  0
VERTEX
  8
0
  5
3097
 10
35.8966
 20
140.555
 30
-3.12318e-14
  70
    32
  0
VERTEX
  8
0
  5
3098
 10
35.9072
 20
140.576
 30
-3.12371e-14
  70
    32
  0
VERTEX
  8
0
  5
3099
 10
35.9178
 20
140.596
 30
-3.12423e-14
  70
    32
  0
VERTEX
  8
0
  5
309A
 10
35.9285
 20
140.616
 30
-3.12475e-14
  70
    32
  0
VERTEX
  8
0
  5
309B
 10
35.9392
 20
140.637
 30
-3.12527e-14
  70
    32
  0
VERTEX
  8
0
  5
309C
 10
35.9499
 20
140.657
 30
-3.12579e-14
  70
    32
  0
VERTEX
  8
0
  5
309D
 10
35.9607
 20
140.677
 30
-3.12630e-14
  70
    32
  0
VERTEX
  8
0
  5
309E
 10
35.9714
 20
140.698
 30
-3.12681e-14
  70
    32
  0
VERTEX
  8
0
  5
309F
 10
35.9822
 20
140.718
 30
-3.12731e-14
  70
    32
  0
VERTEX
  8
0
  5
30A0
 10
35.9930
 20
140.738
 30
-3.12781e-14
  70
    32
  0
VERTEX
  8
0
  5
30A1
 10
36.0038
 20
140.758
 30
-3.12831e-14
  70
    32
  0
VERTEX
  8
0
  5
30A2
 10
36.0147
 20
140.778
 30
-3.12880e-14
  70
    32
  0
VERTEX
  8
0
  5
30A3
 10
36.0255
 20
140.798
 30
-3.12929e-14
  70
    32
  0
VERTEX
  8
0
  5
30A4
 10
36.0364
 20
140.817
 30
-3.12978e-14
  70
    32
  0
VERTEX
  8
0
  5
30A5
 10
36.0473
 20
140.837
 30
-3.13026e-14
  70
    32
  0
VERTEX
  8
0
  5
30A6
 10
36.0582
 20
140.857
 30
-3.13073e-14
  70
    32
  0
VERTEX
  8
0
  5
30A7
 10
36.0691
 20
140.876
 30
-3.13120e-14
  70
    32
  0
VERTEX
  8
0
  5
30A8
 10
36.0801
 20
140.896
 30
-3.13167e-14
  70
    32
  0
VERTEX
  8
0
  5
30A9
 10
36.0910
 20
140.915
 30
-3.13213e-14
  70
    32
  0
VERTEX
  8
0
  5
30AA
 10
36.1020
 20
140.935
 30
-3.13259e-14
  70
    32
  0
VERTEX
  8
0
  5
30AB
 10
36.1129
 20
140.954
 30
-3.13304e-14
  70
    32
  0
VERTEX
  8
0
  5
30AC
 10
36.1239
 20
140.973
 30
-3.13348e-14
  70
    32
  0
VERTEX
  8
0
  5
30AD
 10
36.1349
 20
140.992
 30
-3.13392e-14
  70
    32
  0
VERTEX
  8
0
  5
30AE
 10
36.1459
 20
141.012
 30
-3.13436e-14
  70
    32
  0
VERTEX
  8
0
  5
30AF
 10
36.1569
 20
141.031
 30
-3.13479e-14
  70
    32
  0
VERTEX
  8
0
  5
30B0
 10
36.1680
 20
141.050
 30
-3.13521e-14
  70
    32
  0
VERTEX
  8
0
  5
30B1
 10
36.1790
 20
141.069
 30
-3.13563e-14
  70
    32
  0
VERTEX
  8
0
  5
30B2
 10
36.1900
 20
141.087
 30
-3.13604e-14
  70
    32
  0
VERTEX
  8
0
  5
30B3
 10
36.2011
 20
141.106
 30
-3.13644e-14
  70
    32
  0
VERTEX
  8
0
  5
30B4
 10
36.2121
 20
141.125
 30
-3.13684e-14
  70
    32
  0
VERTEX
  8
0
  5
30B5
 10
36.2232
 20
141.144
 30
-3.13723e-14
  70
    32
  0
VERTEX
  8
0
  5
30B6
 10
36.2342
 20
141.162
 30
-3.13762e-14
  70
    32
  0
VERTEX
  8
0
  5
30B7
 10
36.2453
 20
141.181
 30
-3.13800e-14
  70
    32
  0
VERTEX
  8
0
  5
30B8
 10
36.2563
 20
141.199
 30
-3.13837e-14
  70
    32
  0
VERTEX
  8
0
  5
30B9
 10
36.2674
 20
141.218
 30
-3.13874e-14
  70
    32
  0
VERTEX
  8
0
  5
30BA
 10
36.2785
 20
141.236
 30
-3.13910e-14
  70
    32
  0
VERTEX
  8
0
  5
30BB
 10
36.2895
 20
141.255
 30
-3.13945e-14
  70
    32
  0
VERTEX
  8
0
  5
30BC
 10
36.3006
 20
141.273
 30
-3.13979e-14
  70
    32
  0
VERTEX
  8
0
  5
30BD
 10
36.3117
 20
141.291
 30
-3.14013e-14
  70
    32
  0
VERTEX
  8
0
  5
30BE
 10
36.3227
 20
141.309
 30
-3.14046e-14
  70
    32
  0
VERTEX
  8
0
  5
30BF
 10
36.3338
 20
141.327
 30
-3.14080e-14
  70
    32
  0
VERTEX
  8
0
  5
30C0
 10
36.3448
 20
141.345
 30
-3.14113e-14
  70
    32
  0
VERTEX
  8
0
  5
30C1
 10
36.3559
 20
141.363
 30
-3.14147e-14
  70
    32
  0
VERTEX
  8
0
  5
30C2
 10
36.3669
 20
141.381
 30
-3.14181e-14
  70
    32
  0
VERTEX
  8
0
  5
30C3
 10
36.3780
 20
141.399
 30
-3.14214e-14
  70
    32
  0
VERTEX
  8
0
  5
30C4
 10
36.3890
 20
141.417
 30
-3.14248e-14
  70
    32
  0
VERTEX
  8
0
  5
30C5
 10
36.4000
 20
141.435
 30
-3.14281e-14
  70
    32
  0
VERTEX
  8
0
  5
30C6
 10
36.4110
 20
141.452
 30
-3.14315e-14
  70
    32
  0
VERTEX
  8
0
  5
30C7
 10
36.4220
 20
141.470
 30
-3.14348e-14
  70
    32
  0
VERTEX
  8
0
  5
30C8
 10
36.4330
 20
141.488
 30
-3.14382e-14
  70
    32
  0
VERTEX
  8
0
  5
30C9
 10
36.4440
 20
141.505
 30
-3.14415e-14
  70
    32
  0
VERTEX
  8
0
  5
30CA
 10
36.4550
 20
141.523
 30
-3.14449e-14
  70
    32
  0
VERTEX
  8
0
  5
30CB
 10
36.4660
 20
141.540
 30
-3.14483e-14
  70
    32
  0
VERTEX
  8
0
  5
30CC
 10
36.4770
 20
141.558
 30
-3.14516e-14
  70
    32
  0
VERTEX
  8
0
  5
30CD
 10
36.4879
 20
141.575
 30
-3.14550e-14
  70
    32
  0
VERTEX
  8
0
  5
30CE
 10
36.4989
 20
141.592
 30
-3.14583e-14
  70
    32
  0
VERTEX
  8
0
  5
30CF
 10
36.5098
 20
141.610
 30
-3.14617e-14
  70
    32
  0
VERTEX
  8
0
  5
30D0
 10
36.5208
 20
141.627
 30
-3.14650e-14
  70
    32
  0
VERTEX
  8
0
  5
30D1
 10
36.5317
 20
141.644
 30
-3.14684e-14
  70
    32
  0
VERTEX
  8
0
  5
30D2
 10
36.5426
 20
141.661
 30
-3.14717e-14
  70
    32
  0
VERTEX
  8
0
  5
30D3
 10
36.5535
 20
141.678
 30
-3.14751e-14
  70
    32
  0
VERTEX
  8
0
  5
30D4
 10
36.5643
 20
141.695
 30
-3.14785e-14
  70
    32
  0
VERTEX
  8
0
  5
30D5
 10
36.5752
 20
141.712
 30
-3.14818e-14
  70
    32
  0
VERTEX
  8
0
  5
30D6
 10
36.5861
 20
141.729
 30
-3.14852e-14
  70
    32
  0
VERTEX
  8
0
  5
30D7
 10
36.5969
 20
141.746
 30
-3.14885e-14
  70
    32
  0
VERTEX
  8
0
  5
30D8
 10
36.6077
 20
141.763
 30
-3.14919e-14
  70
    32
  0
VERTEX
  8
0
  5
30D9
 10
36.6185
 20
141.779
 30
-3.14952e-14
  70
    32
  0
VERTEX
  8
0
  5
30DA
 10
36.6293
 20
141.796
 30
-3.14986e-14
  70
    32
  0
VERTEX
  8
0
  5
30DB
 10
36.6401
 20
141.813
 30
-3.15019e-14
  70
    32
  0
VERTEX
  8
0
  5
30DC
 10
36.6509
 20
141.829
 30
-3.15053e-14
  70
    32
  0
VERTEX
  8
0
  5
30DD
 10
36.6616
 20
141.846
 30
-3.15087e-14
  70
    32
  0
VERTEX
  8
0
  5
30DE
 10
36.6723
 20
141.862
 30
-3.15120e-14
  70
    32
  0
VERTEX
  8
0
  5
30DF
 10
36.6831
 20
141.879
 30
-3.15154e-14
  70
    32
  0
VERTEX
  8
0
  5
30E0
 10
36.6937
 20
141.895
 30
-3.15187e-14
  70
    32
  0
VERTEX
  8
0
  5
30E1
 10
36.7044
 20
141.912
 30
-3.15221e-14
  70
    32
  0
VERTEX
  8
0
  5
30E2
 10
36.7151
 20
141.928
 30
-3.15254e-14
  70
    32
  0
VERTEX
  8
0
  5
30E3
 10
36.7257
 20
141.944
 30
-3.15288e-14
  70
    32
  0
VERTEX
  8
0
  5
30E4
 10
36.7363
 20
141.961
 30
-3.15322e-14
  70
    32
  0
VERTEX
  8
0
  5
30E5
 10
36.7469
 20
141.977
 30
-3.15355e-14
  70
    32
  0
VERTEX
  8
0
  5
30E6
 10
36.7575
 20
141.993
 30
-3.15389e-14
  70
    32
  0
VERTEX
  8
0
  5
30E7
 10
36.7681
 20
142.009
 30
-3.15422e-14
  70
    32
  0
VERTEX
  8
0
  5
30E8
 10
36.7786
 20
142.025
 30
-3.15456e-14
  70
    32
  0
VERTEX
  8
0
  5
30E9
 10
36.7891
 20
142.041
 30
-3.15489e-14
  70
    32
  0
VERTEX
  8
0
  5
30EA
 10
36.7996
 20
142.058
 30
-3.15523e-14
  70
    32
  0
VERTEX
  8
0
  5
30EB
 10
36.8100
 20
142.074
 30
-3.15556e-14
  70
    32
  0
VERTEX
  8
0
  5
30EC
 10
36.8205
 20
142.089
 30
-3.15590e-14
  70
    32
  0
VERTEX
  8
0
  5
30ED
 10
36.8309
 20
142.105
 30
-3.15624e-14
  70
    32
  0
VERTEX
  8
0
  5
30EE
 10
36.8413
 20
142.121
 30
-3.15657e-14
  70
    32
  0
VERTEX
  8
0
  5
30EF
 10
36.8517
 20
142.137
 30
-3.15691e-14
  70
    32
  0
VERTEX
  8
0
  5
30F0
 10
36.8620
 20
142.153
 30
-3.15724e-14
  70
    32
  0
VERTEX
  8
0
  5
30F1
 10
36.8723
 20
142.169
 30
-3.15758e-14
  70
    32
  0
VERTEX
  8
0
  5
30F2
 10
36.8826
 20
142.184
 30
-3.15791e-14
  70
    32
  0
VERTEX
  8
0
  5
30F3
 10
36.8929
 20
142.200
 30
-3.15825e-14
  70
    32
  0
VERTEX
  8
0
  5
30F4
 10
36.9031
 20
142.216
 30
-3.15858e-14
  70
    32
  0
VERTEX
  8
0
  5
30F5
 10
36.9133
 20
142.231
 30
-3.15892e-14
  70
    32
  0
VERTEX
  8
0
  5
30F6
 10
36.9235
 20
142.247
 30
-3.15926e-14
  70
    32
  0
VERTEX
  8
0
  5
30F7
 10
36.9337
 20
142.262
 30
-3.15959e-14
  70
    32
  0
VERTEX
  8
0
  5
30F8
 10
36.9438
 20
142.278
 30
-3.15993e-14
  70
    32
  0
VERTEX
  8
0
  5
30F9
 10
36.9539
 20
142.293
 30
-3.16026e-14
  70
    32
  0
VERTEX
  8
0
  5
30FA
 10
36.9640
 20
142.309
 30
-3.16060e-14
  70
    32
  0
VERTEX
  8
0
  5
30FB
 10
36.9740
 20
142.324
 30
-3.16093e-14
  70
    32
  0
VERTEX
  8
0
  5
30FC
 10
36.9840
 20
142.339
 30
-3.16127e-14
  70
    32
  0
VERTEX
  8
0
  5
30FD
 10
36.9940
 20
142.355
 30
-3.16160e-14
  70
    32
  0
VERTEX
  8
0
  5
30FE
 10
37.0039
 20
142.370
 30
-3.16194e-14
  70
    32
  0
VERTEX
  8
0
  5
30FF
 10
37.0138
 20
142.385
 30
-3.16228e-14
  70
    32
  0
VERTEX
  8
0
  5
3100
 10
37.0237
 20
142.400
 30
-3.16261e-14
  70
    32
  0
VERTEX
  8
0
  5
3101
 10
37.0336
 20
142.416
 30
-3.16295e-14
  70
    32
  0
VERTEX
  8
0
  5
3102
 10
37.0434
 20
142.431
 30
-3.16328e-14
  70
    32
  0
VERTEX
  8
0
  5
3103
 10
37.0532
 20
142.446
 30
-3.16362e-14
  70
    32
  0
VERTEX
  8
0
  5
3104
 10
37.0629
 20
142.461
 30
-3.16395e-14
  70
    32
  0
VERTEX
  8
0
  5
3105
 10
37.0726
 20
142.476
 30
-3.16429e-14
  70
    32
  0
VERTEX
  8
0
  5
3106
 10
37.0823
 20
142.491
 30
-3.16462e-14
  70
    32
  0
VERTEX
  8
0
  5
3107
 10
37.0920
 20
142.506
 30
-3.16496e-14
  70
    32
  0
VERTEX
  8
0
  5
3108
 10
37.1016
 20
142.521
 30
-3.16530e-14
  70
    32
  0
VERTEX
  8
0
  5
3109
 10
37.1111
 20
142.536
 30
-3.16563e-14
  70
    32
  0
VERTEX
  8
0
  5
310A
 10
37.1207
 20
142.551
 30
-3.16597e-14
  70
    32
  0
VERTEX
  8
0
  5
310B
 10
37.1302
 20
142.566
 30
-3.16630e-14
  70
    32
  0
VERTEX
  8
0
  5
310C
 10
37.1396
 20
142.581
 30
-3.16664e-14
  70
    32
  0
VERTEX
  8
0
  5
310D
 10
37.1491
 20
142.596
 30
-3.16697e-14
  70
    32
  0
VERTEX
  8
0
  5
310E
 10
37.1585
 20
142.610
 30
-3.16731e-14
  70
    32
  0
VERTEX
  8
0
  5
310F
 10
37.1678
 20
142.625
 30
-3.16764e-14
  70
    32
  0
VERTEX
  8
0
  5
3110
 10
37.1771
 20
142.640
 30
-3.16798e-14
  70
    32
  0
VERTEX
  8
0
  5
3111
 10
37.1864
 20
142.655
 30
-3.16832e-14
  70
    32
  0
VERTEX
  8
0
  5
3112
 10
37.1956
 20
142.669
 30
-3.16865e-14
  70
    32
  0
VERTEX
  8
0
  5
3113
 10
37.2048
 20
142.684
 30
-3.16899e-14
  70
    32
  0
VERTEX
  8
0
  5
3114
 10
37.2139
 20
142.699
 30
-3.16932e-14
  70
    32
  0
VERTEX
  8
0
  5
3115
 10
37.2230
 20
142.713
 30
-3.16966e-14
  70
    32
  0
VERTEX
  8
0
  5
3116
 10
37.2321
 20
142.728
 30
-3.16999e-14
  70
    32
  0
VERTEX
  8
0
  5
3117
 10
37.2411
 20
142.742
 30
-3.17033e-14
  70
    32
  0
VERTEX
  8
0
  5
3118
 10
37.2501
 20
142.757
 30
-3.17066e-14
  70
    32
  0
VERTEX
  8
0
  5
3119
 10
37.2590
 20
142.771
 30
-3.17100e-14
  70
    32
  0
VERTEX
  8
0
  5
311A
 10
37.2679
 20
142.786
 30
-3.17134e-14
  70
    32
  0
VERTEX
  8
0
  5
311B
 10
37.2768
 20
142.800
 30
-3.17167e-14
  70
    32
  0
VERTEX
  8
0
  5
311C
 10
37.2856
 20
142.815
 30
-3.17201e-14
  70
    32
  0
VERTEX
  8
0
  5
311D
 10
37.2944
 20
142.829
 30
-3.17234e-14
  70
    32
  0
VERTEX
  8
0
  5
311E
 10
37.3031
 20
142.844
 30
-3.17268e-14
  70
    32
  0
VERTEX
  8
0
  5
311F
 10
37.3118
 20
142.858
 30
-3.17301e-14
  70
    32
  0
VERTEX
  8
0
  5
3120
 10
37.3204
 20
142.872
 30
-3.17335e-14
  70
    32
  0
VERTEX
  8
0
  5
3121
 10
37.3290
 20
142.887
 30
-3.17368e-14
  70
    32
  0
VERTEX
  8
0
  5
3122
 10
37.3376
 20
142.901
 30
-3.17402e-14
  70
    32
  0
VERTEX
  8
0
  5
3123
 10
37.3461
 20
142.915
 30
-3.17436e-14
  70
    32
  0
VERTEX
  8
0
  5
3124
 10
37.3546
 20
142.930
 30
-3.17469e-14
  70
    32
  0
VERTEX
  8
0
  5
3125
 10
37.3630
 20
142.944
 30
-3.17503e-14
  70
    32
  0
VERTEX
  8
0
  5
3126
 10
37.3714
 20
142.958
 30
-3.17536e-14
  70
    32
  0
VERTEX
  8
0
  5
3127
 10
37.3797
 20
142.972
 30
-3.17570e-14
  70
    32
  0
VERTEX
  8
0
  5
3128
 10
37.3880
 20
142.986
 30
-3.17603e-14
  70
    32
  0
VERTEX
  8
0
  5
3129
 10
37.3963
 20
143.001
 30
-3.17637e-14
  70
    32
  0
VERTEX
  8
0
  5
312A
 10
37.4045
 20
143.015
 30
-3.17671e-14
  70
    32
  0
VERTEX
  8
0
  5
312B
 10
37.4126
 20
143.029
 30
-3.17704e-14
  70
    32
  0
VERTEX
  8
0
  5
312C
 10
37.4207
 20
143.043
 30
-3.17738e-14
  70
    32
  0
VERTEX
  8
0
  5
312D
 10
37.4288
 20
143.057
 30
-3.17771e-14
  70
    32
  0
VERTEX
  8
0
  5
312E
 10
37.4369
 20
143.071
 30
-3.17805e-14
  70
    32
  0
VERTEX
  8
0
  5
312F
 10
37.4449
 20
143.085
 30
-3.17838e-14
  70
    32
  0
VERTEX
  8
0
  5
3130
 10
37.4528
 20
143.099
 30
-3.17872e-14
  70
    32
  0
VERTEX
  8
0
  5
3131
 10
37.4607
 20
143.113
 30
-3.17905e-14
  70
    32
  0
VERTEX
  8
0
  5
3132
 10
37.4686
 20
143.127
 30
-3.17939e-14
  70
    32
  0
VERTEX
  8
0
  5
3133
 10
37.4764
 20
143.141
 30
-3.17973e-14
  70
    32
  0
VERTEX
  8
0
  5
3134
 10
37.4841
 20
143.155
 30
-3.18006e-14
  70
    32
  0
VERTEX
  8
0
  5
3135
 10
37.4919
 20
143.169
 30
-3.18040e-14
  70
    32
  0
VERTEX
  8
0
  5
3136
 10
37.4995
 20
143.183
 30
-3.18073e-14
  70
    32
  0
VERTEX
  8
0
  5
3137
 10
37.5072
 20
143.197
 30
-3.18107e-14
  70
    32
  0
VERTEX
  8
0
  5
3138
 10
37.5148
 20
143.211
 30
-3.18140e-14
  70
    32
  0
VERTEX
  8
0
  5
3139
 10
37.5223
 20
143.225
 30
-3.18174e-14
  70
    32
  0
VERTEX
  8
0
  5
313A
 10
37.5298
 20
143.239
 30
-3.18207e-14
  70
    32
  0
VERTEX
  8
0
  5
313B
 10
37.5373
 20
143.253
 30
-3.18241e-14
  70
    32
  0
VERTEX
  8
0
  5
313C
 10
37.5447
 20
143.266
 30
-3.18275e-14
  70
    32
  0
VERTEX
  8
0
  5
313D
 10
37.5520
 20
143.280
 30
-3.18308e-14
  70
    32
  0
VERTEX
  8
0
  5
313E
 10
37.5594
 20
143.294
 30
-3.18342e-14
  70
    32
  0
VERTEX
  8
0
  5
313F
 10
37.5666
 20
143.308
 30
-3.18375e-14
  70
    32
  0
VERTEX
  8
0
  5
3140
 10
37.5739
 20
143.322
 30
-3.18409e-14
  70
    32
  0
VERTEX
  8
0
  5
3141
 10
37.5811
 20
143.336
 30
-3.18442e-14
  70
    32
  0
VERTEX
  8
0
  5
3142
 10
37.5882
 20
143.350
 30
-3.18476e-14
  70
    32
  0
VERTEX
  8
0
  5
3143
 10
37.5953
 20
143.363
 30
-3.18509e-14
  70
    32
  0
VERTEX
  8
0
  5
3144
 10
37.6023
 20
143.377
 30
-3.18543e-14
  70
    32
  0
VERTEX
  8
0
  5
3145
 10
37.6093
 20
143.391
 30
-3.18577e-14
  70
    32
  0
VERTEX
  8
0
  5
3146
 10
37.6163
 20
143.405
 30
-3.18610e-14
  70
    32
  0
VERTEX
  8
0
  5
3147
 10
37.6232
 20
143.419
 30
-3.18644e-14
  70
    32
  0
VERTEX
  8
0
  5
3148
 10
37.6301
 20
143.432
 30
-3.18677e-14
  70
    32
  0
VERTEX
  8
0
  5
3149
 10
37.6369
 20
143.446
 30
-3.18711e-14
  70
    32
  0
VERTEX
  8
0
  5
314A
 10
37.6437
 20
143.460
 30
-3.18744e-14
  70
    32
  0
VERTEX
  8
0
  5
314B
 10
37.6504
 20
143.474
 30
-3.18778e-14
  70
    32
  0
VERTEX
  8
0
  5
314C
 10
37.6571
 20
143.487
 30
-3.18811e-14
  70
    32
  0
VERTEX
  8
0
  5
314D
 10
37.6637
 20
143.501
 30
-3.18845e-14
  70
    32
  0
VERTEX
  8
0
  5
314E
 10
37.6703
 20
143.515
 30
-3.18879e-14
  70
    32
  0
VERTEX
  8
0
  5
314F
 10
37.6768
 20
143.529
 30
-3.18912e-14
  70
    32
  0
VERTEX
  8
0
  5
3150
 10
37.6833
 20
143.542
 30
-3.18946e-14
  70
    32
  0
VERTEX
  8
0
  5
3151
 10
37.6897
 20
143.556
 30
-3.18979e-14
  70
    32
  0
VERTEX
  8
0
  5
3152
 10
37.6961
 20
143.570
 30
-3.19013e-14
  70
    32
  0
VERTEX
  8
0
  5
3153
 10
37.7025
 20
143.584
 30
-3.19046e-14
  70
    32
  0
VERTEX
  8
0
  5
3154
 10
37.7088
 20
143.598
 30
-3.19080e-14
  70
    32
  0
VERTEX
  8
0
  5
3155
 10
37.7150
 20
143.611
 30
-3.19113e-14
  70
    32
  0
VERTEX
  8
0
  5
3156
 10
37.7212
 20
143.625
 30
-3.19147e-14
  70
    32
  0
VERTEX
  8
0
  5
3157
 10
37.7274
 20
143.639
 30
-3.19181e-14
  70
    32
  0
VERTEX
  8
0
  5
3158
 10
37.7335
 20
143.653
 30
-3.19214e-14
  70
    32
  0
VERTEX
  8
0
  5
3159
 10
37.7396
 20
143.666
 30
-3.19248e-14
  70
    32
  0
VERTEX
  8
0
  5
315A
 10
37.7456
 20
143.680
 30
-3.19281e-14
  70
    32
  0
VERTEX
  8
0
  5
315B
 10
37.7516
 20
143.694
 30
-3.19315e-14
  70
    32
  0
VERTEX
  8
0
  5
315C
 10
37.7575
 20
143.708
 30
-3.19348e-14
  70
    32
  0
VERTEX
  8
0
  5
315D
 10
37.7634
 20
143.721
 30
-3.19382e-14
  70
    32
  0
VERTEX
  8
0
  5
315E
 10
37.7692
 20
143.735
 30
-3.19415e-14
  70
    32
  0
VERTEX
  8
0
  5
315F
 10
37.7750
 20
143.749
 30
-3.19449e-14
  70
    32
  0
VERTEX
  8
0
  5
3160
 10
37.7807
 20
143.763
 30
-3.19483e-14
  70
    32
  0
VERTEX
  8
0
  5
3161
 10
37.7864
 20
143.777
 30
-3.19516e-14
  70
    32
  0
VERTEX
  8
0
  5
3162
 10
37.7920
 20
143.790
 30
-3.19550e-14
  70
    32
  0
VERTEX
  8
0
  5
3163
 10
37.7976
 20
143.804
 30
-3.19583e-14
  70
    32
  0
VERTEX
  8
0
  5
3164
 10
37.8031
 20
143.818
 30
-3.19617e-14
  70
    32
  0
VERTEX
  8
0
  5
3165
 10
37.8086
 20
143.832
 30
-3.19650e-14
  70
    32
  0
VERTEX
  8
0
  5
3166
 10
37.8140
 20
143.846
 30
-3.19684e-14
  70
    32
  0
VERTEX
  8
0
  5
3167
 10
37.8194
 20
143.860
 30
-3.19717e-14
  70
    32
  0
VERTEX
  8
0
  5
3168
 10
37.8248
 20
143.873
 30
-3.19751e-14
  70
    32
  0
VERTEX
  8
0
  5
3169
 10
37.8301
 20
143.887
 30
-3.19785e-14
  70
    32
  0
VERTEX
  8
0
  5
316A
 10
37.8353
 20
143.901
 30
-3.19818e-14
  70
    32
  0
VERTEX
  8
0
  5
316B
 10
37.8405
 20
143.915
 30
-3.19852e-14
  70
    32
  0
VERTEX
  8
0
  5
316C
 10
37.8456
 20
143.929
 30
-3.19885e-14
  70
    32
  0
VERTEX
  8
0
  5
316D
 10
37.8507
 20
143.943
 30
-3.19919e-14
  70
    32
  0
VERTEX
  8
0
  5
316E
 10
37.8558
 20
143.957
 30
-3.19952e-14
  70
    32
  0
VERTEX
  8
0
  5
316F
 10
37.8608
 20
143.971
 30
-3.19986e-14
  70
    32
  0
VERTEX
  8
0
  5
3170
 10
37.8657
 20
143.985
 30
-3.20019e-14
  70
    32
  0
VERTEX
  8
0
  5
3171
 10
37.8706
 20
143.999
 30
-3.20053e-14
  70
    32
  0
VERTEX
  8
0
  5
3172
 10
37.8755
 20
144.013
 30
-3.20087e-14
  70
    32
  0
VERTEX
  8
0
  5
3173
 10
37.8803
 20
144.027
 30
-3.20120e-14
  70
    32
  0
VERTEX
  8
0
  5
3174
 10
37.8851
 20
144.041
 30
-3.20154e-14
  70
    32
  0
VERTEX
  8
0
  5
3175
 10
37.8898
 20
144.055
 30
-3.20187e-14
  70
    32
  0
VERTEX
  8
0
  5
3176
 10
37.8945
 20
144.069
 30
-3.20221e-14
  70
    32
  0
VERTEX
  8
0
  5
3177
 10
37.8991
 20
144.083
 30
-3.20254e-14
  70
    32
  0
VERTEX
  8
0
  5
3178
 10
37.9037
 20
144.097
 30
-3.20288e-14
  70
    32
  0
VERTEX
  8
0
  5
3179
 10
37.9082
 20
144.111
 30
-3.20322e-14
  70
    32
  0
VERTEX
  8
0
  5
317A
 10
37.9127
 20
144.125
 30
-3.20355e-14
  70
    32
  0
VERTEX
  8
0
  5
317B
 10
37.9172
 20
144.139
 30
-3.20389e-14
  70
    32
  0
VERTEX
  8
0
  5
317C
 10
37.9216
 20
144.153
 30
-3.20422e-14
  70
    32
  0
VERTEX
  8
0
  5
317D
 10
37.9259
 20
144.168
 30
-3.20456e-14
  70
    32
  0
VERTEX
  8
0
  5
317E
 10
37.9302
 20
144.182
 30
-3.20489e-14
  70
    32
  0
VERTEX
  8
0
  5
317F
 10
37.9345
 20
144.196
 30
-3.20523e-14
  70
    32
  0
VERTEX
  8
0
  5
3180
 10
37.9387
 20
144.210
 30
-3.20556e-14
  70
    32
  0
VERTEX
  8
0
  5
3181
 10
37.9429
 20
144.225
 30
-3.20590e-14
  70
    32
  0
VERTEX
  8
0
  5
3182
 10
37.9470
 20
144.239
 30
-3.20624e-14
  70
    32
  0
VERTEX
  8
0
  5
3183
 10
37.9511
 20
144.253
 30
-3.20657e-14
  70
    32
  0
VERTEX
  8
0
  5
3184
 10
37.9551
 20
144.268
 30
-3.20691e-14
  70
    32
  0
VERTEX
  8
0
  5
3185
 10
37.9590
 20
144.282
 30
-3.20724e-14
  70
    32
  0
VERTEX
  8
0
  5
3186
 10
37.9630
 20
144.297
 30
-3.20758e-14
  70
    32
  0
VERTEX
  8
0
  5
3187
 10
37.9668
 20
144.311
 30
-3.20791e-14
  70
    32
  0
VERTEX
  8
0
  5
3188
 10
37.9707
 20
144.326
 30
-3.20825e-14
  70
    32
  0
VERTEX
  8
0
  5
3189
 10
37.9744
 20
144.340
 30
-3.20858e-14
  70
    32
  0
VERTEX
  8
0
  5
318A
 10
37.9782
 20
144.355
 30
-3.20892e-14
  70
    32
  0
VERTEX
  8
0
  5
318B
 10
37.9818
 20
144.370
 30
-3.20925e-14
  70
    32
  0
VERTEX
  8
0
  5
318C
 10
37.9854
 20
144.384
 30
-3.20959e-14
  70
    32
  0
VERTEX
  8
0
  5
318D
 10
37.9890
 20
144.399
 30
-3.20993e-14
  70
    32
  0
VERTEX
  8
0
  5
318E
 10
37.9925
 20
144.414
 30
-3.21026e-14
  70
    32
  0
VERTEX
  8
0
  5
318F
 10
37.9960
 20
144.429
 30
-3.21060e-14
  70
    32
  0
VERTEX
  8
0
  5
3190
 10
37.9994
 20
144.444
 30
-3.21093e-14
  70
    32
  0
VERTEX
  8
0
  5
3191
 10
38.0028
 20
144.459
 30
-3.21127e-14
  70
    32
  0
VERTEX
  8
0
  5
3192
 10
38.0061
 20
144.473
 30
-3.21160e-14
  70
    32
  0
VERTEX
  8
0
  5
3193
 10
38.0093
 20
144.488
 30
-3.21194e-14
  70
    32
  0
VERTEX
  8
0
  5
3194
 10
38.0126
 20
144.504
 30
-3.21227e-14
  70
    32
  0
VERTEX
  8
0
  5
3195
 10
38.0157
 20
144.519
 30
-3.21261e-14
  70
    32
  0
VERTEX
  8
0
  5
3196
 10
38.0188
 20
144.534
 30
-3.21294e-14
  70
    32
  0
VERTEX
  8
0
  5
3197
 10
38.0218
 20
144.549
 30
-3.21328e-14
  70
    32
  0
VERTEX
  8
0
  5
3198
 10
38.0248
 20
144.564
 30
-3.21362e-14
  70
    32
  0
VERTEX
  8
0
  5
3199
 10
38.0278
 20
144.579
 30
-3.21395e-14
  70
    32
  0
VERTEX
  8
0
  5
319A
 10
38.0307
 20
144.595
 30
-3.21429e-14
  70
    32
  0
VERTEX
  8
0
  5
319B
 10
38.0335
 20
144.610
 30
-3.21462e-14
  70
    32
  0
VERTEX
  8
0
  5
319C
 10
38.0363
 20
144.626
 30
-3.21496e-14
  70
    32
  0
VERTEX
  8
0
  5
319D
 10
38.0390
 20
144.641
 30
-3.21529e-14
  70
    32
  0
VERTEX
  8
0
  5
319E
 10
38.0416
 20
144.657
 30
-3.21563e-14
  70
    32
  0
VERTEX
  8
0
  5
319F
 10
38.0442
 20
144.672
 30
-3.21596e-14
  70
    32
  0
VERTEX
  8
0
  5
31A0
 10
38.0468
 20
144.688
 30
-3.21630e-14
  70
    32
  0
VERTEX
  8
0
  5
31A1
 10
38.0493
 20
144.704
 30
-3.21663e-14
  70
    32
  0
VERTEX
  8
0
  5
31A2
 10
38.0517
 20
144.719
 30
-3.21697e-14
  70
    32
  0
VERTEX
  8
0
  5
31A3
 10
38.0541
 20
144.735
 30
-3.21731e-14
  70
    32
  0
VERTEX
  8
0
  5
31A4
 10
38.0564
 20
144.751
 30
-3.21764e-14
  70
    32
  0
VERTEX
  8
0
  5
31A5
 10
38.0587
 20
144.767
 30
-3.21798e-14
  70
    32
  0
VERTEX
  8
0
  5
31A6
 10
38.0609
 20
144.783
 30
-3.21831e-14
  70
    32
  0
VERTEX
  8
0
  5
31A7
 10
38.0631
 20
144.799
 30
-3.21865e-14
  70
    32
  0
VERTEX
  8
0
  5
31A8
 10
38.0652
 20
144.815
 30
-3.21898e-14
  70
    32
  0
VERTEX
  8
0
  5
31A9
 10
38.0672
 20
144.831
 30
-3.21932e-14
  70
    32
  0
VERTEX
  8
0
  5
31AA
 10
38.0692
 20
144.848
 30
-3.21965e-14
  70
    32
  0
VERTEX
  8
0
  5
31AB
 10
38.0711
 20
144.864
 30
-3.21999e-14
  70
    32
  0
VERTEX
  8
0
  5
31AC
 10
38.0729
 20
144.880
 30
-3.22032e-14
  70
    32
  0
VERTEX
  8
0
  5
31AD
 10
38.0747
 20
144.897
 30
-3.22066e-14
  70
    32
  0
VERTEX
  8
0
  5
31AE
 10
38.0765
 20
144.913
 30
-3.22099e-14
  70
    32
  0
VERTEX
  8
0
  5
31AF
 10
38.0782
 20
144.930
 30
-3.22133e-14
  70
    32
  0
VERTEX
  8
0
  5
31B0
 10
38.0798
 20
144.947
 30
-3.22166e-14
  70
    32
  0
VERTEX
  8
0
  5
31B1
 10
38.0813
 20
144.963
 30
-3.22200e-14
  70
    32
  0
VERTEX
  8
0
  5
31B2
 10
38.0828
 20
144.980
 30
-3.22233e-14
  70
    32
  0
VERTEX
  8
0
  5
31B3
 10
38.0843
 20
144.997
 30
-3.22267e-14
  70
    32
  0
VERTEX
  8
0
  5
31B4
 10
38.0857
 20
145.014
 30
-3.22300e-14
  70
    32
  0
VERTEX
  8
0
  5
31B5
 10
38.0870
 20
145.031
 30
-3.22334e-14
  70
    32
  0
VERTEX
  8
0
  5
31B6
 10
38.0882
 20
145.048
 30
-3.22367e-14
  70
    32
  0
VERTEX
  8
0
  5
31B7
 10
38.0894
 20
145.065
 30
-3.22401e-14
  70
    32
  0
VERTEX
  8
0
  5
31B8
 10
38.0905
 20
145.083
 30
-3.22435e-14
  70
    32
  0
VERTEX
  8
0
  5
31B9
 10
38.0916
 20
145.100
 30
-3.22468e-14
  70
    32
  0
VERTEX
  8
0
  5
31BA
 10
38.0926
 20
145.117
 30
-3.22502e-14
  70
    32
  0
VERTEX
  8
0
  5
31BB
 10
38.0936
 20
145.135
 30
-3.22535e-14
  70
    32
  0
VERTEX
  8
0
  5
31BC
 10
38.0944
 20
145.152
 30
-3.22569e-14
  70
    32
  0
VERTEX
  8
0
  5
31BD
 10
38.0953
 20
145.170
 30
-3.22602e-14
  70
    32
  0
VERTEX
  8
0
  5
31BE
 10
38.0960
 20
145.188
 30
-3.22636e-14
  70
    32
  0
VERTEX
  8
0
  5
31BF
 10
38.0967
 20
145.206
 30
-3.22669e-14
  70
    32
  0
VERTEX
  8
0
  5
31C0
 10
38.0973
 20
145.224
 30
-3.22703e-14
  70
    32
  0
VERTEX
  8
0
  5
31C1
 10
38.0979
 20
145.242
 30
-3.22736e-14
  70
    32
  0
VERTEX
  8
0
  5
31C2
 10
38.0984
 20
145.260
 30
-3.22770e-14
  70
    32
  0
VERTEX
  8
0
  5
31C3
 10
38.0988
 20
145.278
 30
-3.22803e-14
  70
    32
  0
VERTEX
  8
0
  5
31C4
 10
38.0992
 20
145.296
 30
-3.22837e-14
  70
    32
  0
VERTEX
  8
0
  5
31C5
 10
38.0995
 20
145.314
 30
-3.22870e-14
  70
    32
  0
VERTEX
  8
0
  5
31C6
 10
38.0997
 20
145.333
 30
-3.22904e-14
  70
    32
  0
VERTEX
  8
0
  5
31C7
 10
38.0999
 20
145.351
 30
-3.22937e-14
  70
    32
  0
VERTEX
  8
0
  5
31C8
 10
38.1000
 20
145.370
 30
-3.22971e-14
  70
    32
  0
VERTEX
  8
0
  5
31C9
 10
38.1000
 20
145.389
 30
-3.23000e-14
  70
    32
  0
SEQEND
  8
0
  5
31CA
  0
ARC
  5
2A3F
  8
0
  6
VERDECKT
 62
     1
 10
-39.875686851301559
 20
136.8887264174165068
 30
0.0
 40
4.8756868513015528
210
0.0
220
-0.0000000000000002
230
-1.0
 50
338.1631966384651946
 51
359.9999999999993179
  0
ARC
  5
2A40
  8
0
  6
VERDECKT
 62
     1
 10
39.875686851301559
 20
136.8887264174165068
 30
0.0
 40
4.875686851301551
210
0.0
220
-0.0000000000000002
230
-1.0
 50
180.0000000000005969
 51
201.8368033615348054
  0
LINE
  5
2A41
  8
0
  6
VERDECKT
 62
     1
 10
35.3498447150195716
 20
135.0751456420159116
 30
-0.00000000000003
 11
37.6076293635526326
 21
129.440780173805905
 31
-0.0000000000000287
210
0.0
220
1.0
230
-0.0000000000000002
  0
LINE
  5
2A42
  8
0
  6
VERDECKT
 62
     1
 10
-35.3498447150195716
 20
135.0751456420159116
 30
-0.00000000000003
 11
-37.6076293635526326
 21
129.440780173805905
 31
-0.0000000000000287
210
0.0
220
1.0
230
-0.0000000000000002
  0
LINE
  5
2A43
  8
0
  6
VERDECKT
 62
     1
 10
-37.6076293635526326
 20
129.440780173805905
 30
-0.0000000000000287
 11
-39.0000000000000071
 21
129.998726417416492
 31
-0.0000000000000289
210
0.0
220
1.0
230
-0.0000000000000002
  0
LINE
  5
2A44
  8
0
  6
VERDECKT
 62
     1
 10
37.6076293635526397
 20
129.440780173805905
 30
-0.0000000000000287
 11
39.0000000000000071
 21
129.998726417416492
 31
-0.0000000000000289
210
0.0
220
1.0
230
-0.0000000000000002
  0
LINE
  5
2A45
  8
0
  6
VERDECKT
 62
     1
 10
-38.0000000000001066
 20
145.3887264174165068
 30
-0.0000000000000323
 11
-38.0000000000001066
 21
166.3300000000029115
 31
-0.0000000000000369
210
0.0
220
1.0
230
-0.0000000000000002
  0
LINE
  5
2A46
  8
0
  6
VERDECKT
 62
     1
 10
38.0000000000001066
 20
145.38872641741861
 30
-0.0000000000000323
 11
38.0000000000001066
 21
166.3300000000029115
 31
-0.0000000000000369
210
0.0
220
1.0
230
-0.0000000000000002
  0
ARC
  5
2A47
  8
0
  6
VERDECKT
 62
     1
 10
-51.5999999999998877
 20
166.3300000000031105
 30
0.0
 40
13.5999999999997794
210
0.0
220
-0.0000000000000002
230
-1.0
 50
359.9999999999993747
 51
21.1831543930307298
  0
ARC
  5
2A48
  8
0
  6
VERDECKT
 62
     1
 10
51.5999999999998522
 20
166.3300000000031105
 30
0.0
 40
13.5999999999997492
210
0.0
220
-0.0000000000000002
230
-1.0
 50
158.8168456069691956
 51
180.0000000000003979
  0
ARC
  5
2A49
  8
0
  6
VERDECKT
 62
     1
 10
-17.0999999999914287
 20
179.7000000000043087
 30
0.0
 40
23.4000932431343003
210
0.0
220
-0.0000000000000002
230
-1.0
 50
179.8382525687268014
 51
201.1831543930335897
  0
ARC
  5
2A4A
  8
0
  6
VERDECKT
 62
     1
 10
17.0999999999910592
 20
179.700000000004394
 30
0.0
 40
23.4000932431346698
210
0.0
220
-0.0000000000000002
230
-1.0
 50
338.8168456069664103
 51
0.1617474312730253
  0
LINE
  5
2A4B
  8
0
  6
VERDECKT
 62
     1
 10
-40.4999999999999929
 20
179.7660589659267032
 30
-0.0000000000000399
 11
-40.4999999999999929
 21
183.7748883740974861
 31
-0.0000000000000408
210
0.0
220
1.0
230
-0.0000000000000002
  0
LINE
  5
2A4C
  8
0
  6
VERDECKT
 62
     1
 10
40.4999999999999929
 20
179.7660589659267032
 30
-0.0000000000000399
 11
40.4999999999999929
 21
183.7748883740974861
 31
-0.0000000000000408
210
0.0
220
1.0
230
-0.0000000000000002
  0
ARC
  5
2A4D
  8
0
  6
VERDECKT
 62
     1
 10
-17.0999999999992198
 20
183.7748883740974009
 30
0.0
 40
23.4000000000007802
210
0.0
220
-0.0000000000000002
230
-1.0
 50
154.9999999999965894
 51
179.9999999999996021
  0
ARC
  5
2A4E
  8
0
  6
VERDECKT
 62
     1
 10
17.0999999999992198
 20
183.7748883740974009
 30
0.0
 40
23.4000000000007802
210
0.0
220
-0.0000000000000002
230
-1.0
 50
0.0000000000003562
 51
25.0000000000033609
  0
LINE
  5
2A4F
  8
0
  6
VERDECKT
 62
     1
 10
38.0
 20
194.3238107812161957
 30
-0.0000000000000431
 11
38.3076022166569601
 21
193.6641556988313937
 31
-0.000000000000043
210
0.0
220
1.0
230
-0.0000000000000002
  0
LINE
  5
2A50
  8
0
  6
VERDECKT
 62
     1
 10
-38.0
 20
194.3238107812161957
 30
-0.0000000000000431
 11
-38.3076022166569601
 21
193.6641556988313937
 31
-0.000000000000043
210
0.0
220
1.0
230
-0.0000000000000002
  0
LINE
  5
2A51
  8
0
  6
VERDECKT
 62
     1
 10
-38.0000000000000071
 20
194.3238107812161104
 30
-0.0000000000000431
 11
-39.4500924592586131
 21
195.0000000000013927
 31
-0.0000000000000433
210
0.0
220
1.0
230
-0.0000000000000002
  0
LINE
  5
2A52
  8
0
  6
VERDECKT
 62
     1
 10
38.0000000000000071
 20
194.3238107812161104
 30
-0.0000000000000431
 11
39.4500924592586983
 21
195.0000000000013927
 31
-0.0000000000000433
210
0.0
220
1.0
230
-0.0000000000000002
  0
ENDBLK
  5
2A54
  8
0
  0
BLOCK
  8
0
  2
A$C205515A2
 70
     0
 10
0.0
 20
0.0
 30
0.0
  3
A$C205515A2
  1

  0
CIRCLE
  5
2A58
  8
0
  6
CONTINUOUS
 62
     3
 10
0.0000000000000214
 20
0.0000000000000219
 30
0.0
 40
51.0
  0
CIRCLE
  5
2A59
  8
0
  6
CONTINUOUS
 62
     3
 10
0.0000000000000304
 20
0.0000000000000208
 30
0.0
 40
35.0000000000000071
  0
CIRCLE
  5
2A5A
  8
0
  6
CONTINUOUS
 62
     3
 10
0.0000000000000433
 20
0.0000000000000262
 30
0.0
 40
39.4500924592585989
  0
CIRCLE
  5
2A5B
  8
0
  6
CONTINUOUS
 62
     3
 10
0.0000000000000408
 20
0.0000000000000255
 30
0.0
 40
42.1000000000000227
  0
CIRCLE
  5
2A5C
  8
0
  6
CONTINUOUS
 62
     3
 10
0.0000000000000431
 20
0.0000000000000261
 30
0.0
 40
38.0
  0
CIRCLE
  5
2A5D
  8
0
  6
CONTINUOUS
 62
     3
 10
0.0000000000000399
 20
0.0000000000000252
 30
0.0
 40
42.1000932431257269
  0
CIRCLE
  5
2A5E
  8
0
  6
VERDECKT
 62
     1
 10
0.0000000000000214
 20
0.0000000000000219
 30
0.0
 40
49.0
  0
CIRCLE
  5
2A5F
  8
0
  6
VERDECKT
 62
     1
 10
0.0000000000000287
 20
0.0000000000000239
 30
0.0
 40
37.1305655825773897
  0
CIRCLE
  5
2A60
  8
0
  6
VERDECKT
 62
     1
 10
0.0000000000000289
 20
0.0000000000000239
 30
0.0
 40
39.0
  0
CIRCLE
  5
2A61
  8
0
  6
VERDECKT
 62
     1
 10
0.0
 20
0.0000000000000376
 30
0.0
 40
48.1327239685572223
  0
CIRCLE
  5
2A62
  8
0
  6
VERDECKT
 62
     1
 10
0.0
 20
0.0000000000000376
 30
0.0
 40
50.125113364740848
  0
CIRCLE
  5
2A63
  8
0
  6
VERDECKT
 62
     1
 10
0.0000000000000323
 20
0.0000000000000213
 30
0.0
 40
38.1000000000000227
  0
CIRCLE
  5
2A64
  8
0
  6
VERDECKT
 62
     1
 10
0.0000000000000287
 20
0.0000000000000203
 30
0.0
 40
37.6076293635526326
  0
CIRCLE
  5
2A65
  8
0
  6
VERDECKT
 62
     1
 10
0.0000000000000289
 20
0.0000000000000204
 30
0.0
 40
39.0
  0
CIRCLE
  5
2A66
  8
0
  6
VERDECKT
 62
     1
 10
0.0000000000000304
 20
0.0000000000000208
 30
0.0
 40
36.5000000000000071
  0
CIRCLE
  5
2A67
  8
0
  6
VERDECKT
 62
     1
 10
0.0000000000000369
 20
0.0000000000000244
 30
0.0
 40
39.6000000000000227
  0
CIRCLE
  5
2A68
  8
0
  6
VERDECKT
 62
     1
 10
0.0000000000000408
 20
0.0000000000000255
 30
0.0
 40
40.4999999999999929
  0
CIRCLE
  5
2A69
  8
0
  6
VERDECKT
 62
     1
 10
0.0000000000000399
 20
0.0000000000000252
 30
0.0
 40
40.5000932431257326
  0
ENDBLK
  5
2A6B
  8
0
  0
ENDSEC
  0
SECTION
  2
ENTITIES
  0
INSERT
  5
238F
  8
ADSK_ASSOC_ENTITY_BACKUPS
  2
*S3
 10
0.0
 20
0.0
 30
0.0
  0
INSERT
  5
2A55
  8
DEFPOINTS
  2
A$C7BBB6D61
 10
-0.0000000000000289
 20
120.0
 30
0.0
  0
INSERT
  5
2A6C
  8
DEFPOINTS
  2
A$C205515A2
 10
-0.0000000000000289
 20
-0.0000000000000204
 30
0.0
  0
VIEWPORT
  5
1EDB
 67
     1
  8
0
 10
205.8293567617359088
 20
-90.2199680604234118
 30
0.0
 40
1481.6547513758710011
 41
813.0105558831703547
 68
     1
 69
     1
1001
ACAD
1000
MVIEW
1002
{
1070
    16
1010
0.0
1020
0.0
1030
0.0
1010
0.0
1020
0.0
1030
1.0
1040
0.0
1040
813.0105558831703547
1040
205.8293567617359088
1040
-90.2199680604234118
1040
50.0
1040
0.0
1040
0.0
1070
     0
1070
  1500
1070
     1
1070
     1
1070
     0
1070
     0
1070
     0
1070
     0
1040
0.0
1040
0.0
1040
0.0
1040
10.0
1040
10.0
1040
10.0
1040
10.0
1070
     0
1002
{
1002
}
1002
}
  0
ENDSEC
  0
EOF
