  0
SECTION
  2
HEADER
  9
$ACADVER
  1
AC1009
  9
$INSBASE
 10
0.0
 20
0.0
 30
0.0
  9
$EXTMIN
 10
-36.4999999999999574
 20
-36.4999999999999503
 30
-0.0000000000000355
  9
$EXTMAX
 10
168.2243712703221092
 20
233.487230951476306
 30
150.0
  9
$LIMMIN
 10
0.0
 20
0.0
  9
$LIMMAX
 10
210.0
 20
297.0
  9
$ORTHOMODE
 70
     1
  9
$REGENMODE
 70
     1
  9
$FILLMODE
 70
     1
  9
$QTEXTMODE
 70
     0
  9
$MIRRTEXT
 70
     1
  9
$DRAGMODE
 70
     2
  9
$LTSCALE
 40
10.0
  9
$OSMODE
 70
   183
  9
$ATTMODE
 70
     1
  9
$TEXTSIZE
 40
3.5
  9
$TRACEWID
 40
0.5
  9
$TEXTSTYLE
  7
STANDARD
  9
$CLAYER
  8
STEMPEL
  9
$CELTYPE
  6
BYLAYER
  9
$CECOLOR
 62
   256
  9
$DIMSCALE
 40
1.0
  9
$DIMASZ
 40
3.5
  9
$DIMEXO
 40
1.0
  9
$DIMDLI
 40
7.0
  9
$DIMRND
 40
0.0
  9
$DIMDLE
 40
0.0
  9
$DIMEXE
 40
1.0
  9
$DIMTP
 40
0.0
  9
$DIMTM
 40
0.0
  9
$DIMTXT
 40
3.5
  9
$DIMCEN
 40
1.5
  9
$DIMTSZ
 40
0.0
  9
$DIMTOL
 70
     0
  9
$DIMLIM
 70
     0
  9
$DIMTIH
 70
     0
  9
$DIMTOH
 70
     0
  9
$DIMSE1
 70
     0
  9
$DIMSE2
 70
     0
  9
$DIMTAD
 70
     1
  9
$DIMZIN
 70
     8
  9
$DIMBLK
  1

  9
$DIMASO
 70
     1
  9
$DIMSHO
 70
     0
  9
$DIMPOST
  1

  9
$DIMAPOST
  1

  9
$DIMALT
 70
     0
  9
$DIMALTD
 70
     2
  9
$DIMALTF
 40
25.3999999999999986
  9
$DIMLFAC
 40
1.0
  9
$DIMTOFL
 70
     1
  9
$DIMTVP
 40
0.0
  9
$DIMTIX
 70
     0
  9
$DIMSOXD
 70
     0
  9
$DIMSAH
 70
     0
  9
$DIMBLK1
  1

  9
$DIMBLK2
  1

  9
$DIMSTYLE
  2
STANDARD
  9
$DIMCLRD
 70
     0
  9
$DIMCLRE
 70
     0
  9
$DIMCLRT
 70
     1
  9
$DIMTFAC
 40
0.5142857142857143
  9
$DIMGAP
 40
1.5
  9
$LUNITS
 70
     2
  9
$LUPREC
 70
     2
  9
$SKETCHINC
 40
1.0
  9
$FILLETRAD
 40
10.0
  9
$AUNITS
 70
     0
  9
$AUPREC
 70
     0
  9
$MENU
  1
ACAD
  9
$ELEVATION
 40
0.0
  9
$PELEVATION
 40
0.0
  9
$THICKNESS
 40
0.0
  9
$LIMCHECK
 70
     0
  9
$BLIPMODE
 70
     0
  9
$CHAMFERA
 40
0.0
  9
$CHAMFERB
 40
0.0
  9
$SKPOLY
 70
     0
  9
$TDCREATE
 40
2455397.8646990740671754
  9
$TDUPDATE
 40
2458373.4572106478735805
  9
$TDINDWG
 40
0.2195840046
  9
$TDUSRTIMER
 40
0.2195840046
  9
$USRTIMER
 70
     1
  9
$ANGBASE
 50
0.0
  9
$ANGDIR
 70
     0
  9
$PDMODE
 70
     0
  9
$PDSIZE
 40
0.0
  9
$PLINEWID
 40
0.0
  9
$COORDS
 70
     1
  9
$SPLFRAME
 70
     0
  9
$SPLINETYPE
 70
     6
  9
$SPLINESEGS
 70
     8
  9
$ATTDIA
 70
     1
  9
$ATTREQ
 70
     1
  9
$HANDLING
 70
     1
  9
$HANDSEED
  5
1855
  9
$SURFTAB1
 70
     6
  9
$SURFTAB2
 70
     6
  9
$SURFTYPE
 70
     6
  9
$SURFU
 70
     6
  9
$SURFV
 70
     6
  9
$UCSNAME
  2

  9
$UCSORG
 10
0.0
 20
0.0
 30
0.0
  9
$UCSXDIR
 10
1.0
 20
0.0
 30
0.0
  9
$UCSYDIR
 10
0.0
 20
1.0
 30
0.0
  9
$PUCSNAME
  2

  9
$PUCSORG
 10
0.0
 20
0.0
 30
0.0
  9
$PUCSXDIR
 10
1.0
 20
0.0
 30
0.0
  9
$PUCSYDIR
 10
0.0
 20
1.0
 30
0.0
  9
$USERI1
 70
     0
  9
$USERI2
 70
     0
  9
$USERI3
 70
     0
  9
$USERI4
 70
     0
  9
$USERI5
 70
     0
  9
$USERR1
 40
0.0
  9
$USERR2
 40
0.0
  9
$USERR3
 40
0.0
  9
$USERR4
 40
0.0
  9
$USERR5
 40
0.0
  9
$WORLDVIEW
 70
     1
  9
$SHADEDGE
 70
     3
  9
$SHADEDIF
 70
    70
  9
$TILEMODE
 70
     1
  9
$MAXACTVP
 70
    16
  9
$PLIMCHECK
 70
     0
  9
$PEXTMIN
 10
-0.0123550284664589
 20
-0.0109703806738253
 30
-8.0689806636678441
  9
$PEXTMAX
 10
198.7451789614725044
 20
290.954539516335501
 30
403.1424373807523125
  9
$PLIMMIN
 10
-5.073724410925827
 20
-2.2332173356945169
  9
$PLIMMAX
 10
203.8065473712574089
 20
293.1767850957460837
  9
$UNITMODE
 70
     0
  9
$VISRETAIN
 70
     0
  9
$PLINEGEN
 70
     0
  9
$PSLTSCALE
 70
     0
  0
ENDSEC
  0
SECTION
  2
TABLES
  0
TABLE
  2
VPORT
 70
     1
  0
VPORT
  2
*ACTIVE
 70
     0
 10
0.0
 20
0.0
 11
1.0
 21
1.0
 12
0.0
 22
0.0
 13
0.0
 23
0.0
 14
1.0
 24
1.0
 15
10.0
 25
10.0
 16
-0.000000000000199
 26
0.0
 36
873.4547484539892821
 17
45.157657237784619
 27
73.2985743905727105
 37
-0.0000000000000047
 40
352.9514428017972136
 41
1.8224299065420559
 42
50.0
 43
0.0
 44
0.0
 50
0.0
 51
0.0
 71
     0
 72
  1500
 73
     1
 74
     0
 75
     0
 76
     0
 77
     0
 78
     0
  0
ENDTAB
  0
TABLE
  2
LTYPE
 70
     6
  0
LTYPE
  2
CONTINUOUS
 70
     0
  3
Solid line
 72
    65
 73
     0
 40
0.0
  0
LTYPE
  2
VERDECKT
 70
     0
  3
Verdeckt __ __ __ __ __ __ __ __ __ __ __ __ __
 72
    65
 73
     2
 40
0.375
 49
0.25
 49
-0.125
  0
ENDTAB
  0
TABLE
  2
LAYER
 70
    13
  0
LAYER
  2
0
 70
     0
 62
     7
  6
CONTINUOUS
  0
LAYER
  2
STEMPEL
 70
     0
 62
     3
  6
CONTINUOUS
  0
LAYER
  2
ADSK_ASSOC_ENTITY_BACKUPS
 70
     1
 62
    -7
  6
CONTINUOUS
  0
ENDTAB
  0
TABLE
  2
STYLE
 70
     4
  0
STYLE
  2
STANDARD
 70
     0
 40
0.0
 41
0.8
 50
0.0
 71
     0
 42
3.5
  3
simplex.shx
  4

  0
ENDTAB
  0
TABLE
  2
VIEW
 70
     1
  0
ENDTAB
  0
TABLE
  2
UCS
 70
     0
  0
ENDTAB
  0
TABLE
  2
APPID
 70
    17
  0
APPID
  2
ACAD
 70
     0
  0
APPID
  2
ACAECLAYERSTANDARD
 70
     0
  0
APPID
  2
ACCMTRANSPARENCY
 70
     0
  0
APPID
  2
ACAD_STEPID
 70
     0
  0
APPID
  2
ACAD_ASSOCPERSSUBENTMANAGER
 70
     0
  0
APPID
  2
ACAD_NAV_VCDISPLAY
 70
     0
  0
APPID
  2
ACAD_PSEXT
 70
     0
  0
APPID
  2
ACAD_MLEADERVER
 70
     0
  0
APPID
  2
ACAD_OBJECT_CHANGE_GUID
 70
     0
  0
APPID
  2
PLOTTRANSPARENCY
 70
     0
  0
APPID
  2
ACAD_EXEMPT_FROM_CAD_STANDARDS
 70
     0
  0
APPID
  2
ACSYNERGY
 70
     0
  0
APPID
  2
SYNERGY_BODY_TBR_ID
 70
     0
  0
APPID
  2
ACAD_VIEW_EDGE_ID
 70
     0
  0
APPID
  2
ACADANNOMONITORALERTICONDI
 70
     0
  0
APPID
  2
ACADANNOPO
 70
     0
  0
APPID
  2
AcDbAttr
 70
     0
  0
ENDTAB
  0
TABLE
  2
DIMSTYLE
 70
     2
  0
DIMSTYLE
  2
STANDARD
 70
     0
  3

  4

  5

  6

  7

 40
1.0
 41
0.18
 42
0.0625
 43
0.38
 44
0.18
 45
0.0
 46
0.0
 47
0.0
 48
0.0
140
0.18
141
0.09
142
0.0
143
25.3999999999999986
144
1.0
145
0.0
146
1.0
147
0.09
 71
     0
 72
     0
 73
     1
 74
     1
 75
     0
 76
     0
 77
     0
 78
     0
170
     0
171
     2
172
     0
173
     0
174
     0
175
     0
176
     0
177
     0
178
     0
  0
ENDTAB
  0
ENDSEC
  0
SECTION
  2
BLOCKS
  0
BLOCK
  8
0
  2
$MODEL_SPACE
 70
     0
 10
0.0
 20
0.0
 30
0.0
  3
$MODEL_SPACE
  1

  0
ENDBLK
  5
36
  8
0
  0
BLOCK
 67
     1
  8
0
  2
$PAPER_SPACE
 70
     0
 10
0.0
 20
0.0
 30
0.0
  3
$PAPER_SPACE
  1

  0
ENDBLK
  5
34
 67
     1
  8
0
  0
BLOCK
  8
0
  2
*S3
 70
     1
 10
0.0
 20
0.0
 30
0.0
  3
*S3
  1

  0
ENDBLK
  5
ED6
  8
0
  0
BLOCK
  8
0
  2
A$C3EC73633
 70
     0
 10
0.0
 20
0.0
 30
0.0
  3
A$C3EC73633
  1

  0
CIRCLE
  5
17A6
  8
0
  6
CONTINUOUS
 62
     3
 10
0.000000000000013
 20
0.0000000000000105
 30
0.0
 40
36.4999999999999503
  0
CIRCLE
  5
17A7
  8
0
  6
CONTINUOUS
 62
     3
 10
0.000000000000019
 20
0.0000000000000121
 30
0.0
 40
26.4999999999999503
  0
CIRCLE
  5
17A8
  8
0
  6
CONTINUOUS
 62
     3
 10
0.0000000000000336
 20
0.0000000000000161
 30
0.0
 40
24.1476030003185009
  0
CIRCLE
  5
17A9
  8
0
  6
CONTINUOUS
 62
     3
 10
0.0000000000000259
 20
0.000000000000014
 30
0.0
 40
19.5000000000000604
  0
CIRCLE
  5
17AA
  8
0
  6
CONTINUOUS
 62
     3
 10
0.0000000000000336
 20
0.0000000000000161
 30
0.0
 40
22.4981434521662891
  0
CIRCLE
  5
17AB
  8
0
  6
CONTINUOUS
 62
     3
 10
0.000000000000019
 20
0.0000000000000121
 30
0.0
 40
26.4999999999999503
  0
CIRCLE
  5
17AC
  8
0
  6
CONTINUOUS
 62
     3
 10
0.0000000000000321
 20
0.0000000000000157
 30
0.0
 40
25.5000000076649016
  0
CIRCLE
  5
17AD
  8
0
  6
VERDECKT
 62
     1
 10
0.000000000000013
 20
0.0000000000000105
 30
0.0
 40
34.8999999999999488
  0
CIRCLE
  5
17AE
  8
0
  6
VERDECKT
 62
     1
 10
0.0000000000000189
 20
0.0000000000000121
 30
0.0
 40
25.01443729458353
  0
CIRCLE
  5
17AF
  8
0
  6
VERDECKT
 62
     1
 10
0.0000000000000022
 20
0.0000000000000075
 30
0.0
 40
34.8938882599304776
  0
CIRCLE
  5
17B0
  8
0
  6
VERDECKT
 62
     1
 10
0.0
 20
0.0000000000000069
 30
0.0
 40
35.6251133647407414
  0
CIRCLE
  5
17B1
  8
0
  6
VERDECKT
 62
     1
 10
0.0
 20
0.0000000000000069
 30
0.0
 40
34.0190016246713824
  0
CIRCLE
  5
17B2
  8
0
  6
VERDECKT
 62
     1
 10
0.0000000000000289
 20
0.0000000000000148
 30
0.0
 40
24.0
  0
CIRCLE
  5
17B3
  8
0
  6
VERDECKT
 62
     1
 10
0.0000000000000259
 20
0.000000000000014
 30
0.0
 40
21.0000000000000604
  0
CIRCLE
  5
17B4
  8
0
  6
VERDECKT
 62
     1
 10
0.0000000000000289
 20
0.0000000000000148
 30
0.0
 40
22.5
  0
CIRCLE
  5
17B5
  8
0
  6
VERDECKT
 62
     1
 10
0.0000000000000311
 20
0.0000000000000154
 30
0.0
 40
23.9937639444909188
  0
CIRCLE
  5
17B6
  8
0
  6
VERDECKT
 62
     1
 10
0.0000000000000189
 20
0.0000000000000121
 30
0.0
 40
25.0916855261700285
  0
CIRCLE
  5
17B7
  8
0
  6
VERDECKT
 62
     1
 10
0.000000000000031
 20
0.0000000000000154
 30
0.0
 40
23.9998448162652807
  0
CIRCLE
  5
17B8
  8
0
  6
VERDECKT
 62
     1
 10
0.0000000000000321
 20
0.0000000000000157
 30
0.0
 40
24.0000136051152815
  0
ENDBLK
  5
17BA
  8
0
  0
BLOCK
  8
0
  2
A$C32430349
 70
     0
 10
0.0
 20
0.0
 30
0.0
  3
A$C32430349
  1

  0
LINE
  5
17BE
  8
0
  6
CONTINUOUS
 62
     3
 10
26.4999999999999503
 20
85.0000000000000142
 30
-0.0000000000000189
 11
-26.4999999999999503
 21
85.0000000000000142
 31
-0.0000000000000189
210
0.0
220
1.0
230
-0.0000000000000002
  0
LINE
  5
17BF
  8
0
  6
CONTINUOUS
 62
     3
 10
-35.6251133647407414
 20
0.0
 30
0.0
 11
35.6251133647407414
 21
0.0
 31
0.0
210
0.0
220
1.0
230
-0.0000000000000002
  0
LINE
  5
17C0
  8
0
  6
CONTINUOUS
 62
     3
 10
-36.4999999999999503
 20
10.0000000000001101
 30
-0.0000000000000022
 11
-36.4999999999999503
 21
58.0741759643274378
 31
-0.0000000000000129
210
0.0
220
1.0
230
-0.0000000000000002
  0
LINE
  5
17C1
  8
0
  6
CONTINUOUS
 62
     3
 10
36.4999999999999503
 20
10.0000000000001101
 30
-0.0000000000000022
 11
36.4999999999999503
 21
58.0741759643274378
 31
-0.0000000000000129
210
0.0
220
1.0
230
-0.0000000000000002
  0
ARC
  5
17C2
  8
0
  6
CONTINUOUS
 62
     3
 10
-26.4999999999996483
 20
58.0741759643274023
 30
0.0
 40
10.0000000000003002
210
0.0
220
-0.0000000000000002
230
-1.0
 50
158.1985905136484973
 51
179.999999999999801
  0
ARC
  5
17C3
  8
0
  6
CONTINUOUS
 62
     3
 10
26.4999999999997016
 20
58.0741759643274094
 30
0.0
 40
10.0000000000002398
210
0.0
220
-0.0000000000000002
230
-1.0
 50
0.0000000000001654
 51
21.8014094863514813
  0
LINE
  5
17C4
  8
0
  6
CONTINUOUS
 62
     3
 10
26.4999999999999503
 20
85.0000000000000142
 30
-0.0000000000000189
 11
35.7847669088525535
 21
61.7880827278684919
 31
-0.0000000000000137
210
0.0
220
1.0
230
-0.0000000000000002
  0
LINE
  5
17C5
  8
0
  6
CONTINUOUS
 62
     3
 10
-26.4999999999999503
 20
85.0000000000000142
 30
-0.0000000000000189
 11
-35.7847669088525535
 21
61.7880827278684919
 31
-0.0000000000000137
210
0.0
220
1.0
230
-0.0000000000000002
  0
LINE
  5
17C6
  8
0
  6
CONTINUOUS
 62
     3
 10
-35.625113364740713
 20
0.0000000000000027
 30
0.0
 11
-36.4999999999999076
 21
10.0000000000001208
 31
-0.0000000000000022
210
0.0
220
1.0
230
-0.0000000000000002
  0
LINE
  5
17C7
  8
0
  6
CONTINUOUS
 62
     3
 10
35.625113364740713
 20
0.0000000000000027
 30
0.0
 11
36.4999999999999076
 21
10.0000000000001208
 31
-0.0000000000000022
210
0.0
220
1.0
230
-0.0000000000000002
  0
LINE
  5
17C8
  8
0
  6
CONTINUOUS
 62
     3
 10
-24.1476030003184903
 20
150.0
 30
-0.0000000000000333
 11
24.1476030003184903
 21
150.0
 31
-0.0000000000000333
210
0.0
220
1.0
230
-0.0000000000000002
  0
LINE
  5
17C9
  8
0
  6
CONTINUOUS
 62
     3
 10
26.4999999999999503
 20
85.0000000000000142
 30
-0.0000000000000189
 11
-26.4999999999999503
 21
85.0000000000000142
 31
-0.0000000000000189
210
0.0
220
1.0
230
-0.0000000000000002
  0
ARC
  5
17CA
  8
0
  6
CONTINUOUS
 62
     3
 10
9.0024327456481323
 20
143.4583225758360925
 30
0.0
 40
16.4975672620167586
210
0.0
220
-0.0000000000000002
230
-1.0
 50
359.9982534496210747
 51
23.3610410950219105
  0
ARC
  5
17CB
  8
0
  6
CONTINUOUS
 62
     3
 10
-9.0024327456480471
 20
143.4583225758360925
 30
0.0
 40
16.4975672620168403
210
0.0
220
-0.0000000000000002
230
-1.0
 50
156.6389589049782103
 51
180.0017465503788969
  0
LINE
  5
17CC
  8
0
  6
CONTINUOUS
 62
     3
 10
-25.4998448162652984
 20
138.366999999999905
 30
-0.0000000000000307
 11
-25.5
 21
143.4578196795914948
 31
-0.0000000000000319
210
0.0
220
1.0
230
-0.0000000000000002
  0
LINE
  5
17CD
  8
0
  6
CONTINUOUS
 62
     3
 10
25.4998448162652984
 20
138.366999999999905
 30
-0.0000000000000307
 11
25.5
 21
143.4578196795914948
 31
-0.0000000000000319
210
0.0
220
1.0
230
-0.0000000000000002
  0
ARC
  5
17CE
  8
0
  6
CONTINUOUS
 62
     3
 10
5.4999999999976188
 20
138.3670000000003029
 30
0.0
 40
19.9998448162676716
210
0.0
220
-0.0000000000000002
230
-1.0
 50
341.8060294016160015
 51
359.99999999999892
  0
ARC
  5
17CF
  8
0
  6
CONTINUOUS
 62
     3
 10
-5.4999999999976232
 20
138.3670000000003029
 30
0.0
 40
19.9998448162676716
210
0.0
220
-0.0000000000000002
230
-1.0
 50
180.0000000000009948
 51
198.1939705983839133
  0
ARC
  5
17D0
  8
0
  6
CONTINUOUS
 62
     3
 10
34.0000000000014282
 20
128.9999999999996874
 30
0.0
 40
10.0000000000014193
210
0.0
220
-0.0000000000000002
230
-1.0
 50
161.8060294016181047
 51
179.9999999999986073
  0
ARC
  5
17D1
  8
0
  6
CONTINUOUS
 62
     3
 10
-34.0000000000016911
 20
128.9999999999996874
 30
0.0
 40
10.0000000000016893
210
0.0
220
-0.0000000000000002
230
-1.0
 50
0.0000000000016284
 51
18.1939705983816609
  0
LINE
  5
17D2
  8
0
  6
CONTINUOUS
 62
     3
 10
24.0
 20
129.0
 30
-0.0000000000000286
 11
24.0
 21
124.8218253804964064
 31
-0.0000000000000277
210
0.0
220
1.0
230
-0.0000000000000002
  0
LINE
  5
17D3
  8
0
  6
CONTINUOUS
 62
     3
 10
-24.0
 20
129.0
 30
-0.0000000000000286
 11
-24.0
 21
124.8218253804964064
 31
-0.0000000000000277
210
0.0
220
1.0
230
-0.0000000000000002
  0
ARC
  5
17D4
  8
0
  6
CONTINUOUS
 62
     3
 10
14.0000000000014708
 20
124.8218253804957953
 30
0.0
 40
9.9999999999985274
210
0.0
220
-0.0000000000000002
230
-1.0
 50
324.340912303859227
 51
0.0000000000032632
  0
ARC
  5
17D5
  8
0
  6
CONTINUOUS
 62
     3
 10
-14.0000000000014708
 20
124.8218253804957953
 30
0.0
 40
9.9999999999985327
210
0.0
220
-0.0000000000000002
230
-1.0
 50
179.9999999999967031
 51
215.6590876961408014
  0
ARC
  5
17D6
  8
0
  6
CONTINUOUS
 62
     3
 10
26.9999999999996589
 20
115.4944463274076014
 30
0.0
 40
5.9999999999996607
210
0.0
220
-0.0000000000000002
230
-1.0
 50
144.3409123038591986
 51
179.9999999999996021
  0
ARC
  5
17D7
  8
0
  6
CONTINUOUS
 62
     3
 10
-26.9999999999996589
 20
115.4944463274076014
 30
0.0
 40
5.9999999999996581
210
0.0
220
-0.0000000000000002
230
-1.0
 50
0.0000000000004071
 51
35.6590876961407872
  0
LINE
  5
17D8
  8
0
  6
CONTINUOUS
 62
     3
 10
21.3667421046803909
 20
98.9997942599627834
 30
-0.000000000000022
 11
26.4999999999999503
 21
85.0000000000000142
 31
-0.0000000000000189
210
0.0
220
1.0
230
-0.0000000000000002
  0
LINE
  5
17D9
  8
0
  6
CONTINUOUS
 62
     3
 10
-21.3667421046803909
 20
98.9997942599627834
 30
-0.000000000000022
 11
-26.4999999999999503
 21
85.0000000000000142
 31
-0.0000000000000189
210
0.0
220
1.0
230
-0.0000000000000002
  0
ARC
  5
17DA
  8
0
  6
CONTINUOUS
 62
     3
 10
-26.9999999999998685
 20
101.0653221549132041
 30
0.0
 40
5.9999999999998153
210
0.0
220
-0.0000000000000002
230
-1.0
 50
339.8636965717519161
 51
0.0000000000001386
  0
ARC
  5
17DB
  8
0
  6
CONTINUOUS
 62
     3
 10
26.9999999999998685
 20
101.0653221549132041
 30
0.0
 40
5.9999999999998108
210
0.0
220
-0.0000000000000002
230
-1.0
 50
179.999999999999801
 51
200.1363034282481124
  0
LINE
  5
17DC
  8
0
  6
CONTINUOUS
 62
     3
 10
-21.0000000000000604
 20
101.0653221549133036
 30
-0.0000000000000224
 11
-21.0000000000000604
 21
115.4944463274076014
 31
-0.0000000000000256
210
0.0
220
1.0
230
-0.0000000000000002
  0
LINE
  5
17DD
  8
0
  6
CONTINUOUS
 62
     3
 10
21.0000000000000604
 20
101.0653221549133036
 30
-0.0000000000000224
 11
21.0000000000000604
 21
115.4944463274076014
 31
-0.0000000000000256
210
0.0
220
1.0
230
-0.0000000000000002
  0
LINE
  5
17DE
  8
0
  6
VERDECKT
 62
     1
 10
34.8999999999999773
 20
10.0000000000001297
 30
-0.0000000000000022
 11
-34.8999999999999773
 21
10.0000000000001297
 31
-0.0000000000000022
210
0.0
220
1.0
230
-0.0000000000000002
  0
LINE
  5
17DF
  8
0
  6
VERDECKT
 62
     1
 10
25.0144372945835016
 20
84.4057749178334547
 30
-0.0000000000000187
 11
-25.0144372945835016
 21
84.4057749178334547
 31
-0.0000000000000187
210
0.0
220
1.0
230
-0.0000000000000002
  0
ARC
  5
17E0
  8
0
  6
VERDECKT
 62
     1
 10
-26.5000000000002309
 20
58.0741759643274591
 30
0.0
 40
8.3999999999997161
210
0.0
220
-0.0000000000000002
230
-1.0
 50
158.1985905136477868
 51
180.0000000000001137
  0
ARC
  5
17E1
  8
0
  6
VERDECKT
 62
     1
 10
26.5000000000001492
 20
58.074175964327452
 30
0.0
 40
8.3999999999998067
210
0.0
220
-0.0000000000000002
230
-1.0
 50
359.9999999999997726
 51
21.8014094863521102
  0
LINE
  5
17E2
  8
0
  6
VERDECKT
 62
     1
 10
-34.8999999999999488
 20
10.0000000000001297
 30
-0.0000000000000022
 11
-34.8999999999999488
 21
58.0741759643274378
 31
-0.0000000000000129
210
0.0
220
1.0
230
-0.0000000000000002
  0
LINE
  5
17E3
  8
0
  6
VERDECKT
 62
     1
 10
34.8999999999999488
 20
10.0000000000001101
 30
-0.0000000000000022
 11
34.8999999999999488
 21
58.0741759643274378
 31
-0.0000000000000129
210
0.0
220
1.0
230
-0.0000000000000002
  0
LINE
  5
17E4
  8
0
  6
VERDECKT
 62
     1
 10
-25.0144372945835194
 20
84.4057749178334689
 30
-0.0000000000000187
 11
-26.4999999999999396
 21
85.0000000000000284
 31
-0.0000000000000189
210
0.0
220
1.0
230
-0.0000000000000002
  0
LINE
  5
17E5
  8
0
  6
VERDECKT
 62
     1
 10
25.0144372945835016
 20
84.4057749178334547
 30
-0.0000000000000187
 11
26.4999999999999396
 21
85.0000000000000284
 31
-0.0000000000000189
210
0.0
220
1.0
230
-0.0000000000000002
  0
LINE
  5
17E6
  8
0
  6
VERDECKT
 62
     1
 10
25.01443729458353
 20
84.4057749178334689
 30
-0.0000000000000187
 11
34.2992042034361404
 21
61.1938576457018897
 31
-0.0000000000000136
210
0.0
220
1.0
230
-0.0000000000000002
  0
LINE
  5
17E7
  8
0
  6
VERDECKT
 62
     1
 10
-25.01443729458353
 20
84.4057749178334547
 30
-0.0000000000000187
 11
-34.2992042034361333
 21
61.1938576457018897
 31
-0.0000000000000136
210
0.0
220
1.0
230
-0.0000000000000002
  0
LINE
  5
17E8
  8
0
  6
VERDECKT
 62
     1
 10
-34.0190016246713469
 20
0.0000000000000018
 30
0.0
 11
-34.8938882599304776
 21
10.0000000000001297
 31
-0.0000000000000022
210
0.0
220
1.0
230
-0.0000000000000002
  0
LINE
  5
17E9
  8
0
  6
VERDECKT
 62
     1
 10
34.0190016246713469
 20
0.0000000000000018
 30
0.0
 11
34.8938882599304776
 21
10.0000000000001297
 31
-0.0000000000000022
210
0.0
220
1.0
230
-0.0000000000000002
  0
LINE
  5
17EA
  8
0
  6
VERDECKT
 62
     1
 10
25.0916855261700285
 20
84.4836180262623913
 30
-0.0000000000000188
 11
-25.0916855261700285
 21
84.4836180262623913
 31
-0.0000000000000188
210
0.0
220
1.0
230
-0.0000000000000002
  0
ARC
  5
17EB
  8
0
  6
VERDECKT
 62
     1
 10
26.9999999999989306
 20
115.4944463274078004
 30
0.0
 40
7.4999999999989271
210
0.0
220
-0.0000000000000002
230
-1.0
 50
144.3409123038578912
 51
180.0000000000015064
  0
ARC
  5
17EC
  8
0
  6
VERDECKT
 62
     1
 10
-26.9999999999989093
 20
115.4944463274078004
 30
0.0
 40
7.4999999999989049
210
0.0
220
-0.0000000000000002
230
-1.0
 50
359.9999999999984084
 51
35.6590876961420591
  0
ARC
  5
17ED
  8
0
  6
VERDECKT
 62
     1
 10
14.0000000000009095
 20
124.8218253804959943
 30
0.0
 40
8.4999999999990905
210
0.0
220
-0.0000000000000002
230
-1.0
 50
324.3409123038599091
 51
0.0000000000025953
  0
ARC
  5
17EE
  8
0
  6
VERDECKT
 62
     1
 10
-14.0000000000009006
 20
124.8218253804959943
 30
0.0
 40
8.4999999999990905
210
0.0
220
-0.0000000000000002
230
-1.0
 50
179.9999999999974136
 51
215.6590876961400909
  0
LINE
  5
17EF
  8
0
  6
VERDECKT
 62
     1
 10
22.5
 20
128.9999999999998863
 30
-0.0000000000000286
 11
22.5
 21
124.8218253804964064
 31
-0.0000000000000277
210
0.0
220
1.0
230
-0.0000000000000002
  0
LINE
  5
17F0
  8
0
  6
VERDECKT
 62
     1
 10
-22.5
 20
128.9999999999998863
 30
-0.0000000000000286
 11
-22.5
 21
124.8218253804964064
 31
-0.0000000000000277
210
0.0
220
1.0
230
-0.0000000000000002
  0
ARC
  5
17F1
  8
0
  6
VERDECKT
 62
     1
 10
34.0000000000010019
 20
128.999999999999801
 30
0.0
 40
11.5000000000009894
210
0.0
220
-0.0000000000000002
230
-1.0
 50
161.8060294016181047
 51
179.9999999999996021
  0
ARC
  5
17F2
  8
0
  6
VERDECKT
 62
     1
 10
-34.0000000000008669
 20
128.9999999999998863
 30
0.0
 40
11.5000000000008598
210
0.0
220
-0.0000000000000002
230
-1.0
 50
0.0000000000004326
 51
18.1939705983821511
  0
ARC
  5
17F3
  8
0
  6
VERDECKT
 62
     1
 10
5.4999999999956053
 20
138.3670000000005871
 30
0.0
 40
18.4998448162696683
210
0.0
220
-0.0000000000000002
230
-1.0
 50
341.8060294016167973
 51
1.4690900154148641
  0
ARC
  5
17F4
  8
0
  6
VERDECKT
 62
     1
 10
-5.4999999999957652
 20
138.3670000000005871
 30
0.0
 40
18.4998448162695084
210
0.0
220
-0.0000000000000002
230
-1.0
 50
178.5309099845850085
 51
198.1939705983830891
  0
LINE
  5
17F5
  8
0
  6
VERDECKT
 62
     1
 10
-23.993763944490901
 20
138.8412925166452965
 30
-0.0000000000000308
 11
-23.9999999999999716
 21
143.4578196795914948
 31
-0.0000000000000319
210
0.0
220
1.0
230
-0.0000000000000002
  0
LINE
  5
17F6
  8
0
  6
VERDECKT
 62
     1
 10
23.993763944490901
 20
138.8412925166452965
 30
-0.0000000000000308
 11
23.9999999999999716
 21
143.4578196795914948
 31
-0.0000000000000319
210
0.0
220
1.0
230
-0.0000000000000002
  0
ARC
  5
17F7
  8
0
  6
VERDECKT
 62
     1
 10
9.0877469238992372
 20
143.4779633145504931
 30
0.0
 40
14.9122666812160301
210
0.0
220
-0.0000000000000002
230
-1.0
 50
359.9226042798946992
 51
25.9355927118477112
  0
ARC
  5
17F8
  8
0
  6
VERDECKT
 62
     1
 10
-9.0877469238992425
 20
143.4779633145504931
 30
0.0
 40
14.9122666812160301
210
0.0
220
-0.0000000000000002
230
-1.0
 50
154.0644072881522106
 51
180.0773957201053008
  0
LINE
  5
17F9
  8
0
  6
VERDECKT
 62
     1
 10
-25.0916855261700285
 20
84.4836180262623913
 30
-0.0000000000000188
 11
-26.4999999999999503
 21
85.0000000000000142
 31
-0.0000000000000189
210
0.0
220
1.0
230
-0.0000000000000002
  0
LINE
  5
17FA
  8
0
  6
VERDECKT
 62
     1
 10
25.0916855261700285
 20
84.4836180262623913
 30
-0.0000000000000188
 11
26.4999999999999503
 21
85.0000000000000142
 31
-0.0000000000000189
210
0.0
220
1.0
230
-0.0000000000000002
  0
LINE
  5
17FB
  8
0
  6
VERDECKT
 62
     1
 10
-19.5000000000000604
 20
101.0653221549133036
 30
-0.0000000000000224
 11
-19.5000000000000604
 21
115.4944463274076014
 31
-0.0000000000000256
210
0.0
220
1.0
230
-0.0000000000000002
  0
LINE
  5
17FC
  8
0
  6
VERDECKT
 62
     1
 10
19.5000000000000604
 20
101.0653221549133036
 30
-0.0000000000000224
 11
19.5000000000000604
 21
115.4944463274076014
 31
-0.0000000000000256
210
0.0
220
1.0
230
-0.0000000000000002
  0
ARC
  5
17FD
  8
0
  6
VERDECKT
 62
     1
 10
-27.0000000000003695
 20
101.0653221549133036
 30
0.0
 40
7.5000000000003038
210
0.0
220
-0.0000000000000002
230
-1.0
 50
339.8636965717527119
 51
359.9999999999996021
  0
ARC
  5
17FE
  8
0
  6
VERDECKT
 62
     1
 10
27.0000000000003695
 20
101.0653221549133036
 30
0.0
 40
7.5000000000003011
210
0.0
220
-0.0000000000000002
230
-1.0
 50
180.0000000000003979
 51
200.1363034282472029
  0
LINE
  5
17FF
  8
0
  6
VERDECKT
 62
     1
 10
19.9584276308504691
 20
98.4834122862251604
 30
-0.0000000000000219
 11
25.0916855261700285
 21
84.4836180262623913
 31
-0.0000000000000188
210
0.0
220
1.0
230
-0.0000000000000002
  0
LINE
  5
1800
  8
0
  6
VERDECKT
 62
     1
 10
-19.9584276308504691
 20
98.4834122862251604
 30
-0.0000000000000219
 11
-25.0916855261700285
 21
84.4836180262623913
 31
-0.0000000000000188
210
0.0
220
1.0
230
-0.0000000000000002
  0
ENDBLK
  5
1802
  8
0
  0
ENDSEC
  0
SECTION
  2
ENTITIES
  0
INSERT
  5
ED8
  8
ADSK_ASSOC_ENTITY_BACKUPS
  2
*S3
 10
0.0
 20
0.0
 30
0.0
  0
INSERT
  5
17BB
  8
STEMPEL
  2
A$C3EC73633
 10
0.0
 20
0.0
 30
0.0
  0
INSERT
  5
1803
  8
STEMPEL
  2
A$C32430349
 10
0.0
 20
83.487230951476235
 30
0.0
  0
VIEWPORT
  5
A64
 67
     1
  8
0
 10
77.6894307173862444
 20
121.2446410302048037
 30
0.0
 40
1492.8053707258700342
 41
819.1291008598366261
 68
     1
 69
     1
1001
ACAD
1000
MVIEW
1002
{
1070
    16
1010
0.0
1020
0.0
1030
0.0
1010
0.0
1020
0.0
1030
1.0
1040
0.0
1040
819.1291008598366261
1040
77.6894307173862444
1040
121.2446410302048037
1040
50.0
1040
0.0
1040
0.0
1070
     0
1070
  1500
1070
     1
1070
     1
1070
     0
1070
     0
1070
     0
1070
     0
1040
0.0
1040
0.0
1040
0.0
1040
10.0
1040
10.0
1040
10.0
1040
10.0
1070
     0
1002
{
1002
}
1002
}
  0
ENDSEC
  0
EOF
