  0
SECTION
  2
HEADER
  9
$ACADVER
  1
AC1009
  9
$INSBASE
 10
0.0
 20
0.0
 30
0.0
  9
$EXTMIN
 10
-22.1742791910541612
 20
-25.5168176853966315
 30
-0.0032572562373616
  9
$EXTMAX
 10
51.0156351658918013
 20
158.8159091482467034
 30
54.0061716272186132
  9
$LIMMIN
 10
0.0
 20
0.0
  9
$LIMMAX
 10
210.0
 20
297.0
  9
$ORTHOMODE
 70
     1
  9
$REGENMODE
 70
     1
  9
$FILLMODE
 70
     1
  9
$QTEXTMODE
 70
     0
  9
$MIRRTEXT
 70
     1
  9
$DRAGMODE
 70
     2
  9
$LTSCALE
 40
10.0
  9
$OSMODE
 70
  1327
  9
$ATTMODE
 70
     1
  9
$TEXTSIZE
 40
3.5
  9
$TRACEWID
 40
0.5
  9
$TEXTSTYLE
  7
STANDARD
  9
$CLAYER
  8
0
  9
$CELTYPE
  6
BYLAYER
  9
$CECOLOR
 62
   256
  9
$DIMSCALE
 40
1.0
  9
$DIMASZ
 40
3.5
  9
$DIMEXO
 40
1.0
  9
$DIMDLI
 40
7.0
  9
$DIMRND
 40
0.0
  9
$DIMDLE
 40
0.0
  9
$DIMEXE
 40
1.0
  9
$DIMTP
 40
0.0
  9
$DIMTM
 40
0.0
  9
$DIMTXT
 40
3.5
  9
$DIMCEN
 40
1.5
  9
$DIMTSZ
 40
0.0
  9
$DIMTOL
 70
     0
  9
$DIMLIM
 70
     0
  9
$DIMTIH
 70
     0
  9
$DIMTOH
 70
     0
  9
$DIMSE1
 70
     0
  9
$DIMSE2
 70
     0
  9
$DIMTAD
 70
     1
  9
$DIMZIN
 70
     8
  9
$DIMBLK
  1

  9
$DIMASO
 70
     1
  9
$DIMSHO
 70
     0
  9
$DIMPOST
  1

  9
$DIMAPOST
  1

  9
$DIMALT
 70
     0
  9
$DIMALTD
 70
     2
  9
$DIMALTF
 40
25.3999999999999986
  9
$DIMLFAC
 40
1.0
  9
$DIMTOFL
 70
     1
  9
$DIMTVP
 40
0.0
  9
$DIMTIX
 70
     0
  9
$DIMSOXD
 70
     0
  9
$DIMSAH
 70
     0
  9
$DIMBLK1
  1

  9
$DIMBLK2
  1

  9
$DIMSTYLE
  2
STANDARD
  9
$DIMCLRD
 70
     0
  9
$DIMCLRE
 70
     0
  9
$DIMCLRT
 70
     1
  9
$DIMTFAC
 40
0.5142857142857143
  9
$DIMGAP
 40
1.5
  9
$LUNITS
 70
     2
  9
$LUPREC
 70
     2
  9
$SKETCHINC
 40
1.0
  9
$FILLETRAD
 40
0.0
  9
$AUNITS
 70
     0
  9
$AUPREC
 70
     0
  9
$MENU
  1
ACAD
  9
$ELEVATION
 40
0.0
  9
$PELEVATION
 40
0.0
  9
$THICKNESS
 40
0.0
  9
$LIMCHECK
 70
     0
  9
$BLIPMODE
 70
     0
  9
$CHAMFERA
 40
0.0
  9
$CHAMFERB
 40
0.0
  9
$SKPOLY
 70
     0
  9
$TDCREATE
 40
2455397.8646990740671754
  9
$TDUPDATE
 40
2458387.4908912042155862
  9
$TDINDWG
 40
0.0838038542
  9
$TDUSRTIMER
 40
0.0838038542
  9
$USRTIMER
 70
     1
  9
$ANGBASE
 50
0.0
  9
$ANGDIR
 70
     0
  9
$PDMODE
 70
     0
  9
$PDSIZE
 40
0.0
  9
$PLINEWID
 40
0.0
  9
$COORDS
 70
     1
  9
$SPLFRAME
 70
     0
  9
$SPLINETYPE
 70
     6
  9
$SPLINESEGS
 70
     8
  9
$ATTDIA
 70
     0
  9
$ATTREQ
 70
     0
  9
$HANDLING
 70
     1
  9
$HANDSEED
  5
CA1
  9
$SURFTAB1
 70
     6
  9
$SURFTAB2
 70
     6
  9
$SURFTYPE
 70
     6
  9
$SURFU
 70
     6
  9
$SURFV
 70
     6
  9
$UCSNAME
  2

  9
$UCSORG
 10
0.0
 20
0.0
 30
0.0
  9
$UCSXDIR
 10
1.0
 20
0.0
 30
0.0
  9
$UCSYDIR
 10
0.0
 20
1.0
 30
0.0
  9
$PUCSNAME
  2

  9
$PUCSORG
 10
0.0
 20
0.0
 30
0.0
  9
$PUCSXDIR
 10
1.0
 20
0.0
 30
0.0
  9
$PUCSYDIR
 10
0.0
 20
1.0
 30
0.0
  9
$USERI1
 70
     0
  9
$USERI2
 70
     0
  9
$USERI3
 70
     0
  9
$USERI4
 70
     0
  9
$USERI5
 70
     0
  9
$USERR1
 40
0.0
  9
$USERR2
 40
0.0
  9
$USERR3
 40
0.0
  9
$USERR4
 40
0.0
  9
$USERR5
 40
0.0
  9
$WORLDVIEW
 70
     1
  9
$SHADEDGE
 70
     3
  9
$SHADEDIF
 70
    70
  9
$TILEMODE
 70
     1
  9
$MAXACTVP
 70
    16
  9
$PLIMCHECK
 70
     0
  9
$PEXTMIN
 10
-0.1278078343990714
 20
-0.1987031815134941
 30
-0.000000000000013
  9
$PEXTMAX
 10
6.3326107203596642
 20
8.7624203483973346
 30
0.0000000000000023
  9
$PLIMMIN
 10
-0.2500002402958907
 20
-0.2499999962453767
  9
$PLIMMAX
 10
10.7499995194082203
 20
8.2499997634587334
  9
$UNITMODE
 70
     0
  9
$VISRETAIN
 70
     0
  9
$PLINEGEN
 70
     0
  9
$PSLTSCALE
 70
     0
  0
ENDSEC
  0
SECTION
  2
TABLES
  0
TABLE
  2
VPORT
 70
     1
  0
VPORT
  2
*ACTIVE
 70
     0
 10
0.0
 20
0.0
 11
1.0
 21
1.0
 12
-2.590338765959955
 22
26.6495457314250714
 13
0.0
 23
0.0
 14
1.0
 24
1.0
 15
10.0
 25
10.0
 16
-0.0000000000001137
 26
0.0
 36
513.831459829127084
 17
17.0110167533787902
 27
40.0
 37
40.0
 40
185.7117746653165113
 41
1.8514357053682891
 42
50.0
 43
0.0
 44
0.0
 50
0.0
 51
0.0
 71
     0
 72
  1500
 73
     1
 74
     0
 75
     0
 76
     0
 77
     0
 78
     0
  0
ENDTAB
  0
TABLE
  2
LTYPE
 70
     4
  0
LTYPE
  2
CONTINUOUS
 70
     0
  3
Solid line
 72
    65
 73
     0
 40
0.0
  0
LTYPE
  2
AUSGEZOGEN
 70
     0
  3
Ausgezogene Linie
 72
    65
 73
     0
 40
0.0
  0
LTYPE
  2
VERDECKT
 70
     0
  3
Verdeckt __ __ __ __ __ __ __ __ __ __ __ __ __
 72
    65
 73
     2
 40
0.375
 49
0.25
 49
-0.125
  0
ENDTAB
  0
TABLE
  2
LAYER
 70
    10
  0
LAYER
  2
0
 70
     0
 62
     7
  6
CONTINUOUS
  0
LAYER
  2
VOLL
 70
     0
 62
     1
  6
CONTINUOUS
  0
LAYER
  2
DEFPOINTS
 70
     0
 62
     7
  6
AUSGEZOGEN
  0
LAYER
  2
ROHR
 70
     0
 62
     9
  6
CONTINUOUS
  0
ENDTAB
  0
TABLE
  2
STYLE
 70
     4
  0
STYLE
  2
STANDARD
 70
     0
 40
0.0
 41
0.8
 50
0.0
 71
     0
 42
3.5
  3
simplex.shx
  4

  0
STYLE
  2
GREEKS
 70
     0
 40
0.0
 41
0.8
 50
0.0
 71
     0
 42
2.5
  3
SIMPLEX.shx
  4

  0
ENDTAB
  0
TABLE
  2
VIEW
 70
     3
  0
ENDTAB
  0
TABLE
  2
UCS
 70
     0
  0
ENDTAB
  0
TABLE
  2
APPID
 70
     9
  0
APPID
  2
ACAD
 70
     0
  0
APPID
  2
ACAD_NAV_VCDISPLAY
 70
     0
  0
APPID
  2
ACAECLAYERSTANDARD
 70
     0
  0
APPID
  2
ACCMTRANSPARENCY
 70
     0
  0
APPID
  2
ACAD_STEPID
 70
     0
  0
APPID
  2
ACAD_ASSOCPERSSUBENTMANAGER
 70
     0
  0
APPID
  2
ACAD_PSEXT
 70
     0
  0
APPID
  2
ACAD_MLEADERVER
 70
     0
  0
APPID
  2
ACAD_OBJECT_CHANGE_GUID
 70
     0
  0
ENDTAB
  0
TABLE
  2
DIMSTYLE
 70
     2
  0
DIMSTYLE
  2
STANDARD
 70
     0
  3

  4

  5

  6

  7

 40
1.0
 41
0.18
 42
0.0625
 43
0.38
 44
0.18
 45
0.0
 46
0.0
 47
0.0
 48
0.0
140
0.18
141
0.09
142
0.0
143
25.3999999999999986
144
1.0
145
0.0
146
1.0
147
0.09
 71
     0
 72
     0
 73
     1
 74
     1
 75
     0
 76
     0
 77
     0
 78
     0
170
     0
171
     2
172
     0
173
     0
174
     0
175
     0
176
     0
177
     0
178
     0
  0
ENDTAB
  0
ENDSEC
  0
SECTION
  2
BLOCKS
  0
BLOCK
  8
0
  2
$MODEL_SPACE
 70
     0
 10
0.0
 20
0.0
 30
0.0
  3
$MODEL_SPACE
  1

  0
ENDBLK
  5
36
  8
0
  0
BLOCK
 67
     1
  8
0
  2
$PAPER_SPACE
 70
     0
 10
0.0
 20
0.0
 30
0.0
  3
$PAPER_SPACE
  1

  0
ENDBLK
  5
34
 67
     1
  8
0
  0
BLOCK
  8
0
  2
A$C5EF55026
 70
     0
 10
0.0
 20
0.0
 30
0.0
  3
A$C5EF55026
  1

  0
ARC
  5
BE7
  8
0
  6
CONTINUOUS
 62
     3
 10
-0.0000000000000447
 20
0.0000000000000578
 30
0.0
 40
21.0000000000006288
 50
89.9999999999998721
 51
180.0
  0
ARC
  5
BE8
  8
0
  6
CONTINUOUS
 62
     3
 10
-0.0000000000000447
 20
-0.0000000000000328
 30
0.0
 40
21.0000000000006395
 50
179.9999999999998863
 51
270.0
  0
ARC
  5
BE9
  8
0
  6
CONTINUOUS
 62
     3
 10
-0.0000000000000447
 20
0.0000000000000116
 30
0.0
 40
21.0
 50
90.0
 51
270.0
  0
LINE
  5
BEA
  8
0
  6
CONTINUOUS
 62
     3
 10
-0.0000000000000732
 20
-20.9999999999999893
 30
0.0
 11
25.9999999999999609
 21
-20.9999999999999893
 31
0.0
  0
LINE
  5
BEB
  8
0
  6
CONTINUOUS
 62
     3
 10
25.9999999999999609
 20
21.0000000000000107
 30
0.0
 11
-0.0000000000000711
 21
21.0000000000000107
 31
0.0
  0
LINE
  5
BEC
  8
0
  6
CONTINUOUS
 62
     3
 10
25.9999999999999609
 20
21.0148762346614397
 30
0.0
 11
25.9999999999999609
 21
0.0000000000000142
 31
0.0
  0
LINE
  5
BED
  8
0
  6
CONTINUOUS
 62
     3
 10
25.9999999999999609
 20
0.0000000000000091
 30
0.0
 11
25.9999999999999609
 21
-21.0148762346614184
 31
0.0
  0
LINE
  5
BEE
  8
0
  6
CONTINUOUS
 62
     3
 10
51.0000000000001918
 20
24.1476030003183517
 30
0.0000000000000142
 11
51.0000000000001918
 21
0.0000000000000142
 31
0.0000000000000142
  0
LINE
  5
BEF
  8
0
  6
CONTINUOUS
 62
     3
 10
51.0000000000001918
 20
0.0000000000000071
 30
0.0000000000000142
 11
51.0000000000001918
 21
-24.1476030003183197
 31
0.0000000000000142
  0
LINE
  5
BF0
  8
0
  6
CONTINUOUS
 62
     3
 10
41.9118468177991375
 20
25.4998448133360291
 30
0.0000000000000142
 11
44.456813743533381
 21
25.4999999693360913
 31
0.0000000000000148
  0
LINE
  5
BF1
  8
0
  6
CONTINUOUS
 62
     3
 10
41.9118468177991375
 20
-25.4998448133360007
 30
0.0000000000000142
 11
44.456813743533381
 21
-25.4999999693360593
 31
0.0000000000000148
  0
LINE
  5
BF2
  8
0
  6
CONTINUOUS
 62
     3
 10
41.9118468177991375
 20
-25.4998448148009409
 30
0.0000000000000142
 11
39.3670000230273089
 21
-25.4998448148009409
 31
0.0000000000000136
  0
LINE
  5
BF3
  8
0
  6
CONTINUOUS
 62
     3
 10
41.9118468177991375
 20
25.4998448148009693
 30
0.0000000000000142
 11
39.3670000230273089
 21
25.4998448148009693
 31
0.0000000000000136
  0
ARC
  5
BF4
  8
0
  6
CONTINUOUS
 62
     3
 10
39.3669999999999973
 20
5.5000000000029594
 30
0.0000000000000142
 40
19.999844816262911
 50
89.9999999340311234
 51
126.4521584289284988
  0
ARC
  5
BF5
  8
0
  6
CONTINUOUS
 62
     3
 10
39.3669999999999973
 20
-5.5000000000029274
 30
0.0000000000000142
 40
19.9998448162629217
 50
233.5478415710713875
 51
270.0000000659688908
  0
ARC
  5
BF6
  8
0
  6
CONTINUOUS
 62
     3
 10
25.7016108151912412
 20
24.0000000000006608
 30
0.0
 40
3.0000000000006501
 50
275.7082520252998279
 51
306.4521584289188922
  0
ARC
  5
BF7
  8
0
  6
CONTINUOUS
 62
     3
 10
25.7016108151912483
 20
-24.0000000000006111
 30
0.0
 40
3.0000000000006311
 50
53.5478415710810012
 51
84.2917479747003853
  0
ARC
  5
BF8
  8
0
  6
CONTINUOUS
 62
     3
 10
44.4578196795916583
 20
9.0000000000012221
 30
0.0000000000000142
 40
16.499999999998689
 50
66.6407054553558709
 51
90.0034930842809047
  0
ARC
  5
BF9
  8
0
  6
CONTINUOUS
 62
     3
 10
44.4578196795916512
 20
-9.0000000000011831
 30
0.0000000000000142
 40
16.4999999999986997
 50
269.9965069157191238
 51
293.3592945446441149
  0
CIRCLE
  5
BFA
  8
0
  6
VERDECKT
 62
     1
 10
0.0000000000001258
 20
0.0000000000000116
 30
0.0
 40
19.5000000000009095
  0
CIRCLE
  5
BFB
  8
0
  6
VERDECKT
 62
     1
 10
0.0000000000000568
 20
0.0000000000000083
 30
0.0
 40
18.8818495990039388
  0
ARC
  5
BFC
  8
0
  6
VERDECKT
 62
     1
 10
0.0000000000000121
 20
0.0000000000000116
 30
0.0
 40
21.0000000000006786
 50
270.0000000000002274
 51
90.0000000000001705
  0
CIRCLE
  5
BFD
  8
0
  6
VERDECKT
 62
     1
 10
0.0
 20
0.0000000000000083
 30
0.0
 40
20.3875793553188487
  0
CIRCLE
  5
BFE
  8
0
  6
VERDECKT
 62
     1
 10
-0.0000000000000447
 20
0.0000000000000116
 30
0.0
 40
19.5
  0
ARC
  5
BFF
  8
0
  6
VERDECKT
 62
     1
 10
0.0000000000000689
 20
-0.0000000000000559
 30
0.0
 40
20.9999999999998792
 50
269.9999999999994884
 51
0.0000000000002036
  0
ARC
  5
C00
  8
0
  6
VERDECKT
 62
     1
 10
0.0000000000000689
 20
0.0000000000000755
 30
0.0
 40
20.9999999999999396
 50
359.9999999999997726
 51
90.0000000000004547
  0
LINE
  5
C01
  8
0
  6
VERDECKT
 62
     1
 10
-0.0000000000000732
 20
-19.4999999999999893
 30
0.0
 11
25.9999999999999609
 21
-19.4999999999999893
 31
0.0
  0
LINE
  5
C02
  8
0
  6
VERDECKT
 62
     1
 10
25.9999999999999609
 20
19.5000000000000107
 30
0.0
 11
-0.0000000000000711
 21
19.5000000000000107
 31
0.0
  0
ARC
  5
C03
  8
0
  6
VERDECKT
 62
     1
 10
25.8787084229726787
 20
23.1642782167729493
 30
0.0
 40
3.656386745417552
 50
271.9009943767081268
 51
292.0280829027101959
  0
ARC
  5
C04
  8
0
  6
VERDECKT
 62
     1
 10
25.8787084229726787
 20
-23.1642782167728782
 30
0.0
 40
3.6563867454174979
 50
67.9719170972896052
 51
88.0990056232920864
  0
ARC
  5
C05
  8
0
  6
VERDECKT
 62
     1
 10
25.0529571520247885
 20
25.2052036765100311
 30
0.0
 40
5.8580320151363194
 50
292.0280829027137202
 51
304.5511540956953809
  0
ARC
  5
C06
  8
0
  6
VERDECKT
 62
     1
 10
25.0529571520244616
 20
-25.2052036765106386
 30
0.0
 40
5.8580320151370309
 50
55.4488459043055926
 51
67.9719170972856546
  0
ARC
  5
C07
  8
0
  6
VERDECKT
 62
     1
 10
41.6119987203124424
 20
1.157671509537024
 30
0.0000000000000142
 40
23.3393250738517111
 50
110.1270835476923935
 51
124.5511540956944998
  0
ARC
  5
C08
  8
0
  6
VERDECKT
 62
     1
 10
41.6119987203124708
 20
-1.1576715095369181
 30
0.0000000000000142
 40
23.3393250738517892
 50
235.4488459043055002
 51
249.8729164523074928
  0
ARC
  5
C09
  8
0
  6
VERDECKT
 62
     1
 10
38.8582426290859217
 20
8.6716561486847983
 30
0.0000000000000142
 40
15.33662941755464
 50
88.0989956667703211
 51
110.1270835476914982
  0
ARC
  5
C0A
  8
0
  6
VERDECKT
 62
     1
 10
38.8582426290859075
 20
-8.6716561486847823
 30
0.0000000000000142
 40
15.3366294175546294
 50
249.8729164523084023
 51
271.9010043332297073
  0
LINE
  5
C0B
  8
0
  6
VERDECKT
 62
     1
 10
39.3669999999999334
 20
23.9998448162652984
 30
0.0000000000000142
 11
44.4573624132351171
 21
23.9999999930302295
 31
0.0000000000000154
  0
LINE
  5
C0C
  8
0
  6
VERDECKT
 62
     1
 10
39.3669999999999334
 20
-23.9998448162652593
 30
0.0000000000000142
 11
44.4573624132351171
 21
-23.999999993030201
 31
0.0000000000000154
  0
ARC
  5
C0D
  8
0
  6
VERDECKT
 62
     1
 10
44.4578196795897114
 20
8.9999999999954898
 30
0.0000000000000142
 40
15.0000000000047393
 50
64.1418030082592168
 51
90.0017466288156953
  0
ARC
  5
C0E
  8
0
  6
VERDECKT
 62
     1
 10
44.4578196795897398
 20
-8.9999999999955236
 30
0.0000000000000142
 40
15.0000000000046807
 50
269.9982533711843189
 51
295.8581969917407832
  0
ENDBLK
  5
C10
  8
0
  0
BLOCK
  8
0
  2
A$C060A704F
 70
     0
 10
0.0
 20
0.0
 30
0.0
  3
A$C060A704F
  1

  0
LINE
  5
C14
  8
0
  6
CONTINUOUS
 62
     3
 10
-21.0000000000006786
 20
54.0000000000002416
 30
-0.000000000000012
 11
21.0000000000006786
 21
54.0000000000002416
 31
-0.000000000000012
210
0.0
220
1.0
230
-0.0000000000000002
  0
LINE
  5
C15
  8
0
  6
CONTINUOUS
 62
     3
 10
-20.3875793553188487
 20
0.0
 30
0.0
 11
20.3875793553188487
 21
0.0
 31
0.0
210
0.0
220
1.0
230
-0.0000000000000002
  0
LINE
  5
C16
  8
0
  6
CONTINUOUS
 62
     3
 10
21.0000000000007994
 20
54.0000000000002416
 30
-0.000000000000012
 11
21.0000000000007994
 21
7.0000000000063682
 31
-0.0000000000000016
210
0.0
220
1.0
230
-0.0000000000000002
  0
LINE
  5
C17
  8
0
  6
CONTINUOUS
 62
     3
 10
-21.0000000000007994
 20
54.0000000000002416
 30
-0.000000000000012
 11
-21.0000000000007994
 21
7.0000000000063682
 31
-0.0000000000000016
210
0.0
220
1.0
230
-0.0000000000000002
  0
LINE
  5
C18
  8
0
  6
CONTINUOUS
 62
     3
 10
-20.3875793553188487
 20
0.0
 30
0.0
 11
-21.0000000000009095
 21
7.0000000000063682
 31
-0.0000000000000016
210
0.0
220
1.0
230
-0.0000000000000002
  0
LINE
  5
C19
  8
0
  6
CONTINUOUS
 62
     3
 10
20.3875793553188487
 20
0.0
 30
0.0
 11
21.0000000000009095
 21
7.0000000000063682
 31
-0.0000000000000016
210
0.0
220
1.0
230
-0.0000000000000002
  0
LINE
  5
C1A
  8
0
  6
CONTINUOUS
 62
     3
 10
-21.0000000000000604
 20
54.0000000000002416
 30
-0.000000000000012
 11
20.9999999999999396
 21
54.0000000000001918
 31
-0.000000000000012
210
0.0
220
1.0
230
-0.0000000000000002
  0
ARC
  5
C1B
  8
0
  6
CONTINUOUS
 62
     3
 10
-25.9999999999999289
 20
54.0000000000001918
 30
0.0
 40
47.0000000000000071
210
0.0
220
-0.0000000000000002
230
-1.0
 50
0.0000000000000382
 51
90.0000000000000284
  0
ARC
  5
C1C
  8
0
  6
CONTINUOUS
 62
     3
 10
25.9999999999999396
 20
54.0000000000001918
 30
-0.000000000000012
 40
5.0000000000000213
 50
89.9999999999999858
 51
180.0
  0
LINE
  5
C1D
  8
0
  6
CONTINUOUS
 62
     3
 10
25.9999999999999396
 20
101.0148762346615996
 30
-0.0000000000000224
 11
25.9999999999999396
 21
58.9851237653387699
 31
-0.0000000000000131
210
0.0
220
1.0
230
-0.0000000000000002
  0
LINE
  5
C1E
  8
0
  6
CONTINUOUS
 62
     3
 10
51.0000000000001705
 20
104.1476030003184974
 30
-0.0000000000000231
 11
51.0000000000001705
 21
55.8523969996818792
 31
-0.0000000000000124
210
0.0
220
1.0
230
-0.0000000000000002
  0
LINE
  5
C1F
  8
0
  6
CONTINUOUS
 62
     3
 10
41.9118468177991303
 20
105.4998448133361961
 30
-0.0000000000000234
 11
44.4568137435333597
 21
105.4999999693363009
 31
-0.0000000000000234
210
0.0
220
1.0
230
-0.0000000000000002
  0
LINE
  5
C20
  8
0
  6
CONTINUOUS
 62
     3
 10
41.911846817799109
 20
54.5001551866642018
 30
-0.0000000000000121
 11
44.4568137435333384
 21
54.5000000306641326
 31
-0.0000000000000121
210
0.0
220
1.0
230
-0.0000000000000002
  0
LINE
  5
C21
  8
0
  6
CONTINUOUS
 62
     3
 10
41.911846817799109
 20
54.5001551851992616
 30
-0.0000000000000121
 11
39.3670000230272734
 21
54.5001551851992616
 31
-0.0000000000000121
210
0.0
220
1.0
230
-0.0000000000000002
  0
LINE
  5
C22
  8
0
  6
CONTINUOUS
 62
     3
 10
41.9118468177991303
 20
105.4998448148011931
 30
-0.0000000000000234
 11
39.3670000230272876
 21
105.4998448148011931
 31
-0.0000000000000234
210
0.0
220
1.0
230
-0.0000000000000002
  0
ARC
  5
C23
  8
0
  6
CONTINUOUS
 62
     3
 10
-39.3669999999999973
 20
85.5000000000030838
 30
0.0
 40
19.9998448162629998
210
0.0
220
-0.0000000000000002
230
-1.0
 50
53.5478415710715581
 51
90.000000065968834
  0
ARC
  5
C24
  8
0
  6
CONTINUOUS
 62
     3
 10
-39.3669999999999831
 20
74.4999999999972431
 30
0.0
 40
19.9998448162628897
210
0.0
220
-0.0000000000000002
230
-1.0
 50
269.9999999340312229
 51
306.4521584289287262
  0
ARC
  5
C25
  8
0
  6
CONTINUOUS
 62
     3
 10
-25.7016108151912412
 20
104.0000000000007958
 30
0.0
 40
3.0000000000006231
210
0.0
220
-0.0000000000000002
230
-1.0
 50
233.5478415710809088
 51
264.2917479747003995
  0
ARC
  5
C26
  8
0
  6
CONTINUOUS
 62
     3
 10
-25.7016108151911595
 20
55.9999999999994174
 30
0.0
 40
3.0000000000008091
210
0.0
220
-0.0000000000000002
230
-1.0
 50
95.7082520253005953
 51
126.4521584289180964
  0
ARC
  5
C27
  8
0
  6
CONTINUOUS
 62
     3
 10
-44.4578196795916298
 20
89.0000000000014211
 30
0.0
 40
16.499999999998689
210
0.0
220
-0.0000000000000002
230
-1.0
 50
89.9965069157190953
 51
113.3592945446441007
  0
ARC
  5
C28
  8
0
  6
CONTINUOUS
 62
     3
 10
-44.4578196795916085
 20
70.9999999999990052
 30
0.0
 40
16.4999999999987104
210
0.0
220
-0.0000000000000002
230
-1.0
 50
246.6407054553559135
 51
270.0034930842808762
  0
LINE
  5
C29
  8
0
  6
VERDECKT
 62
     1
 10
19.5000000000010409
 20
54.0000000000002132
 30
-0.000000000000012
 11
19.5000000000009983
 21
7.0654914143692782
 31
-0.0000000000000016
210
0.0
220
1.0
230
-0.0000000000000002
  0
LINE
  5
C2A
  8
0
  6
VERDECKT
 62
     1
 10
-19.5000000000007709
 20
54.0000000000002416
 30
-0.000000000000012
 11
-19.5000000000008207
 21
7.0654914143693199
 31
-0.0000000000000016
210
0.0
220
1.0
230
-0.0000000000000002
  0
LINE
  5
C2B
  8
0
  6
VERDECKT
 62
     1
 10
-18.8818495990038784
 20
0.0
 30
0.0
 11
-19.5000000000009095
 21
7.0654914143693199
 31
-0.0000000000000016
210
0.0
220
1.0
230
-0.0000000000000002
  0
LINE
  5
C2C
  8
0
  6
VERDECKT
 62
     1
 10
18.8818495990039885
 20
0.0000000000000009
 30
0.0
 11
19.5000000000010303
 21
7.0654914143692729
 31
-0.0000000000000016
210
0.0
220
1.0
230
-0.0000000000000002
  0
ARC
  5
C2D
  8
0
  6
VERDECKT
 62
     1
 10
-25.9999999999999609
 20
54.0000000000001634
 30
0.0
 40
45.5000000000000426
210
0.0
220
-0.0000000000000002
230
-1.0
 50
0.0000000000001018
 51
89.9999999999999858
  0
ARC
  5
C2E
  8
0
  6
VERDECKT
 62
     1
 10
25.9999999999999396
 20
54.0000000000001918
 30
-0.000000000000012
 40
6.5000000000000213
 50
89.9999999999999432
 51
180.0
  0
ARC
  5
C2F
  8
0
  6
VERDECKT
 62
     1
 10
-25.878708422972629
 20
103.1642782167732975
 30
0.0
 40
3.6563867454176981
210
0.0
220
-0.0000000000000002
230
-1.0
 50
247.9719170972900031
 51
268.0990056232914753
  0
ARC
  5
C30
  8
0
  6
VERDECKT
 62
     1
 10
-25.8787084229725792
 20
56.8357217832269512
 30
0.0
 40
3.6563867454178771
210
0.0
220
-0.0000000000000002
230
-1.0
 50
91.9009943767088373
 51
112.0280829027092011
  0
ARC
  5
C31
  8
0
  6
VERDECKT
 62
     1
 10
-25.0529571520250798
 20
105.2052036765096972
 30
0.0
 40
5.8580320151357661
210
0.0
220
-0.0000000000000002
230
-1.0
 50
235.4488459043043918
 51
247.971917097287303
  0
ARC
  5
C32
  8
0
  6
VERDECKT
 62
     1
 10
-25.0529571520242698
 20
54.7947963234892583
 30
0.0
 40
5.8580320151373728
210
0.0
220
-0.0000000000000002
230
-1.0
 50
112.0280829027146012
 51
124.5511540956940024
  0
ARC
  5
C33
  8
0
  6
VERDECKT
 62
     1
 10
-41.6119987203125135
 20
81.1576715095370531
 30
0.0
 40
23.33932507385191
210
0.0
220
-0.0000000000000002
230
-1.0
 50
55.4488459043055428
 51
69.8729164523074218
  0
ARC
  5
C34
  8
0
  6
VERDECKT
 62
     1
 10
-41.6119987203123927
 20
78.8423284904631601
 30
0.0
 40
23.3393250738516507
210
0.0
220
-0.0000000000000002
230
-1.0
 50
290.1270835476926209
 51
304.5511540956945851
  0
ARC
  5
C35
  8
0
  6
VERDECKT
 62
     1
 10
-38.8582426290859502
 20
88.671656148684761
 30
0.0
 40
15.3366294175548905
210
0.0
220
-0.0000000000000002
230
-1.0
 50
69.8729164523086013
 51
91.9010043332294799
  0
ARC
  5
C36
  8
0
  6
VERDECKT
 62
     1
 10
-38.8582426290859431
 20
71.328343851315779
 30
0.0
 40
15.3366294175550006
210
0.0
220
-0.0000000000000002
230
-1.0
 50
268.0989956667705769
 51
290.1270835476911998
  0
LINE
  5
C37
  8
0
  6
VERDECKT
 62
     1
 10
39.3669999999999121
 20
103.9998448162654938
 30
-0.0000000000000231
 11
44.4573624132351028
 21
103.9999999930304
 31
-0.0000000000000231
210
0.0
220
1.0
230
-0.0000000000000002
  0
LINE
  5
C38
  8
0
  6
VERDECKT
 62
     1
 10
39.3669999999998907
 20
56.0001551837349325
 30
-0.0000000000000124
 11
44.4573624132350815
 21
56.0000000069699979
 31
-0.0000000000000124
210
0.0
220
1.0
230
-0.0000000000000002
  0
ARC
  5
C39
  8
0
  6
VERDECKT
 62
     1
 10
-44.4578196795896474
 20
88.9999999999955662
 30
0.0
 40
15.0000000000048797
210
0.0
220
-0.0000000000000002
230
-1.0
 50
89.998253371184461
 51
115.8581969917405985
  0
ARC
  5
C3A
  8
0
  6
VERDECKT
 62
     1
 10
-44.4578196795896972
 20
71.0000000000047891
 30
0.0
 40
15.0000000000047802
210
0.0
220
-0.0000000000000002
230
-1.0
 50
244.141803008259302
 51
270.0017466288156811
  0
ENDBLK
  5
C3C
  8
0
  0
BLOCK
  8
0
  2
*U15
 70
     1
 10
0.0
 20
0.0
 30
0.0
  3
*U15
  1

  0
CIRCLE
  5
C93
  8
ROHR
 10
-0.0000000000000669
 20
0.0000000000000083
 30
-54.0000000000001918
 40
19.5000000000009095
210
-0.0000000000000009
220
-0.0000000000000001
230
-1.0
  0
CIRCLE
  5
C94
  8
ROHR
 10
-0.00000000000005
 20
0.0000000000000083
 30
-7.0654914143692897
 40
19.5000000000009699
210
-0.000000000000001
220
-0.0000000000000001
230
-1.0
  0
CIRCLE
  5
C95
  8
ROHR
 10
-0.00000000000005
 20
0.0000000000000083
 30
-7.0654914143692897
 40
19.5000000000009699
210
-0.000000000000001
220
-0.0000000000000001
230
-1.0
  0
CIRCLE
  5
C96
  8
ROHR
 10
0.0000000000000568
 20
0.0000000000000083
 30
0.0
 40
18.8818495990039388
  0
CIRCLE
  5
C97
  8
ROHR
 10
0.0000000000001137
 20
0.0000000000000116
 30
54.0000000000001918
 40
19.5000000000009095
  0
CIRCLE
  5
C98
  8
ROHR
 10
0.0
 20
0.0000000000000116
 30
54.0000000000002274
 40
21.0000000000006786
  0
CIRCLE
  5
C99
  8
ROHR
 10
0.0
 20
0.0000000000000083
 30
-54.0000000000002274
 40
21.0000000000006786
210
0.0
220
-0.0000000000000001
230
-1.0
  0
CIRCLE
  5
C9A
  8
ROHR
 10
0.0
 20
0.0000000000000083
 30
-7.0000000000063656
 40
21.0000000000009095
210
0.0
220
-0.0000000000000001
230
-1.0
  0
CIRCLE
  5
C9B
  8
ROHR
 10
0.0
 20
0.0000000000000083
 30
-7.0000000000063656
 40
21.0000000000009095
210
0.0
220
-0.0000000000000001
230
-1.0
  0
CIRCLE
  5
C9C
  8
ROHR
 10
0.0
 20
0.0000000000000083
 30
0.0
 40
20.3875793553188487
210
0.0
220
-0.0000000000000001
230
-1.0
  0
CIRCLE
  5
C9D
  8
ROHR
 10
-0.0000000000000568
 20
0.0000000000000083
 30
0.0
 40
18.8818495990039388
210
0.0
220
-0.0000000000000001
230
-1.0
  0
CIRCLE
  5
C9E
  8
ROHR
 10
0.0
 20
0.0000000000000083
 30
0.0
 40
20.3875793553188487
210
0.0
220
-0.0000000000000001
230
-1.0
  0
ENDBLK
  5
CA0
  8
0
  0
ENDSEC
  0
SECTION
  2
ENTITIES
  0
TEXT
  5
8F
  8
VOLL
 10
78.076754716981128
 20
31.025947764705851
 30
0.0
 40
1.8
  1

  7
GREEKS
  0
INSERT
  5
907
  8
0
  2
*U15
 10
0.0
 20
0.0
 30
0.0
  0
INSERT
  5
C11
  8
0
  2
A$C5EF55026
 10
-1.1671945511037509
 20
0.0000000000000084
 30
0.0
  0
INSERT
  5
C3D
  8
0
  2
A$C060A704F
 10
0.0000000000000568
 20
50.1623465987678472
 30
0.0
  0
VIEWPORT
  5
7C6
 67
     1
  8
0
 10
3.5086415459813809
 20
4.2819257636105119
 30
0.0
 40
16.7084980622007109
 41
9.0246169573990365
 68
     1
 69
     1
1001
ACAD
1000
MVIEW
1002
{
1070
    16
1010
0.0
1020
0.0
1030
0.0
1010
0.0
1020
0.0
1030
1.0
1040
0.0
1040
9.0246169573990365
1040
3.5086415459813809
1040
4.2819257636105119
1040
50.0
1040
0.0
1040
0.0
1070
     0
1070
  1500
1070
     1
1070
     1
1070
     0
1070
     0
1070
     0
1070
     0
1040
0.0
1040
0.0
1040
0.0
1040
10.0
1040
10.0
1040
10.0
1040
10.0
1070
     0
1002
{
1002
}
1002
}
  0
ENDSEC
  0
EOF
