  0
SECTION
  2
HEADER
  9
$ACADVER
  1
AC1009
  9
$INSBASE
 10
0.0
 20
0.0
 30
0.0
  9
$EXTMIN
 10
-175.5141898269230012
 20
-155.5424410307807079
 30
-0.0015258207003583
  9
$EXTMAX
 10
65.0184179719286703
 20
526.4785093593859528
 30
0.0000000349246037
  9
$LIMMIN
 10
0.0
 20
0.0
  9
$LIMMAX
 10
419.9999999999998863
 20
594.0
  9
$ORTHOMODE
 70
     1
  9
$REGENMODE
 70
     1
  9
$FILLMODE
 70
     1
  9
$QTEXTMODE
 70
     0
  9
$MIRRTEXT
 70
     1
  9
$DRAGMODE
 70
     2
  9
$LTSCALE
 40
20.0
  9
$OSMODE
 70
  2559
  9
$ATTMODE
 70
     1
  9
$TEXTSIZE
 40
3.5
  9
$TRACEWID
 40
0.5
  9
$TEXTSTYLE
  7
STANDARD
  9
$CLAYER
  8
STEMPEL
  9
$CELTYPE
  6
BYLAYER
  9
$CECOLOR
 62
   256
  9
$DIMSCALE
 40
2.0
  9
$DIMASZ
 40
3.5
  9
$DIMEXO
 40
1.0
  9
$DIMDLI
 40
7.0
  9
$DIMRND
 40
0.0
  9
$DIMDLE
 40
0.0
  9
$DIMEXE
 40
1.0
  9
$DIMTP
 40
0.0
  9
$DIMTM
 40
0.0
  9
$DIMTXT
 40
3.5
  9
$DIMCEN
 40
1.5
  9
$DIMTSZ
 40
0.0
  9
$DIMTOL
 70
     0
  9
$DIMLIM
 70
     0
  9
$DIMTIH
 70
     0
  9
$DIMTOH
 70
     0
  9
$DIMSE1
 70
     0
  9
$DIMSE2
 70
     0
  9
$DIMTAD
 70
     1
  9
$DIMZIN
 70
     8
  9
$DIMBLK
  1

  9
$DIMASO
 70
     1
  9
$DIMSHO
 70
     0
  9
$DIMPOST
  1

  9
$DIMAPOST
  1

  9
$DIMALT
 70
     0
  9
$DIMALTD
 70
     2
  9
$DIMALTF
 40
25.3999999999999986
  9
$DIMLFAC
 40
1.0
  9
$DIMTOFL
 70
     1
  9
$DIMTVP
 40
0.0
  9
$DIMTIX
 70
     0
  9
$DIMSOXD
 70
     0
  9
$DIMSAH
 70
     0
  9
$DIMBLK1
  1

  9
$DIMBLK2
  1

  9
$DIMSTYLE
  2
STANDARD
  9
$DIMCLRD
 70
     0
  9
$DIMCLRE
 70
     0
  9
$DIMCLRT
 70
     1
  9
$DIMTFAC
 40
0.5
  9
$DIMGAP
 40
1.5
  9
$LUNITS
 70
     2
  9
$LUPREC
 70
     2
  9
$SKETCHINC
 40
1.0
  9
$FILLETRAD
 40
26.0
  9
$AUNITS
 70
     0
  9
$AUPREC
 70
     0
  9
$MENU
  1
ACAD
  9
$ELEVATION
 40
0.0
  9
$PELEVATION
 40
0.0
  9
$THICKNESS
 40
0.0
  9
$LIMCHECK
 70
     0
  9
$BLIPMODE
 70
     0
  9
$CHAMFERA
 40
0.0
  9
$CHAMFERB
 40
0.0
  9
$SKPOLY
 70
     0
  9
$TDCREATE
 40
2455397.8646990740671754
  9
$TDUPDATE
 40
2458375.5982291670516133
  9
$TDINDWG
 40
0.084751794
  9
$TDUSRTIMER
 40
0.084751794
  9
$USRTIMER
 70
     1
  9
$ANGBASE
 50
0.0
  9
$ANGDIR
 70
     0
  9
$PDMODE
 70
     0
  9
$PDSIZE
 40
0.0
  9
$PLINEWID
 40
0.0
  9
$COORDS
 70
     1
  9
$SPLFRAME
 70
     0
  9
$SPLINETYPE
 70
     6
  9
$SPLINESEGS
 70
     8
  9
$ATTDIA
 70
     1
  9
$ATTREQ
 70
     1
  9
$HANDLING
 70
     1
  9
$HANDSEED
  5
BE7
  9
$SURFTAB1
 70
     6
  9
$SURFTAB2
 70
     6
  9
$SURFTYPE
 70
     6
  9
$SURFU
 70
     6
  9
$SURFV
 70
     6
  9
$UCSNAME
  2

  9
$UCSORG
 10
0.0
 20
0.0
 30
0.0
  9
$UCSXDIR
 10
1.0
 20
0.0
 30
0.0
  9
$UCSYDIR
 10
0.0
 20
1.0
 30
0.0
  9
$PUCSNAME
  2

  9
$PUCSORG
 10
0.0
 20
0.0
 30
0.0
  9
$PUCSXDIR
 10
1.0
 20
0.0
 30
0.0
  9
$PUCSYDIR
 10
0.0
 20
1.0
 30
0.0
  9
$USERI1
 70
     0
  9
$USERI2
 70
     0
  9
$USERI3
 70
     0
  9
$USERI4
 70
     0
  9
$USERI5
 70
     0
  9
$USERR1
 40
0.0
  9
$USERR2
 40
0.0
  9
$USERR3
 40
0.0
  9
$USERR4
 40
0.0
  9
$USERR5
 40
0.0
  9
$WORLDVIEW
 70
     1
  9
$SHADEDGE
 70
     3
  9
$SHADEDIF
 70
    70
  9
$TILEMODE
 70
     1
  9
$MAXACTVP
 70
    16
  9
$PLIMCHECK
 70
     0
  9
$PEXTMIN
 10
-0.2045606743994455
 20
-0.2427818936004229
 30
-0.0000000000112498
  9
$PEXTMAX
 10
26.1020975857860407
 20
36.1360283972394924
 30
0.0000000000002956
  9
$PLIMMIN
 10
-0.2500002402958907
 20
-0.2499999962453767
  9
$PLIMMAX
 10
10.7499995194082203
 20
8.2499997634587334
  9
$UNITMODE
 70
     0
  9
$VISRETAIN
 70
     0
  9
$PLINEGEN
 70
     0
  9
$PSLTSCALE
 70
     0
  0
ENDSEC
  0
SECTION
  2
TABLES
  0
TABLE
  2
VPORT
 70
     1
  0
VPORT
  2
*ACTIVE
 70
     0
 10
0.0
 20
0.0
 11
1.0
 21
1.0
 12
0.0021140725027635
 22
0.4680341643025941
 13
0.0
 23
0.0
 14
1.0
 24
1.0
 15
10.0
 25
10.0
 16
0.0000000000004121
 26
0.0
 36
1857.3275582920380202
 17
-55.25
 27
185.0
 37
-0.0000000000000583
 40
685.4976927031157174
 41
1.868197278911564
 42
50.0
 43
0.0
 44
0.0
 50
0.0
 51
0.0
 71
     0
 72
  1500
 73
     1
 74
     0
 75
     0
 76
     0
 77
     0
 78
     0
  0
ENDTAB
  0
TABLE
  2
LTYPE
 70
     4
  0
LTYPE
  2
CONTINUOUS
 70
     0
  3
Solid line
 72
    65
 73
     0
 40
0.0
  0
LTYPE
  2
AUSGEZOGEN
 70
     0
  3
Ausgezogene Linie
 72
    65
 73
     0
 40
0.0
  0
LTYPE
  2
VERDECKT
 70
     0
  3
_ _ _ _ _ _ _ _ _ _ _ _ _ _ _ _ _ _ _ _ _ _ _
 72
    65
 73
     2
 40
0.375
 49
0.25
 49
-0.125
  0
ENDTAB
  0
TABLE
  2
LAYER
 70
    10
  0
LAYER
  2
0
 70
     0
 62
     7
  6
CONTINUOUS
  0
LAYER
  2
VOLL
 70
     0
 62
     1
  6
CONTINUOUS
  0
LAYER
  2
BEM
 70
     0
 62
     7
  6
CONTINUOUS
  0
LAYER
  2
STEMPEL
 70
     0
 62
     3
  6
CONTINUOUS
  0
LAYER
  2
TEXT
 70
     0
 62
     7
  6
CONTINUOUS
  0
LAYER
  2
DEFPOINTS
 70
     0
 62
     7
  6
AUSGEZOGEN
  0
ENDTAB
  0
TABLE
  2
STYLE
 70
     2
  0
STYLE
  2
STANDARD
 70
     0
 40
0.0
 41
0.8
 50
0.0
 71
     0
 42
3.5
  3
simplex.shx
  4

  0
STYLE
  2
GREEKS
 70
     0
 40
0.0
 41
0.8
 50
0.0
 71
     0
 42
2.5
  3
SIMPLEX.shx
  4

  0
ENDTAB
  0
TABLE
  2
VIEW
 70
     0
  0
ENDTAB
  0
TABLE
  2
UCS
 70
     0
  0
ENDTAB
  0
TABLE
  2
APPID
 70
    12
  0
APPID
  2
ACAD
 70
     0
  0
APPID
  2
ACAD_NAV_VCDISPLAY
 70
     0
  0
APPID
  2
ACAECLAYERSTANDARD
 70
     0
  0
APPID
  2
ACCMTRANSPARENCY
 70
     0
  0
APPID
  2
ACAD_PSEXT
 70
     0
  0
APPID
  2
ACAD_MLEADERVER
 70
     0
  0
APPID
  2
ACAD_OBJECT_CHANGE_GUID
 70
     0
  0
APPID
  2
ACAD_EXEMPT_FROM_CAD_STANDARDS
 70
     0
  0
APPID
  2
ACADANNOMONITORALERTICONDI
 70
     0
  0
APPID
  2
ACAUTHENVIRON
 70
     0
  0
APPID
  2
ACDBDYNAMICBLOCKTRUENAME
 70
     0
  0
APPID
  2
ACDBDYNAMICBLOCKGUID
 70
     0
  0
ENDTAB
  0
TABLE
  2
DIMSTYLE
 70
     1
  0
DIMSTYLE
  2
STANDARD
 70
     0
  3

  4

  5

  6

  7

 40
1.0
 41
0.18
 42
0.0625
 43
0.38
 44
0.18
 45
0.0
 46
0.0
 47
0.0
 48
0.0
140
0.18
141
0.09
142
0.0
143
25.3999999999999986
144
1.0
145
0.0
146
1.0
147
0.09
 71
     0
 72
     0
 73
     1
 74
     1
 75
     0
 76
     0
 77
     0
 78
     0
170
     0
171
     2
172
     0
173
     0
174
     0
175
     0
176
     0
177
     0
178
     0
  0
ENDTAB
  0
ENDSEC
  0
SECTION
  2
BLOCKS
  0
BLOCK
  8
0
  2
$MODEL_SPACE
 70
     0
 10
0.0
 20
0.0
 30
0.0
  3
$MODEL_SPACE
  1

  0
ENDBLK
  5
36
  8
0
  0
BLOCK
 67
     1
  8
0
  2
$PAPER_SPACE
 70
     0
 10
0.0
 20
0.0
 30
0.0
  3
$PAPER_SPACE
  1

  0
ENDBLK
  5
34
 67
     1
  8
0
  0
BLOCK
  8
0
  2
A$C0F1A672C
 70
     0
 10
0.0
 20
0.0
 30
0.0
  3
A$C0F1A672C
  1

  0
LINE
  5
AF5
  8
0
  6
CONTINUOUS
 62
     3
 10
20.5625566823705412
 20
0.0
 30
0.0
 11
-20.5625566823705412
 21
0.0
 31
0.0
210
0.0
220
1.0
230
-0.0000000000000002
  0
LINE
  5
AF6
  8
0
  6
CONTINUOUS
 62
     3
 10
20.9999999999997691
 20
473.9999999999998863
 30
-0.0000000000001064
 11
-21.0000000000002309
 21
474.0000000000002842
 31
-0.0000000000001157
210
-1.0
220
0.0000000000000001
230
-0.0000000000000002
  0
LINE
  5
AF7
  8
0
  6
CONTINUOUS
 62
     3
 10
-20.5625566823705412
 20
-0.0000000000000107
 30
0.0
 11
-21.0
 21
5.0000000000000187
 31
-0.0000000000000011
210
0.0
220
1.0
230
-0.0000000000000002
  0
LINE
  5
AF8
  8
0
  6
CONTINUOUS
 62
     3
 10
20.5625566823705412
 20
0.0
 30
0.0
 11
21.0
 21
5.0000000000000568
 31
-0.0000000000000011
210
0.0
220
1.0
230
-0.0000000000000002
  0
LINE
  5
AF9
  8
0
  6
CONTINUOUS
 62
     3
 10
-21.0
 20
5.0000000000000293
 30
-0.0000000000000011
 11
-21.0
 21
474.0
 31
-0.0000000000001052
210
0.0
220
1.0
230
-0.0000000000000002
  0
LINE
  5
AFA
  8
0
  6
CONTINUOUS
 62
     3
 10
21.0
 20
5.0000000000000568
 30
-0.0000000000000011
 11
21.0
 21
474.0
 31
-0.0000000000001052
210
0.0
220
1.0
230
-0.0000000000000002
  0
ARC
  5
AFB
  8
0
  6
CONTINUOUS
 62
     3
 10
-25.9999999999999112
 20
474.0000000000001137
 30
0.0
 40
46.9999999999999076
210
0.0
220
-0.0000000000000002
230
-1.0
 50
359.9999999999997726
 51
90.0000000000003553
  0
ARC
  5
AFC
  8
0
  6
CONTINUOUS
 62
     3
 10
25.9999999999999112
 20
474.0000000000001137
 30
-0.0000000000001052
 40
4.9999999999998854
 50
90.0000000000023874
 51
180.0000000000011937
  0
LINE
  5
AFD
  8
0
  6
CONTINUOUS
 62
     3
 10
65.0000000000002274
 20
524.1476030003185542
 30
-0.0000000000001164
 11
65.0000000000002274
 21
475.8523969996813889
 31
-0.0000000000001057
210
0.0
220
1.0
230
-0.0000000000000002
  0
LINE
  5
AFE
  8
0
  6
CONTINUOUS
 62
     3
 10
-21.0
 20
474.0000000000001137
 30
-0.0000000000001157
 11
21.0
 21
474.0000000000001137
 31
-0.0000000000001064
210
-1.0
220
0.0000000000000001
230
-0.0000000000000002
  0
ARC
  5
AFF
  8
0
  6
CONTINUOUS
 62
     3
 10
-58.4578196795918004
 20
509.0000000000003979
 30
0.0
 40
16.4999999999995985
210
0.0
220
-0.0000000000000002
230
-1.0
 50
89.9999999999992042
 51
113.3592945446422959
  0
ARC
  5
B00
  8
0
  6
CONTINUOUS
 62
     3
 10
-58.4578196795918075
 20
490.9999999999994884
 30
0.0
 40
16.4999999999995417
210
0.0
220
-0.0000000000000002
230
-1.0
 50
246.6407054553575904
 51
270.0000000000007958
  0
LINE
  5
B01
  8
0
  6
CONTINUOUS
 62
     3
 10
58.4578196795915801
 20
474.5
 30
-0.0000000000001054
 11
53.3669999999999618
 21
474.5
 31
-0.0000000000001054
210
0.0
220
1.0
230
-0.0000000000000002
  0
LINE
  5
B02
  8
0
  6
CONTINUOUS
 62
     3
 10
58.4578196795915801
 20
525.4999999999998863
 30
-0.0000000000001167
 11
53.3669999999999618
 21
525.4999999999998863
 31
-0.0000000000001167
210
0.0
220
1.0
230
-0.0000000000000002
  0
ARC
  5
B03
  8
0
  6
CONTINUOUS
 62
     3
 10
-53.3679693176412613
 20
505.4970507576769023
 30
0.0
 40
20.0029492658090007
210
0.0
220
-0.0000000000000002
230
-1.0
 50
71.8060294016208758
 51
89.9972235189352574
  0
ARC
  5
B04
  8
0
  6
CONTINUOUS
 62
     3
 10
-53.3679693176412613
 20
494.502949242322984
 30
0.0
 40
20.0029492658090504
210
0.0
220
-0.0000000000000002
230
-1.0
 50
270.0027764810648137
 51
288.19397059837911
  0
ARC
  5
B05
  8
0
  6
CONTINUOUS
 62
     3
 10
-43.9999999999995595
 20
534.0000000000037517
 30
0.0
 40
10.0000000000037499
210
0.0
220
-0.0000000000000002
230
-1.0
 50
251.8060294016212879
 51
269.9999999999976126
  0
ARC
  5
B06
  8
0
  6
CONTINUOUS
 62
     3
 10
-43.9999999999995524
 20
465.9999999999960778
 30
0.0
 40
10.0000000000038103
210
0.0
220
-0.0000000000000002
230
-1.0
 50
90.0000000000024869
 51
108.1939705983784989
  0
LINE
  5
B07
  8
0
  6
CONTINUOUS
 62
     3
 10
44.0
 20
476.0
 30
-0.0000000000001057
 11
39.8218253804963069
 21
476.0
 31
-0.0000000000001057
210
0.0
220
1.0
230
-0.0000000000000002
  0
LINE
  5
B08
  8
0
  6
CONTINUOUS
 62
     3
 10
44.0
 20
524.0
 30
-0.0000000000001164
 11
39.8218253804963069
 21
524.0
 31
-0.0000000000001164
210
0.0
220
1.0
230
-0.0000000000000002
  0
ARC
  5
B09
  8
0
  6
CONTINUOUS
 62
     3
 10
-39.8218253804958024
 20
514.0000000000014779
 30
0.0
 40
9.9999999999984066
210
0.0
220
-0.0000000000000002
230
-1.0
 50
54.3409123038594473
 51
90.0000000000029416
  0
ARC
  5
B0A
  8
0
  6
CONTINUOUS
 62
     3
 10
-39.8218253804958096
 20
485.9999999999984084
 30
0.0
 40
9.9999999999984652
210
0.0
220
-0.0000000000000002
230
-1.0
 50
269.9999999999972147
 51
305.6590876961403751
  0
ARC
  5
B0B
  8
0
  6
CONTINUOUS
 62
     3
 10
-30.4944463274071715
 20
527.0000000000009095
 30
0.0
 40
6.0000000000009166
210
0.0
220
-0.0000000000000002
230
-1.0
 50
234.3409123038620976
 51
269.9999999999973284
  0
ARC
  5
B0C
  8
0
  6
CONTINUOUS
 62
     3
 10
-30.4944463274071396
 20
472.99999999999892
 30
0.0
 40
6.0000000000010223
210
0.0
220
-0.0000000000000002
230
-1.0
 50
90.0000000000028706
 51
125.6590876961375045
  0
LINE
  5
B0D
  8
0
  6
CONTINUOUS
 62
     3
 10
30.4944463274074415
 20
479.0
 30
-0.0000000000001064
 11
25.9999999999998899
 21
479.0
 31
-0.0000000000001064
210
0.0
220
1.0
230
-0.0000000000000002
  0
LINE
  5
B0E
  8
0
  6
CONTINUOUS
 62
     3
 10
30.4944463274074415
 20
521.0
 30
-0.0000000000001157
 11
25.9999999999998899
 21
521.0
 31
-0.0000000000001157
210
0.0
220
1.0
230
-0.0000000000000002
  0
LINE
  5
B0F
  8
0
  6
VERDECKT
 62
     1
 10
-19.0568269260555709
 20
-0.0000000000000093
 30
0.0
 11
-19.4999999999998899
 21
5.0654914143595331
 31
-0.0000000000000011
210
0.0
220
1.0
230
-0.0000000000000002
  0
LINE
  5
B10
  8
0
  6
VERDECKT
 62
     1
 10
19.0568269260555816
 20
0.0000000000000004
 30
0.0
 11
19.4999999999998792
 21
5.065491414359542
 31
-0.0000000000000011
210
0.0
220
1.0
230
-0.0000000000000002
  0
LINE
  5
B11
  8
0
  6
VERDECKT
 62
     1
 10
-19.5
 20
5.065491414359542
 30
-0.0000000000000011
 11
-19.5
 21
474.0000000000001137
 31
-0.0000000000001052
210
0.0
220
1.0
230
-0.0000000000000002
  0
LINE
  5
B12
  8
0
  6
VERDECKT
 62
     1
 10
19.5
 20
5.065491414359542
 30
-0.0000000000000011
 11
19.5
 21
474.0000000000001137
 31
-0.0000000000001052
210
0.0
220
1.0
230
-0.0000000000000002
  0
ARC
  5
B13
  8
0
  6
VERDECKT
 62
     1
 10
-25.9999999999999183
 20
474.0000000000001137
 30
0.0
 40
45.4999999999999005
210
0.0
220
-0.0000000000000002
230
-1.0
 50
0.0000000000000763
 51
90.0000000000003553
  0
ARC
  5
B14
  8
0
  6
VERDECKT
 62
     1
 10
25.9999999999999396
 20
474.0000000000001137
 30
-0.0000000000001052
 40
6.4999999999999432
 50
89.9999999999999858
 51
179.9999999999994884
  0
LINE
  5
B15
  8
0
  6
VERDECKT
 62
     1
 10
30.2381484475179185
 20
480.4999999999998863
 30
-0.0000000000001067
 11
26.0
 21
480.4999999999998863
 31
-0.0000000000001067
210
0.0
220
1.0
230
-0.0000000000000002
  0
LINE
  5
B16
  8
0
  6
VERDECKT
 62
     1
 10
30.2381484475179185
 20
519.5
 30
-0.0000000000001154
 11
26.0
 21
519.5
 31
-0.0000000000001154
210
0.0
220
1.0
230
-0.0000000000000002
  0
ARC
  5
B17
  8
0
  6
VERDECKT
 62
     1
 10
-30.2381484475177089
 20
527.8202184398954842
 30
0.0
 40
8.3202184398954913
210
0.0
220
-0.0000000000000002
230
-1.0
 50
236.1999521601669869
 51
269.9999999999985221
  0
ARC
  5
B18
  8
0
  6
VERDECKT
 62
     1
 10
-30.2381484475176912
 20
472.1797815601044022
 30
0.0
 40
8.3202184398955978
210
0.0
220
-0.0000000000000002
230
-1.0
 50
90.0000000000015064
 51
123.800047839832601
  0
ARC
  5
B19
  8
0
  6
VERDECKT
 62
     1
 10
-40.128682930199048
 20
513.0459411062065556
 30
0.0
 40
9.4590375368281538
210
0.0
220
-0.0000000000000002
230
-1.0
 50
56.1999521601673209
 51
88.140960143697356
  0
ARC
  5
B1A
  8
0
  6
VERDECKT
 62
     1
 10
-40.1286829301990196
 20
486.9540588937932171
 30
0.0
 40
9.4590375368279993
210
0.0
220
-0.0000000000000002
230
-1.0
 50
271.8590398563026156
 51
303.800047839833212
  0
LINE
  5
B1B
  8
0
  6
VERDECKT
 62
     1
 10
43.9999999999998792
 20
477.5
 30
-0.000000000000106
 11
39.8218253804965414
 21
477.5
 31
-0.000000000000106
210
0.0
220
1.0
230
-0.0000000000000002
  0
LINE
  5
B1C
  8
0
  6
VERDECKT
 62
     1
 10
43.9999999999998792
 20
522.5
 30
-0.000000000000116
 11
39.8218253804965414
 21
522.5
 31
-0.000000000000116
210
0.0
220
1.0
230
-0.0000000000000002
  0
ARC
  5
B1D
  8
0
  6
VERDECKT
 62
     1
 10
-43.9999999999992326
 20
534.0000000000028422
 30
0.0
 40
11.5000000000028493
210
0.0
220
-0.0000000000000002
230
-1.0
 50
250.4474799740696085
 51
269.9999999999967031
  0
ARC
  5
B1E
  8
0
  6
VERDECKT
 62
     1
 10
-43.9999999999992184
 20
465.9999999999968736
 30
0.0
 40
11.5000000000030091
210
0.0
220
-0.0000000000000002
230
-1.0
 50
90.0000000000033253
 51
109.5525200259302068
  0
ARC
  5
B1F
  8
0
  6
VERDECKT
 62
     1
 10
-52.7740350029383904
 20
509.294882209079617
 30
0.0
 40
14.7169131534596698
210
0.0
220
-0.0000000000000002
230
-1.0
 50
70.4474799740659705
 51
92.3091520903387845
  0
ARC
  5
B20
  8
0
  6
VERDECKT
 62
     1
 10
-52.7740350029383904
 20
490.7051177909202124
 30
0.0
 40
14.7169131534595596
210
0.0
220
-0.0000000000000002
230
-1.0
 50
267.6908479096612155
 51
289.5525200259342
  0
LINE
  5
B21
  8
0
  6
VERDECKT
 62
     1
 10
53.3669999999999618
 20
523.9998448162654086
 30
-0.0000000000001164
 11
58.4578196795914735
 21
524.0000000000001137
 31
-0.0000000000001164
210
0.0
220
1.0
230
-0.0000000000000002
  0
LINE
  5
B22
  8
0
  6
VERDECKT
 62
     1
 10
53.3669999999999618
 20
476.0001551837345914
 30
-0.0000000000001057
 11
58.4578196795914735
 21
475.9999999999997726
 31
-0.0000000000001057
210
0.0
220
1.0
230
-0.0000000000000002
  0
ARC
  5
B23
  8
0
  6
VERDECKT
 62
     1
 10
-58.4582768647040325
 20
509.0019915267217243
 30
0.0
 40
14.9980084802465896
210
0.0
220
-0.0000000000000002
230
-1.0
 50
89.9982534496199946
 51
115.8599435421233039
  0
ARC
  5
B24
  8
0
  6
VERDECKT
 62
     1
 10
-58.4582768647041178
 20
490.9980084732774799
 30
0.0
 40
14.9980084802458506
210
0.0
220
-0.0000000000000002
230
-1.0
 50
244.1400564578754881
 51
270.0017465503802896
  0
ENDBLK
  5
A9E
  8
0
  0
BLOCK
  8
0
  2
A$C3CAA77A6
 70
     0
 10
0.0
 20
0.0
 30
0.0
  3
A$C3CAA77A6
  1

  0
LINE
  5
B2F
  8
0
  6
CONTINUOUS
 62
     3
 10
20.5625566823704808
 20
-0.0000000000000058
 30
0.0
 11
0.0000000000000107
 21
0.0
 31
0.0
210
0.0000000000000002
220
1.0
230
-0.0000000000000002
  0
LINE
  5
B30
  8
0
  6
CONTINUOUS
 62
     3
 10
0.0000000000000049
 20
0.0
 30
0.0
 11
-20.5625566823705199
 21
0.0000000000000058
 31
0.0
210
0.0000000000000002
220
1.0
230
-0.0000000000000002
  0
LINE
  5
B31
  8
0
  6
CONTINUOUS
 62
     3
 10
-20.5625566823705306
 20
0.000000000000005
 30
0.0
 11
-20.9999999999999893
 21
5.0000000000000329
 31
-0.0000000000000011
210
0.0000000000000002
220
1.0
230
-0.0000000000000002
  0
LINE
  5
B32
  8
0
  6
CONTINUOUS
 62
     3
 10
20.5625566823705483
 20
-0.0000000000000068
 30
0.0
 11
21.0000000000000107
 21
5.000000000000024
 31
-0.0000000000000011
210
0.0000000000000002
220
1.0
230
-0.0000000000000002
  0
LINE
  5
B33
  8
0
  6
CONTINUOUS
 62
     3
 10
-21.0000000000000213
 20
5.0000000000000329
 30
-0.0000000000000011
 11
-20.999999999999801
 21
474.0
 31
-0.0000000000001052
210
0.0000000000000002
220
1.0
230
-0.0000000000000002
  0
LINE
  5
B34
  8
0
  6
CONTINUOUS
 62
     3
 10
20.9999999999999787
 20
5.000000000000024
 30
-0.0000000000000011
 11
21.000000000000199
 21
474.0
 31
-0.0000000000001052
210
0.0000000000000002
220
1.0
230
-0.0000000000000002
  0
LINE
  5
B35
  8
0
  6
CONTINUOUS
 62
     3
 10
21.0000000000001883
 20
474.0
 30
-0.0000000000001052
 11
21.0000000000001883
 21
485.5345238585106244
 31
-0.0000000000001078
210
0.0000000000000002
220
1.0
230
-0.0000000000000002
  0
LINE
  5
B36
  8
0
  6
CONTINUOUS
 62
     3
 10
-20.9999999999998117
 20
485.5345238585106244
 30
-0.0000000000001078
 11
-20.9999999999998117
 21
474.0
 31
-0.0000000000001052
210
0.0000000000000002
220
1.0
230
-0.0000000000000002
  0
CIRCLE
  5
B37
  8
0
  6
CONTINUOUS
 62
     3
 10
-0.0000000000001985
 20
500.0
 30
0.0
 40
25.5000000000000107
210
0.0
220
-0.0000000000000002
230
-1.0
  0
CIRCLE
  5
B38
  8
0
  6
CONTINUOUS
 62
     3
 10
-0.0000000000001985
 20
500.0
 30
0.0
 40
24.1476030003185613
210
0.0
220
-0.0000000000000002
230
-1.0
  0
CIRCLE
  5
B39
  8
0
  6
CONTINUOUS
 62
     3
 10
-0.0000000000001985
 20
500.0
 30
0.0
 40
19.5
210
0.0
220
-0.0000000000000002
230
-1.0
  0
CIRCLE
  5
B3A
  8
0
  6
CONTINUOUS
 62
     3
 10
-0.0000000000001985
 20
500.0
 30
0.0
 40
22.4981434521663495
210
0.0
220
-0.0000000000000002
230
-1.0
  0
LINE
  5
B3B
  8
0
  6
VERDECKT
 62
     1
 10
-19.0568269260555709
 20
0.0000000000000051
 30
0.0
 11
-19.4999999999998685
 21
5.0654914143595473
 31
-0.0000000000000011
210
0.0000000000000002
220
1.0
230
-0.0000000000000002
  0
LINE
  5
B3C
  8
0
  6
VERDECKT
 62
     1
 10
19.0568269260555816
 20
-0.000000000000006
 30
0.0
 11
19.4999999999999005
 21
5.0654914143595358
 31
-0.0000000000000011
210
0.0000000000000002
220
1.0
230
-0.0000000000000002
  0
LINE
  5
B3D
  8
0
  6
VERDECKT
 62
     1
 10
-19.5000000000000213
 20
5.0654914143595473
 30
-0.0000000000000011
 11
-19.4999999999997904
 21
474.0000000000001137
 31
-0.0000000000001052
210
0.0000000000000002
220
1.0
230
-0.0000000000000002
  0
LINE
  5
B3E
  8
0
  6
VERDECKT
 62
     1
 10
19.4999999999999787
 20
5.0654914143595384
 30
-0.0000000000000011
 11
19.500000000000199
 21
474.0000000000001137
 31
-0.0000000000001052
210
0.0000000000000002
220
1.0
230
-0.0000000000000002
  0
LINE
  5
B3F
  8
0
  6
VERDECKT
 62
     1
 10
19.5000000000001883
 20
474.0000000000001137
 30
-0.0000000000001052
 11
19.5000000000001883
 21
500.0
 31
-0.000000000000111
210
0.0000000000000002
220
1.0
230
-0.0000000000000002
  0
LINE
  5
B40
  8
0
  6
VERDECKT
 62
     1
 10
-19.499999999999801
 20
500.0
 30
-0.000000000000111
 11
-19.4999999999998117
 21
474.0000000000001137
 31
-0.0000000000001052
210
0.0000000000000002
220
1.0
230
-0.0000000000000002
  0
LINE
  5
B41
  8
0
  6
VERDECKT
 62
     1
 10
21.0000000000001883
 20
485.5345238585106244
 30
-0.0000000000001078
 11
21.000000000000199
 21
500.0
 31
-0.000000000000111
210
0.0000000000000002
220
1.0
230
-0.0000000000000002
  0
LINE
  5
B42
  8
0
  6
VERDECKT
 62
     1
 10
-20.999999999999801
 20
500.0
 30
-0.000000000000111
 11
-20.9999999999998117
 21
485.5345238585106244
 31
-0.0000000000001078
210
0.0000000000000002
220
1.0
230
-0.0000000000000002
  0
CIRCLE
  5
B43
  8
0
  6
VERDECKT
 62
     1
 10
-0.0000000000001985
 20
500.0
 30
0.0
 40
21.0
210
0.0
220
-0.0000000000000002
230
-1.0
  0
CIRCLE
  5
B44
  8
0
  6
VERDECKT
 62
     1
 10
-0.0000000000001985
 20
500.0
 30
0.0
 40
22.5
210
0.0
220
-0.0000000000000002
230
-1.0
  0
CIRCLE
  5
B45
  8
0
  6
VERDECKT
 62
     1
 10
-0.0000000000001985
 20
500.0
 30
0.0
 40
23.9998448162654086
210
0.0
220
-0.0000000000000002
230
-1.0
  0
CIRCLE
  5
B46
  8
0
  6
VERDECKT
 62
     1
 10
-0.0000000000001985
 20
500.0
 30
0.0
 40
24.0117953625392211
210
0.0
220
-0.0000000000000002
230
-1.0
  0
CIRCLE
  5
B47
  8
0
  6
VERDECKT
 62
     1
 10
-0.0000000000001985
 20
500.0
 30
0.0
 40
24.000000006968321
210
0.0
220
-0.0000000000000002
230
-1.0
  0
LINE
  5
B4B
  8
0
  6
CONTINUOUS
 62
     3
 10
21.000000000000199
 20
474.0000000000001137
 30
-0.0000000000001052
 11
-20.999999999999801
 21
474.0000000000001137
 31
-0.0000000000001052
  0
ENDBLK
  5
ABC
  8
0
  0
BLOCK
  8
0
  2
A$C26074771
 70
     0
 10
0.0
 20
0.0
 30
0.0
  3
A$C26074771
  1

  0
ARC
  5
B50
  8
0
  6
CONTINUOUS
 62
     3
 10
0.0
 20
0.0000000000000876
 30
0.0
 40
21.0
 50
90.0
 51
270.0
  0
LINE
  5
B53
  8
0
  6
CONTINUOUS
 62
     3
 10
25.9999999999998792
 20
21.0000000000000817
 30
0.0
 11
0.0
 21
21.0000000000000817
 31
0.0
  0
LINE
  5
B54
  8
0
  6
CONTINUOUS
 62
     3
 10
-0.0000000000000178
 20
-20.9999999999999183
 30
0.0
 11
25.9999999999998899
 21
-20.9999999999999183
 31
0.0
  0
LINE
  5
B55
  8
0
  6
CONTINUOUS
 62
     3
 10
65.0000000000002274
 20
24.1476030003187105
 30
0.0
 11
65.0000000000002274
 21
0.0000000000000888
 31
0.0
  0
LINE
  5
B56
  8
0
  6
CONTINUOUS
 62
     3
 10
65.0000000000002274
 20
0.0000000000000819
 30
0.0
 11
65.0000000000002274
 21
-24.147603000318469
 31
0.0
  0
ARC
  5
B59
  8
0
  6
CONTINUOUS
 62
     3
 10
58.4578196795917577
 20
9.0000000000004619
 30
0.0
 40
16.4999999999996412
 50
66.6407054553575335
 51
90.0000000000006253
  0
ARC
  5
B5A
  8
0
  6
CONTINUOUS
 62
     3
 10
58.4578196795918288
 20
-9.0000000000006004
 30
0.0
 40
16.4999999999993214
 50
269.9999999999990905
 51
293.3592945446425801
  0
LINE
  5
B5B
  8
0
  6
CONTINUOUS
 62
     3
 10
58.4578196795915801
 20
-25.4999999999999112
 30
0.0
 11
53.3669999999999618
 21
-25.4999999999999112
 31
0.0
  0
LINE
  5
B5C
  8
0
  6
CONTINUOUS
 62
     3
 10
58.4578196795915801
 20
25.5000000000000888
 30
0.0
 11
53.3669999999999618
 21
25.5000000000000888
 31
0.0
  0
ARC
  5
B5D
  8
0
  6
CONTINUOUS
 62
     3
 10
53.3679693176411121
 20
5.4970507576778358
 30
0.0
 40
20.0029492658082084
 50
90.0027764810643305
 51
108.1939705983793942
  0
ARC
  5
B5E
  8
0
  6
CONTINUOUS
 62
     3
 10
53.3679693176411902
 20
-5.4970507576771146
 30
0.0
 40
20.0029492658087484
 50
251.8060294016208047
 51
269.9972235189354137
  0
ARC
  5
B5F
  8
0
  6
CONTINUOUS
 62
     3
 10
43.9999999999996518
 20
34.0000000000033822
 30
0.0
 40
10.0000000000032898
 50
270.0000000000019895
 51
288.19397059837911
  0
ARC
  5
B60
  8
0
  6
CONTINUOUS
 62
     3
 10
43.9999999999996376
 20
-34.000000000003169
 30
0.0
 40
10.0000000000032507
 50
71.8060294016208758
 51
89.9999999999980105
  0
LINE
  5
B61
  8
0
  6
CONTINUOUS
 62
     3
 10
44.0
 20
-23.9999999999999112
 30
0.0
 11
39.8218253804963069
 21
-23.9999999999999112
 31
0.0
  0
LINE
  5
B62
  8
0
  6
CONTINUOUS
 62
     3
 10
44.0
 20
24.0000000000000888
 30
0.0
 11
39.8218253804963069
 21
24.0000000000000888
 31
0.0
  0
ARC
  5
B63
  8
0
  6
CONTINUOUS
 62
     3
 10
39.821825380495838
 20
14.0000000000015898
 30
0.0
 40
9.9999999999984954
 50
89.9999999999973141
 51
125.659087696140503
  0
ARC
  5
B64
  8
0
  6
CONTINUOUS
 62
     3
 10
39.8218253804958735
 20
-14.0000000000013394
 30
0.0
 40
9.99999999999857
 50
234.3409123038570101
 51
270.0
  0
ARC
  5
B65
  8
0
  6
CONTINUOUS
 62
     3
 10
30.4944463274072213
 20
27.0000000000008811
 30
0.0
 40
6.0000000000007914
 50
270.0000000000021032
 51
305.6590876961382151
  0
ARC
  5
B66
  8
0
  6
CONTINUOUS
 62
     3
 10
30.4944463274072
 20
-27.0000000000007603
 30
0.0
 40
6.0000000000008447
 50
54.3409123038619697
 51
89.9999999999977405
  0
LINE
  5
B67
  8
0
  6
CONTINUOUS
 62
     3
 10
30.4944463274074415
 20
-20.9999999999999112
 30
0.0
 11
25.9999999999998899
 21
-20.9999999999999112
 31
0.0
  0
LINE
  5
B68
  8
0
  6
CONTINUOUS
 62
     3
 10
30.4944463274074415
 20
21.0000000000000888
 30
0.0
 11
25.9999999999998899
 21
21.0000000000000888
 31
0.0
  0
CIRCLE
  5
B69
  8
0
  6
VERDECKT
 62
     1
 10
0.0
 20
0.0000000000000091
 30
0.0
 40
19.0568269260555709
  0
CIRCLE
  5
B6A
  8
0
  6
VERDECKT
 62
     1
 10
0.0
 20
0.0000000000000091
 30
0.0
 40
20.5625566823705306
  0
CIRCLE
  5
B6B
  8
0
  6
VERDECKT
 62
     1
 10
0.0
 20
0.0000000000000859
 30
0.0
 40
19.5
  0
ARC
  5
B6C
  8
0
  6
VERDECKT
 62
     1
 10
0.0
 20
0.0000000000000859
 30
0.0
 40
21.0
 50
270.0
 51
90.0
  0
LINE
  5
B6D
  8
0
  6
VERDECKT
 62
     1
 10
26.0000000000001208
 20
19.5000000000000817
 30
0.0
 11
0.0
 21
19.5000000000000817
 31
0.0
  0
LINE
  5
B6E
  8
0
  6
VERDECKT
 62
     1
 10
0.0000000000000107
 20
-19.4999999999999112
 30
0.0
 11
26.0000000000001208
 21
-19.4999999999999112
 31
0.0
  0
LINE
  5
B6F
  8
0
  6
VERDECKT
 62
     1
 10
30.2381484475179185
 20
-19.4999999999999112
 30
0.0
 11
26.0
 21
-19.4999999999999112
 31
0.0
  0
LINE
  5
B70
  8
0
  6
VERDECKT
 62
     1
 10
30.2381484475179185
 20
19.5000000000000888
 30
0.0
 11
26.0
 21
19.5000000000000888
 31
0.0
  0
ARC
  5
B71
  8
0
  6
VERDECKT
 62
     1
 10
30.2381484475178013
 20
27.8202184398953385
 30
0.0
 40
8.3202184398952514
 50
270.0000000000007958
 51
303.800047839833212
  0
ARC
  5
B72
  8
0
  6
VERDECKT
 62
     1
 10
30.2381484475177906
 20
-27.8202184398951786
 30
0.0
 40
8.3202184398952674
 50
56.1999521601668306
 51
89.9999999999992042
  0
ARC
  5
B73
  8
0
  6
VERDECKT
 62
     1
 10
40.1286829301989272
 20
13.0459411062071595
 30
0.0
 40
9.4590375368276636
 50
91.8590398563020187
 51
123.8000478398337947
  0
ARC
  5
B74
  8
0
  6
VERDECKT
 62
     1
 10
40.1286829301988988
 20
-13.0459411062070991
 30
0.0
 40
9.459037536827541
 50
236.1999521601659069
 51
268.1409601436981234
  0
LINE
  5
B75
  8
0
  6
VERDECKT
 62
     1
 10
43.9999999999998792
 20
-22.4999999999999112
 30
0.0
 11
39.8218253804965414
 21
-22.4999999999999112
 31
0.0
  0
LINE
  5
B76
  8
0
  6
VERDECKT
 62
     1
 10
43.9999999999998792
 20
22.5000000000000888
 30
0.0
 11
39.8218253804965414
 21
22.5000000000000888
 31
0.0
  0
ARC
  5
B77
  8
0
  6
VERDECKT
 62
     1
 10
43.9999999999993321
 20
34.0000000000025366
 30
0.0
 40
11.5000000000024603
 50
270.0000000000027853
 51
289.5525200259306189
  0
ARC
  5
B78
  8
0
  6
VERDECKT
 62
     1
 10
43.9999999999993179
 20
-34.0000000000024301
 30
0.0
 40
11.50000000000251
 50
70.4474799740694806
 51
89.9999999999972147
  0
ARC
  5
B79
  8
0
  6
VERDECKT
 62
     1
 10
52.774035002938362
 20
9.2948822090795318
 30
0.0
 40
14.7169131534597604
 50
87.6908479096610876
 51
109.5525200259337026
  0
ARC
  5
B7A
  8
0
  6
VERDECKT
 62
     1
 10
52.7740350029383904
 20
-9.2948822090792174
 30
0.0
 40
14.7169131534599096
 50
250.4474799740663116
 51
272.3091520903387845
  0
LINE
  5
B7B
  8
0
  6
VERDECKT
 62
     1
 10
53.3669999999999618
 20
23.9998448162655009
 30
0.0
 11
58.4578196795914735
 21
24.000000000000199
 31
0.0
  0
LINE
  5
B7C
  8
0
  6
VERDECKT
 62
     1
 10
53.3669999999999618
 20
-23.9998448162653197
 30
0.0
 11
58.4578196795914735
 21
-24.0000000000000284
 31
0.0
  0
ARC
  5
B7D
  8
0
  6
VERDECKT
 62
     1
 10
58.4582768647039686
 20
9.0019915267217243
 30
0.0
 40
14.9980084802466695
 50
64.1400564578764545
 51
90.001746550379778
  0
ARC
  5
B7E
  8
0
  6
VERDECKT
 62
     1
 10
58.4582768647039828
 20
-9.0019915267216444
 30
0.0
 40
14.9980084802465807
 50
269.998253449620222
 51
295.8599435421236876
  0
ENDBLK
  5
AF0
  8
0
  0
BLOCK
  8
0
  2
*U12
 70
     1
 10
0.0
 20
0.0
 30
0.0
  3
*U12
  1

  0
TEXT
  5
BD1
  8
BEM
 62
     1
 10
205.3879880493472001
 20
553.045381884723497
 30
0.0
 40
7.0
  1
65
 41
0.8
  0
ENDBLK
  5
BD3
  8
0
  0
BLOCK
  8
0
  2
*U13
 70
     1
 10
0.0
 20
0.0
 30
0.0
  3
*U13
  1

  0
TEXT
  5
BD5
  8
BEM
 62
     1
 10
145.0551628332777909
 20
537.2088271523872436
 30
0.0
 40
7.0
  1
90°
 50
45.0
 41
0.8
  0
ENDBLK
  5
BD7
  8
0
  0
BLOCK
  8
0
  2
*U14
 70
     1
 10
0.0
 20
0.0
 30
0.0
  3
*U14
  1

  0
TEXT
  5
BD9
  8
BEM
 62
     1
 10
209.5518407022447889
 20
483.8863769019368988
 30
0.0
 40
7.0
  1
R26
 50
306.4367975395250028
 41
0.8
  0
ENDBLK
  5
BDB
  8
0
  0
BLOCK
  8
0
  2
*U15
 70
     1
 10
0.0
 20
0.0
 30
0.0
  3
*U15
  1

  0
TEXT
  5
BE0
  8
BEM
 62
     1
 10
161.9546547160138914
 20
173.6599604219258879
 30
0.0
 40
7.0
  1
\U+220542x1.5
 41
0.8
  0
ENDBLK
  5
BE2
  8
0
  0
BLOCK
  8
0
  2
*U16
 70
     1
 10
0.0
 20
0.0
 30
0.0
  3
*U16
  1

  0
TEXT
  5
BE4
  8
BEM
 62
     1
 10
137.5153276668636977
 20
344.9412401202941965
 30
0.0
 40
7.0
  1
500
 50
90.0
 41
0.8
  0
ENDBLK
  5
BE6
  8
0
  0
ENDSEC
  0
SECTION
  2
ENTITIES
  0
TEXT
  5
8F
  8
VOLL
 10
78.076754716981128
 20
31.025947764705851
 30
0.0
 40
1.8
  1

  7
GREEKS
  0
TEXT
  5
54E
  8
VOLL
 10
811.6938627170596874
 20
185.377088152025209
 30
0.0
 40
1.8
  1

  7
GREEKS
  0
TEXT
  5
54F
  8
TEXT
 10
1143.5261309206530314
 20
190.9353236852506939
 30
0.0
 40
2.5
  1
  
  7
GREEKS
 72
     1
 11
1145.7880356825569379
 21
190.9353236852506939
 31
0.0
  0
TEXT
  5
550
  8
BEM
 10
1387.6458482331349842
 20
326.4942057156529813
 30
0.0
 40
2.5
  1
 
 72
     4
 11
1388.7768006140870511
 21
326.4942057156529813
 31
0.0
  0
TEXT
  5
551
  8
BEM
 10
966.8334648738555188
 20
205.710499041701695
 30
0.0
 40
2.5
  1

  7
GREEKS
  0
TEXT
  5
552
  8
VOLL
 10
952.767271854134151
 20
185.5272383846665889
 30
0.0
 40
1.8
  1

  7
GREEKS
  0
TEXT
  5
553
  8
BEM
 10
987.2553366934187125
 20
190.2529627078872068
 30
0.0
 40
2.5
  1

 41
0.8
  7
GREEKS
  0
TEXT
  5
554
  8
BEM
 10
987.2553366934187125
 20
185.559194153835108
 30
0.0
 40
2.5
  1

 41
0.8
  7
GREEKS
  0
TEXT
  5
555
  8
BEM
 10
987.2553366934187125
 20
180.3213503351715872
 30
0.0
 40
2.5
  1

 41
0.8
  7
GREEKS
  0
TEXT
  5
556
  8
BEM
 10
987.1823922160442635
 20
175.8161613850739116
 30
0.0
 40
1.8
  1

 41
0.8
  7
GREEKS
  0
TEXT
  5
557
  8
BEM
 10
974.4988213364331386
 20
201.4077504812993027
 30
0.0
 40
2.0
  1

 41
0.8
  7
GREEKS
 72
     1
 11
974.4988213364331386
 21
201.4077504812993027
 31
0.0
  0
TEXT
  5
558
  8
TEXT
 10
1284.5995400577269265
 20
191.0854739178921875
 30
0.0
 40
2.5
  1
  
  7
GREEKS
 72
     1
 11
1286.8614448196319699
 21
191.0854739178921875
 31
0.0
  0
TEXT
  5
559
  8
BEM
 10
1528.7192573702091067
 20
326.6443559482945034
 30
0.0
 40
2.5
  1
 
 72
     4
 11
1529.8502097511609463
 21
326.6443559482945034
 31
0.0
  0
INSERT
  5
A9F
  8
STEMPEL
  2
A$C0F1A672C
 10
0.0
 20
0.0
 30
0.0
  0
INSERT
  5
ABD
  8
STEMPEL
  2
A$C3CAA77A6
 10
-150.0
 20
0.0
 30
0.0
  0
INSERT
  5
AF1
  8
STEMPEL
  2
A$C26074771
 10
0.0
 20
-130.0
 30
0.0
  0
VIEWPORT
  5
7F0
 67
     1
  8
0
 10
12.9489680796147208
 20
17.9469005798324694
 30
0.0
 40
71.9962180724197083
 41
36.6673965880118971
 68
     1
 69
     1
1001
ACAD
1000
MVIEW
1002
{
1070
    16
1010
0.0
1020
0.0
1030
0.0
1010
0.0
1020
0.0
1030
1.0
1040
0.0
1040
36.6673965880118971
1040
12.9489680796147208
1040
17.9469005798324694
1040
50.0
1040
0.0
1040
0.0
1070
     0
1070
  1500
1070
     1
1070
     1
1070
     0
1070
     0
1070
     0
1070
     0
1040
0.0
1040
0.0
1040
0.0
1040
10.0
1040
10.0
1040
10.0
1040
10.0
1070
     0
1002
{
1002
}
1002
}
  0
VIEWPORT
  5
7F4
 67
     1
  8
DEFPOINTS
 10
12.9489816589258702
 20
17.9466577226360684
 30
0.0
 40
26.3054273938276495
 41
36.3776305799355697
 68
     2
 69
     2
1001
ACAD
1000
MVIEW
1002
{
1070
    16
1010
559.437591440186111
1020
205.868199846941593
1030
150.9648189948100026
1010
0.0
1020
0.0
1030
1.0
1040
0.0
1040
605.414161020771644
1040
-343.3160819806665813
1040
93.1173963111733087
1040
50.0
1040
0.0
1040
0.0
1070
     0
1070
  1500
1070
     1
1070
     0
1070
     0
1070
     0
1070
     0
1070
     0
1040
0.0
1040
0.0
1040
0.0
1040
1.0
1040
1.0
1040
10.0
1040
10.0
1070
     0
1002
{
1002
}
1002
}
  0
VIEWPORT
  5
7F8
 67
     1
  8
DEFPOINTS
 10
20.3475984231236104
 20
20.4676467538282409
 30
0.0
 40
2.9232480027589238
 41
12.2206103241631308
 68
     3
 69
     3
1001
ACAD
1000
MVIEW
1002
{
1070
    16
1010
804.3130640736355872
1020
289.3838488653499894
1030
161.2251444294691112
1010
203.8406627860339029
1020
0.0
1030
760.7437101659929795
1040
1.5707963267948959
1040
563.8085759367811534
1040
37.2465013079127516
1040
0.0
1040
50.0
1040
0.0
1040
0.0
1070
     0
1070
  1500
1070
     1
1070
     0
1070
     0
1070
     0
1070
     0
1070
     0
1040
0.0
1040
0.0
1040
0.0
1040
1.0
1040
1.0
1040
10.0
1040
10.0
1070
     0
1002
{
1002
}
1002
}
  0
ENDSEC
  0
EOF
