  0
SECTION
  2
HEADER
  9
$ACADVER
  1
AC1009
  9
$INSBASE
 10
0.0
 20
0.0
 30
0.0
  9
$EXTMIN
 10
-126.5000000000000995
 20
-76.4999999999999432
 30
-0.0000000000000279
  9
$EXTMAX
 10
65.0000127134391619
 20
125.4999999999999005
 30
0.0000000000000144
  9
$LIMMIN
 10
0.0
 20
0.0
  9
$LIMMAX
 10
595.0
 20
421.0
  9
$ORTHOMODE
 70
     1
  9
$REGENMODE
 70
     1
  9
$FILLMODE
 70
     1
  9
$QTEXTMODE
 70
     0
  9
$MIRRTEXT
 70
     1
  9
$DRAGMODE
 70
     2
  9
$LTSCALE
 40
10.0
  9
$OSMODE
 70
   511
  9
$ATTMODE
 70
     1
  9
$TEXTSIZE
 40
3.5
  9
$TRACEWID
 40
1.0
  9
$TEXTSTYLE
  7
STANDARD
  9
$CLAYER
  8
STEMPEL
  9
$CELTYPE
  6
BYLAYER
  9
$CECOLOR
 62
   256
  9
$DIMSCALE
 40
1.0
  9
$DIMASZ
 40
3.5
  9
$DIMEXO
 40
1.0
  9
$DIMDLI
 40
0.38
  9
$DIMRND
 40
0.0
  9
$DIMDLE
 40
0.0
  9
$DIMEXE
 40
1.0
  9
$DIMTP
 40
0.0
  9
$DIMTM
 40
0.000000001
  9
$DIMTXT
 40
3.5
  9
$DIMCEN
 40
0.09
  9
$DIMTSZ
 40
0.0
  9
$DIMTOL
 70
     0
  9
$DIMLIM
 70
     0
  9
$DIMTIH
 70
     0
  9
$DIMTOH
 70
     0
  9
$DIMSE1
 70
     0
  9
$DIMSE2
 70
     0
  9
$DIMTAD
 70
     1
  9
$DIMZIN
 70
     8
  9
$DIMBLK
  1

  9
$DIMASO
 70
     1
  9
$DIMSHO
 70
     0
  9
$DIMPOST
  1

  9
$DIMAPOST
  1

  9
$DIMALT
 70
     0
  9
$DIMALTD
 70
     2
  9
$DIMALTF
 40
25.3999999999999986
  9
$DIMLFAC
 40
1.0
  9
$DIMTOFL
 70
     1
  9
$DIMTVP
 40
0.0
  9
$DIMTIX
 70
     0
  9
$DIMSOXD
 70
     0
  9
$DIMSAH
 70
     0
  9
$DIMBLK1
  1

  9
$DIMBLK2
  1

  9
$DIMSTYLE
  2
LORO
  9
$DIMCLRD
 70
     0
  9
$DIMCLRE
 70
     0
  9
$DIMCLRT
 70
     1
  9
$DIMTFAC
 40
0.5
  9
$DIMGAP
 40
1.5
  9
$LUNITS
 70
     2
  9
$LUPREC
 70
     2
  9
$SKETCHINC
 40
1.0
  9
$FILLETRAD
 40
0.0
  9
$AUNITS
 70
     0
  9
$AUPREC
 70
     0
  9
$MENU
  1
ACAD
  9
$ELEVATION
 40
0.0
  9
$PELEVATION
 40
0.0
  9
$THICKNESS
 40
0.0
  9
$LIMCHECK
 70
     0
  9
$BLIPMODE
 70
     0
  9
$CHAMFERA
 40
0.0
  9
$CHAMFERB
 40
0.0
  9
$SKPOLY
 70
     0
  9
$TDCREATE
 40
2458101.3126273150555789
  9
$TDUPDATE
 40
2460539.4703356479294598
  9
$TDINDWG
 40
1.4234490741000001
  9
$TDUSRTIMER
 40
1.4234143519
  9
$USRTIMER
 70
     1
  9
$ANGBASE
 50
0.0
  9
$ANGDIR
 70
     0
  9
$PDMODE
 70
     0
  9
$PDSIZE
 40
0.0
  9
$PLINEWID
 40
0.0
  9
$COORDS
 70
     1
  9
$SPLFRAME
 70
     0
  9
$SPLINETYPE
 70
     6
  9
$SPLINESEGS
 70
     8
  9
$ATTDIA
 70
     1
  9
$ATTREQ
 70
     1
  9
$HANDLING
 70
     1
  9
$HANDSEED
  5
C3B3
  9
$SURFTAB1
 70
     6
  9
$SURFTAB2
 70
     6
  9
$SURFTYPE
 70
     6
  9
$SURFU
 70
     6
  9
$SURFV
 70
     6
  9
$UCSNAME
  2

  9
$UCSORG
 10
0.0
 20
0.0
 30
0.0
  9
$UCSXDIR
 10
1.0
 20
0.0
 30
0.0
  9
$UCSYDIR
 10
0.0
 20
1.0
 30
0.0
  9
$PUCSNAME
  2

  9
$PUCSORG
 10
0.0
 20
0.0
 30
0.0
  9
$PUCSXDIR
 10
1.0
 20
0.0
 30
0.0
  9
$PUCSYDIR
 10
0.0
 20
1.0
 30
0.0
  9
$USERI1
 70
     0
  9
$USERI2
 70
     0
  9
$USERI3
 70
     0
  9
$USERI4
 70
     0
  9
$USERI5
 70
     0
  9
$USERR1
 40
0.0
  9
$USERR2
 40
0.0
  9
$USERR3
 40
0.0
  9
$USERR4
 40
0.0
  9
$USERR5
 40
0.0
  9
$WORLDVIEW
 70
     1
  9
$SHADEDGE
 70
     3
  9
$SHADEDIF
 70
    70
  9
$TILEMODE
 70
     1
  9
$MAXACTVP
 70
    16
  9
$PLIMCHECK
 70
     0
  9
$PEXTMIN
 10
58.9714847780478522
 20
326.1454323885366193
 30
0.0
  9
$PEXTMAX
 10
172.6331271309036026
 20
375.4999997373603833
 30
0.0
  9
$PLIMMIN
 10
-0.2447500984323199
 20
-0.2499997494781497
  9
$PLIMMAX
 10
296.7552499015677085
 20
419.7500002505219072
  9
$UNITMODE
 70
     0
  9
$VISRETAIN
 70
     0
  9
$PLINEGEN
 70
     0
  9
$PSLTSCALE
 70
     0
  0
ENDSEC
  0
SECTION
  2
TABLES
  0
TABLE
  2
VPORT
 70
     1
  0
VPORT
  2
*ACTIVE
 70
     0
 10
0.0
 20
0.0
 11
1.0
 21
1.0
 12
-50.0000012726750072
 22
-25.0010662078857706
 13
0.0
 23
0.0
 14
1.0
 24
1.0
 15
10.0
 25
10.0
 16
0.0000000000001101
 26
0.0
 36
492.3608268397495067
 17
19.2500076293945313
 27
49.5010662078857422
 37
-0.0000000000000068
 40
203.0412371134019054
 41
1.8847807394668961
 42
50.0
 43
0.0
 44
0.0
 50
0.0
 51
0.0
 71
     0
 72
  1500
 73
     1
 74
     1
 75
     0
 76
     0
 77
     0
 78
     0
  0
ENDTAB
  0
TABLE
  2
LTYPE
 70
     3
  0
LTYPE
  2
CONTINUOUS
 70
     0
  3
Solid line
 72
    65
 73
     0
 40
0.0
  0
LTYPE
  2
STRICHPUNKT
 70
     0
  3
__ . __ . __ . __ . __ . __ . __ . __ . __ . __
 72
    65
 73
     4
 40
1.0
 49
0.5
 49
-0.25
 49
0.0
 49
-0.25
  0
LTYPE
  2
VERDECKT
 70
     0
  3
Verdeckt __ __ __ __ __ __ __ __ __ __ __ __ __
 72
    65
 73
     2
 40
0.375
 49
0.25
 49
-0.125
  0
ENDTAB
  0
TABLE
  2
LAYER
 70
     6
  0
LAYER
  2
0
 70
     0
 62
     7
  6
CONTINUOUS
  0
LAYER
  2
STEMPEL
 70
     0
 62
     3
  6
CONTINUOUS
  0
LAYER
  2
ADSK_ASSOC_ENTITY_BACKUPS
 70
     1
 62
    -7
  6
CONTINUOUS
  0
LAYER
  2
INDEX
 70
     0
 62
  -255
  6
CONTINUOUS
  0
ENDTAB
  0
TABLE
  2
STYLE
 70
     2
  0
STYLE
  2
STANDARD
 70
     0
 40
0.0
 41
0.8
 50
0.0
 71
     0
 42
3.5
  3
simplex.shx
  4

  0
STYLE
  2
GREEKS
 70
     0
 40
0.0
 41
0.8
 50
0.0
 71
     0
 42
2.5
  3
SIMPLEX.shx
  4

  0
ENDTAB
  0
TABLE
  2
VIEW
 70
     0
  0
ENDTAB
  0
TABLE
  2
UCS
 70
     0
  0
ENDTAB
  0
TABLE
  2
APPID
 70
    47
  0
APPID
  2
ACAD
 70
     0
  0
APPID
  2
ACAD_NAV_VCDISPLAY
 70
     0
  0
APPID
  2
ACAD_EXEMPT_FROM_CAD_STANDARDS
 70
     0
  0
APPID
  2
ACAD_PSEXT
 70
     0
  0
APPID
  2
ACAUTHENVIRON
 70
     0
  0
APPID
  2
ACDBDYNAMICBLOCKTRUENAME
 70
     0
  0
APPID
  2
ACDBDYNAMICBLOCKGUID
 70
     0
  0
APPID
  2
ACAECLAYERSTANDARD
 70
     0
  0
APPID
  2
ACCMTRANSPARENCY
 70
     0
  0
APPID
  2
ACAD_STEPID
 70
     0
  0
APPID
  2
ACSYNERGY
 70
     0
  0
APPID
  2
SYNERGY_BODY_TBR_ID
 70
     0
  0
APPID
  2
ACAD_VIEW_EDGE_ID
 70
     0
  0
APPID
  2
ACAD_DSTYLE_DIMJAG
 70
     0
  0
APPID
  2
ACAD_DSTYLE_DIMTALN
 70
     0
  0
APPID
  2
ACADANNOMONITORALERTICONDI
 70
     0
  0
APPID
  2
ACSYNERGYSKETCH
 70
     0
  0
APPID
  2
ACAD_MODELDOC_XFORM
 70
     0
  0
APPID
  2
ACAD_DIMASSOC_CALC_DIMLFAC
 70
     0
  0
APPID
  2
ACAD_DIMASSOC_DIMLFAC
 70
     0
  0
APPID
  2
ACAD_DIMASSOC_OVERRIDDEN_D
 70
     0
  0
APPID
  2
ACADANNOPO
 70
     0
  0
APPID
  2
GRADIENTCOLOR1ACI
 70
     0
  0
APPID
  2
GRADIENTCOLOR2ACI
 70
     0
  0
APPID
  2
ACAD_DSTYLE_DIMRADIAL_EXTENSION
 70
     0
  0
APPID
  2
ACAD_MLEADERVER
 70
     0
  0
APPID
  2
ACAD_OBJECT_CHANGE_GUID
 70
     0
  0
APPID
  2
MCAD_NO_VIS
 70
     0
  0
APPID
  2
ACAD_TEMP_GRAPHIC
 70
     0
  0
APPID
  2
ACATTRIBSERVICES
 70
     0
  0
APPID
  2
DESIGNERASSEMBLIES
 70
     0
  0
APPID
  2
ACAD_DSTYLE_DIMBREAK
 70
     0
  0
APPID
  2
GENIUS_GENSCREG_15
 70
     0
  0
APPID
  2
GENIUS_GENOBJ-N-SDF_13
 70
     0
  0
APPID
  2
GENIUS_GENODEF_13
 70
     0
  0
APPID
  2
ACAD_DSTYLE_DIMARC_LENGTH_
 70
     0
  0
APPID
  2
ACAD_DSTYLE_DIM_LINETYPE
 70
     0
  0
APPID
  2
ACAD_DSTYLE_DIM_EXT1_LINETYPE
 70
     0
  0
APPID
  2
ACAD_DSTYLE_DIM_EXT2_LINETYPE
 70
     0
  0
APPID
  2
RAK
 70
     0
  0
APPID
  2
GENIUS_GENDTOL_13
 70
     0
  0
APPID
  2
ACAD_DSTYLE_DIMINSPECT
 70
     0
  0
APPID
  2
ACAD_DSTYLE_DIMANGULAR_EXT
 70
     0
  0
APPID
  2
PLOTTRANSPARENCY
 70
     0
  0
APPID
  2
PE_URL
 70
     0
  0
APPID
  2
ACADANNOAV
 70
     0
  0
APPID
  2
ACADANNOTATIVE
 70
     0
  0
ENDTAB
  0
TABLE
  2
DIMSTYLE
 70
     3
  0
DIMSTYLE
  2
LORO
 70
     0
  3

  4

  5

  6

  7

 40
1.0
 41
3.5
 42
1.0
 43
0.38
 44
1.0
 45
0.0
 46
0.0
 47
0.0
 48
0.000000001
140
3.5
141
0.09
142
0.0
143
25.3999999999999986
144
1.0
145
0.0
146
0.5
147
1.5
 71
     0
 72
     0
 73
     0
 74
     0
 75
     0
 76
     0
 77
     1
 78
     8
170
     0
171
     2
172
     1
173
     0
174
     0
175
     0
176
     0
177
     0
178
     1
  0
ENDTAB
  0
ENDSEC
  0
SECTION
  2
BLOCKS
  0
BLOCK
  8
0
  2
$MODEL_SPACE
 70
     0
 10
0.0
 20
0.0
 30
0.0
  3
$MODEL_SPACE
  1

  0
ENDBLK
  5
38
  8
0
  0
BLOCK
 67
     1
  8
0
  2
$PAPER_SPACE
 70
     0
 10
0.0
 20
0.0
 30
0.0
  3
$PAPER_SPACE
  1

  0
ENDBLK
  5
36
 67
     1
  8
0
  0
BLOCK
  8
0
  2
*S0
 70
     1
 10
0.0
 20
0.0
 30
0.0
  3
*S0
  1

  0
ENDBLK
  5
571
  8
0
  0
BLOCK
  8
0
  2
A$C1F7C60E7
 70
     0
 10
0.0
 20
0.0
 30
0.0
  3
A$C1F7C60E7
  1

  0
LINE
  5
C2A2
  8
0
  6
CONTINUOUS
 62
     3
 10
-26.0
 20
-0.0000000000000052
 30
0.0
 11
26.0
 21
-0.0000000000000052
 31
0.0
210
0.0
220
1.0
230
-0.0000000000000002
  0
LINE
  5
C2A3
  8
0
  6
CONTINUOUS
 62
     3
 10
-21.0000000000006786
 20
74.0000000000002842
 30
-0.0000000000000164
 11
21.0000000000009095
 21
74.0000000000002274
 31
-0.0000000000000164
210
0.0
220
1.0
230
-0.0000000000000002
  0
ARC
  5
C2A4
  8
0
  6
CONTINUOUS
 62
     3
 10
25.5000000000007212
 20
5.049875621120778
 30
0.0
 40
0.9999999999992859
210
0.0
220
-0.0000000000000002
230
-1.0
 50
354.289406862497799
 51
0.0000000000013358
  0
ARC
  5
C2A5
  8
0
  6
CONTINUOUS
 62
     3
 10
-25.5000000000007212
 20
5.049875621120778
 30
0.0
 40
0.9999999999992859
210
0.0
220
-0.0000000000000002
230
-1.0
 50
179.9999999999986073
 51
185.710593137502201
  0
LINE
  5
C2A6
  8
0
  6
CONTINUOUS
 62
     3
 10
26.5
 20
47.4243878323913108
 30
-0.0000000000000105
 11
26.5
 21
5.0498756211208047
 31
-0.0000000000000011
210
0.0
220
1.0
230
-0.0000000000000002
  0
LINE
  5
C2A7
  8
0
  6
CONTINUOUS
 62
     3
 10
-26.5
 20
47.4243878323913108
 30
-0.0000000000000105
 11
-26.5
 21
5.0498756211208047
 31
-0.0000000000000011
210
0.0
220
1.0
230
-0.0000000000000002
  0
LINE
  5
C2A8
  8
0
  6
CONTINUOUS
 62
     3
 10
-26.0
 20
-0.0000000000000053
 30
0.0
 11
-26.4950371902099917
 21
4.950371902099806
 31
-0.0000000000000011
210
0.0
220
1.0
230
-0.0000000000000002
  0
LINE
  5
C2A9
  8
0
  6
CONTINUOUS
 62
     3
 10
26.0
 20
-0.0000000000000053
 30
0.0
 11
26.4950371902099917
 21
4.950371902099806
 31
-0.0000000000000011
210
0.0
220
1.0
230
-0.0000000000000002
  0
ARC
  5
C2AA
  8
0
  6
CONTINUOUS
 62
     3
 10
31.0000000000001208
 20
72.2878060838040142
 30
0.0
 40
9.9999999999997762
210
0.0
220
-0.0000000000000002
230
-1.0
 50
179.9999999999998863
 51
194.676393137449395
  0
ARC
  5
C2AB
  8
0
  6
CONTINUOUS
 62
     3
 10
-31.0000000000005187
 20
72.2878060838039431
 30
0.0
 40
9.9999999999999485
210
0.0
220
-0.0000000000000002
230
-1.0
 50
345.3236068625507187
 51
0.0000000000001654
  0
LINE
  5
C2AC
  8
0
  6
CONTINUOUS
 62
     3
 10
21.0000000000005684
 20
74.0000000000002274
 30
-0.0000000000000164
 11
21.0000000000005684
 21
72.2878060838039715
 31
-0.0000000000000161
210
0.0
220
1.0
230
-0.0000000000000002
  0
LINE
  5
C2AD
  8
0
  6
CONTINUOUS
 62
     3
 10
-21.0000000000003411
 20
74.0000000000002842
 30
-0.0000000000000164
 11
-21.0000000000003411
 21
72.2878060838040284
 31
-0.0000000000000161
210
0.0
220
1.0
230
-0.0000000000000002
  0
LINE
  5
C2AE
  8
0
  6
CONTINUOUS
 62
     3
 10
21.3262777661980998
 20
69.7542121654272336
 30
-0.0000000000000155
 11
25.8474444676052109
 21
52.4915756691446802
 31
-0.0000000000000117
210
0.0
220
1.0
230
-0.0000000000000002
  0
LINE
  5
C2AF
  8
0
  6
CONTINUOUS
 62
     3
 10
-21.3262777661978404
 20
69.7542121654273188
 30
-0.0000000000000155
 11
-25.847444467605019
 21
52.4915756691447086
 31
-0.0000000000000117
210
0.0
220
1.0
230
-0.0000000000000002
  0
ARC
  5
C2B0
  8
0
  6
CONTINUOUS
 62
     3
 10
6.4999999999978497
 20
47.4243878323910479
 30
0.0
 40
20.0000000000022204
210
0.0
220
-0.0000000000000002
230
-1.0
 50
0.0000000000007124
 51
14.6763931374483203
  0
ARC
  5
C2B1
  8
0
  6
CONTINUOUS
 62
     3
 10
-6.4999999999974634
 20
47.4243878323909911
 30
0.0
 40
20.0000000000026112
210
0.0
220
-0.0000000000000002
230
-1.0
 50
165.3236068625519977
 51
179.9999999999990905
  0
LINE
  5
C2B2
  8
0
  6
CONTINUOUS
 62
     3
 10
65.0000127134391334
 20
123.8479577973836001
 30
-0.0000000000000275
 11
65.0000127134391334
 21
76.1520422026161583
 31
-0.0000000000000169
210
0.0
220
1.0
230
-0.0000000000000002
  0
LINE
  5
C2B3
  8
0
  6
CONTINUOUS
 62
     3
 10
20.9999999999999396
 20
73.9999999999999005
 30
-0.0000000000000164
 11
-0.000000000000032
 21
73.9999999999999005
 31
-0.0000000000000164
210
0.0
220
1.0
230
-0.0000000000000002
  0
LINE
  5
C2B4
  8
0
  6
CONTINUOUS
 62
     3
 10
-0.0000000000000375
 20
73.9999999999999005
 30
-0.0000000000000164
 11
-21.0000000000000213
 21
73.9999999999999005
 31
-0.0000000000000164
210
0.0
220
1.0
230
-0.0000000000000002
  0
LINE
  5
C2B5
  8
0
  6
CONTINUOUS
 62
     3
 10
30.4944590408468095
 20
78.9999999999999005
 30
-0.0000000000000175
 11
25.9999999999999716
 21
78.9999999999999005
 31
-0.0000000000000175
210
0.0
220
1.0
230
-0.0000000000000002
  0
LINE
  5
C2B6
  8
0
  6
CONTINUOUS
 62
     3
 10
30.4944590408468095
 20
120.9999999999999005
 30
-0.0000000000000269
 11
25.9999999999999787
 21
120.9999999999999005
 31
-0.0000000000000269
210
0.0
220
1.0
230
-0.0000000000000002
  0
ARC
  5
C2B7
  8
0
  6
CONTINUOUS
 62
     3
 10
-30.4944590408466709
 20
127.0000000000003979
 30
0.0
 40
6.0000000000004157
210
0.0
220
-0.0000000000000002
230
-1.0
 50
234.3409123038626944
 51
269.9999999999986926
  0
ARC
  5
C2B8
  8
0
  6
CONTINUOUS
 62
     3
 10
-30.49445904084671
 20
72.9999999999995737
 30
0.0
 40
6.00000000000027
210
0.0
220
-0.0000000000000002
230
-1.0
 50
90.0000000000008242
 51
125.659087696137405
  0
ARC
  5
C2B9
  8
0
  6
CONTINUOUS
 62
     3
 10
-39.8218380939356607
 20
114.0
 30
0.0
 40
9.9999999999999716
210
0.0
220
-0.0000000000000002
230
-1.0
 50
54.3409123038607831
 51
89.9999999999994458
  0
ARC
  5
C2BA
  8
0
  6
CONTINUOUS
 62
     3
 10
-39.8218380939357104
 20
86.0
 30
0.0
 40
10.0000000000001492
210
0.0
220
-0.0000000000000002
230
-1.0
 50
270.0
 51
305.6590876961381014
  0
LINE
  5
C2BB
  8
0
  6
CONTINUOUS
 62
     3
 10
44.0000127134391334
 20
75.9999999999998437
 30
-0.0000000000000169
 11
39.8218380939355612
 21
75.9999999999998437
 31
-0.0000000000000169
210
0.0
220
1.0
230
-0.0000000000000002
  0
LINE
  5
C2BC
  8
0
  6
CONTINUOUS
 62
     3
 10
44.0000127134391406
 20
123.9999999999999005
 30
-0.0000000000000275
 11
39.8218380939355612
 21
123.9999999999999005
 31
-0.0000000000000275
210
0.0
220
1.0
230
-0.0000000000000002
  0
ARC
  5
C2BD
  8
0
  6
CONTINUOUS
 62
     3
 10
-44.0000127134388421
 20
134.0000000000021032
 30
0.0
 40
10.0000000000021299
210
0.0
220
-0.0000000000000002
230
-1.0
 50
251.8060294016190994
 51
269.9999999999982947
  0
ARC
  5
C2BE
  8
0
  6
CONTINUOUS
 62
     3
 10
-44.0000127134388208
 20
65.9999999999976836
 30
0.0
 40
10.00000000000216
210
0.0
220
-0.0000000000000002
230
-1.0
 50
90.0000000000017479
 51
108.1939705983809006
  0
ARC
  5
C2BF
  8
0
  6
CONTINUOUS
 62
     3
 10
-53.367982031078057
 20
105.4970507576882
 30
0.0
 40
20.0029492657975716
210
0.0
220
-0.0000000000000002
230
-1.0
 50
71.8060294016172094
 51
89.9972235189419649
  0
ARC
  5
C2C0
  8
0
  6
CONTINUOUS
 62
     3
 10
-53.367982031078057
 20
94.5029492423116437
 30
0.0
 40
20.0029492657976391
210
0.0
220
-0.0000000000000002
230
-1.0
 50
270.0027764810581061
 51
288.1939705983826912
  0
LINE
  5
C2C1
  8
0
  6
CONTINUOUS
 62
     3
 10
57.8036143609915882
 20
74.4999999999999432
 30
-0.0000000000000165
 11
53.3670127134390881
 21
74.4999999999999432
 31
-0.0000000000000165
210
0.0
220
1.0
230
-0.0000000000000002
  0
LINE
  5
C2C2
  8
0
  6
CONTINUOUS
 62
     3
 10
57.8036143609915882
 20
125.499999999999801
 30
-0.0000000000000279
 11
53.3670127134391024
 21
125.499999999999801
 31
-0.0000000000000279
210
0.0
220
1.0
230
-0.0000000000000002
  0
ARC
  5
C2C3
  8
0
  6
CONTINUOUS
 62
     3
 10
-57.8036143609917374
 20
109.0000000000004974
 30
0.0
 40
16.4999999999993605
210
0.0
220
-0.0000000000000002
230
-1.0
 50
89.9999999999994742
 51
115.8581969917358947
  0
ARC
  5
C2C4
  8
0
  6
CONTINUOUS
 62
     3
 10
-57.803614360991638
 20
90.9999999999996732
 30
0.0
 40
16.4999999999997691
210
0.0
220
-0.0000000000000002
230
-1.0
 50
244.1418030082643043
 51
270.0000000000002274
  0
ARC
  5
C2C5
  8
0
  6
CONTINUOUS
 62
     3
 10
-25.9999999999999396
 20
73.9999999999999289
 30
0.0
 40
46.9999999999999716
210
0.0
220
-0.0000000000000002
230
-1.0
 50
0.0
 51
90.0000000000000568
  0
ARC
  5
C2C6
  8
0
  6
CONTINUOUS
 62
     3
 10
25.9999999999999716
 20
73.9999999999999005
 30
-0.0000000000000164
 40
5.0
 50
90.0
 51
180.0
  0
LINE
  5
C2C7
  8
0
  6
VERDECKT
 62
     1
 10
-24.5074442146850515
 20
0.1492555785314959
 30
0.0
 11
24.5074442146850515
 21
0.1492555785314959
 31
0.0
210
0.0
220
1.0
230
-0.0000000000000002
  0
ARC
  5
C2C8
  8
0
  6
VERDECKT
 62
     1
 10
24.0000000000008207
 20
5.1246890528013687
 30
0.0
 40
0.9999999999991793
210
0.0
220
-0.0000000000000002
230
-1.0
 50
354.2894068624975148
 51
0.0000000000014249
  0
ARC
  5
C2C9
  8
0
  6
VERDECKT
 62
     1
 10
-24.0000000000008207
 20
5.1246890528013687
 30
0.0
 40
0.9999999999991793
210
0.0
220
-0.0000000000000002
230
-1.0
 50
179.9999999999986073
 51
185.7105931375025136
  0
LINE
  5
C2CA
  8
0
  6
VERDECKT
 62
     1
 10
-24.5074442146851084
 20
0.1492555785314904
 30
0.0
 11
-24.9950371902099917
 21
5.0251853337804011
 31
-0.0000000000000011
210
0.0
220
1.0
230
-0.0000000000000002
  0
LINE
  5
C2CB
  8
0
  6
VERDECKT
 62
     1
 10
24.5074442146851084
 20
0.1492555785314904
 30
0.0
 11
24.9950371902099917
 21
5.0251853337804011
 31
-0.0000000000000011
210
0.0
220
1.0
230
-0.0000000000000002
  0
LINE
  5
C2CC
  8
0
  6
VERDECKT
 62
     1
 10
25.0
 20
47.4243878323913179
 30
-0.0000000000000105
 11
25.0
 21
5.1246890528013944
 31
-0.0000000000000011
210
0.0
220
1.0
230
-0.0000000000000002
  0
LINE
  5
C2CD
  8
0
  6
VERDECKT
 62
     1
 10
-25.0
 20
47.4243878323913179
 30
-0.0000000000000105
 11
-25.0
 21
5.1246890528013944
 31
-0.0000000000000011
210
0.0
220
1.0
230
-0.0000000000000002
  0
ARC
  5
C2CE
  8
0
  6
VERDECKT
 62
     1
 10
28.0000000807793583
 20
71.9014639502325963
 30
0.0
 40
8.4999999999998508
210
0.0
220
-0.0000000000000002
230
-1.0
 50
180.0000092205879128
 51
194.676393137449594
  0
ARC
  5
C2CF
  8
0
  6
VERDECKT
 62
     1
 10
-28.0000248322248986
 20
71.9014549381698629
 30
0.0
 40
8.5000000000000142
210
0.0
220
-0.0000000000000002
230
-1.0
 50
345.3236253037263168
 51
0.0000092205879526
  0
LINE
  5
C2D0
  8
0
  6
VERDECKT
 62
     1
 10
19.5000251699428304
 20
74.0000000000002274
 30
-0.0000000000000164
 11
19.5000248322249909
 21
71.9014563060716227
 31
-0.000000000000016
210
0.0
220
1.0
230
-0.0000000000000002
  0
LINE
  5
C2D1
  8
0
  6
VERDECKT
 62
     1
 10
-19.4999997430627907
 20
74.0000000000002416
 30
-0.0000000000000164
 11
-19.5000000807796212
 21
71.9014625823308364
 31
-0.000000000000016
210
0.0
220
1.0
230
-0.0000000000000002
  0
LINE
  5
C2D2
  8
0
  6
VERDECKT
 62
     1
 10
19.7773602403516513
 20
69.7479027540900489
 30
-0.0000000000000155
 11
24.3964045144090917
 21
52.1115287291829006
 31
-0.0000000000000116
210
0.0
220
1.0
230
-0.0000000000000002
  0
LINE
  5
C2D3
  8
0
  6
VERDECKT
 62
     1
 10
-19.7773361820474385
 20
69.7479091196123875
 30
-0.0000000000000155
 11
-24.3963861325346194
 21
52.1115365813881866
 31
-0.0000000000000116
210
0.0
220
1.0
230
-0.0000000000000002
  0
ARC
  5
C2D4
  8
0
  6
VERDECKT
 62
     1
 10
6.4999999999963149
 20
47.4243878323909698
 30
0.0
 40
18.50000000000367
210
0.0
220
-0.0000000000000002
230
-1.0
 50
0.0000000000010432
 51
14.6763931374472705
  0
ARC
  5
C2D5
  8
0
  6
VERDECKT
 62
     1
 10
-6.500016873269554
 20
47.424385740303201
 30
0.0
 40
18.5000000000037801
210
0.0
220
-0.0000000000000002
230
-1.0
 50
165.3236253037289032
 51
179.9999935206525095
  0
LINE
  5
C2D6
  8
0
  6
VERDECKT
 62
     1
 10
24.5074442146850515
 20
0.1492555785315015
 30
0.0
 11
26.0
 21
0.0000000000000005
 31
0.0
210
0.0
220
1.0
230
-0.0000000000000002
  0
LINE
  5
C2D7
  8
0
  6
VERDECKT
 62
     1
 10
-24.5074442146850515
 20
0.1492555785315015
 30
0.0
 11
-26.0
 21
0.0000000000000005
 31
0.0
210
0.0
220
1.0
230
-0.0000000000000002
  0
LINE
  5
C2D8
  8
0
  6
VERDECKT
 62
     1
 10
64.3457946813984165
 20
122.4981434521669996
 30
-0.0000000000000272
 11
64.3457946813984165
 21
77.5018565478327588
 31
-0.0000000000000172
210
0.0
220
1.0
230
-0.0000000000000002
  0
LINE
  5
C2D9
  8
0
  6
VERDECKT
 62
     1
 10
30.4944590408468095
 20
80.4999999999998437
 30
-0.0000000000000179
 11
25.9999999999999787
 21
80.4999999999998437
 31
-0.0000000000000179
210
0.0
220
1.0
230
-0.0000000000000002
  0
LINE
  5
C2DA
  8
0
  6
VERDECKT
 62
     1
 10
30.4944590408468095
 20
119.5
 30
-0.0000000000000265
 11
25.9999999999999787
 21
119.5
 31
-0.0000000000000265
210
0.0
220
1.0
230
-0.0000000000000002
  0
LINE
  5
C2DB
  8
0
  6
VERDECKT
 62
     1
 10
64.3457946813984449
 20
122.4981434521669996
 30
-0.0000000000000272
 11
65.000012713439105
 21
123.8479577973836996
 31
-0.0000000000000275
210
0.0
220
1.0
230
-0.0000000000000002
  0
LINE
  5
C2DC
  8
0
  6
VERDECKT
 62
     1
 10
64.3457946813984165
 20
77.5018565478328725
 30
-0.0000000000000172
 11
65.0000127134390908
 21
76.1520422026161299
 31
-0.0000000000000169
210
0.0
220
1.0
230
-0.0000000000000002
  0
ARC
  5
C2DD
  8
0
  6
VERDECKT
 62
     1
 10
-57.803614360991773
 20
109.0000000000005969
 30
0.0
 40
14.9999999999993303
210
0.0
220
-0.0000000000000002
230
-1.0
 50
89.9999999999993463
 51
115.8581969917357952
  0
ARC
  5
C2DE
  8
0
  6
VERDECKT
 62
     1
 10
-57.8036143609918014
 20
90.9999999999990905
 30
0.0
 40
14.99999999999919
210
0.0
220
-0.0000000000000002
230
-1.0
 50
244.1418030082639916
 51
270.0000000000009095
  0
LINE
  5
C2DF
  8
0
  6
VERDECKT
 62
     1
 10
57.8036143609915882
 20
75.9999999999999005
 30
-0.0000000000000169
 11
53.3670685280032231
 21
75.9999999999999005
 31
-0.0000000000000169
210
0.0
220
1.0
230
-0.0000000000000002
  0
LINE
  5
C2E0
  8
0
  6
VERDECKT
 62
     1
 10
57.8036143609915882
 20
123.9999999999999005
 30
-0.0000000000000275
 11
53.3670685280032231
 21
123.9999999999999005
 31
-0.0000000000000275
210
0.0
220
1.0
230
-0.0000000000000002
  0
ARC
  5
C2E1
  8
0
  6
VERDECKT
 62
     1
 10
-53.3680327312151803
 20
105.4967341513478942
 30
0.0
 40
18.5032658737742501
210
0.0
220
-0.0000000000000002
230
-1.0
 50
71.8061262022012556
 51
89.9970143230368365
  0
ARC
  5
C2E2
  8
0
  6
VERDECKT
 62
     1
 10
-53.3680327312151803
 20
94.5032658486520063
 30
0.0
 40
18.503265873774339
210
0.0
220
-0.0000000000000002
230
-1.0
 50
270.002985676963192
 51
288.1938737977986875
  0
ARC
  5
C2E3
  8
0
  6
VERDECKT
 62
     1
 10
-44.0000127134391974
 20
133.9999999999994884
 30
0.0
 40
11.4999999999995399
210
0.0
220
-0.0000000000000002
230
-1.0
 50
251.8061262022006019
 51
270.0000000000002842
  0
ARC
  5
C2E4
  8
0
  6
VERDECKT
 62
     1
 10
-44.0000127134391903
 20
66.0000000000004121
 30
0.0
 40
11.4999999999994298
210
0.0
220
-0.0000000000000002
230
-1.0
 50
89.9999999999997158
 51
108.1938737977994975
  0
LINE
  5
C2E5
  8
0
  6
VERDECKT
 62
     1
 10
44.0000127134391334
 20
77.4999999999998437
 30
-0.0000000000000172
 11
39.8218380939355612
 21
77.4999999999998437
 31
-0.0000000000000172
210
0.0
220
1.0
230
-0.0000000000000002
  0
LINE
  5
C2E6
  8
0
  6
VERDECKT
 62
     1
 10
44.0000127134391406
 20
122.4999999999999005
 30
-0.0000000000000272
 11
39.8218380939355612
 21
122.4999999999999005
 31
-0.0000000000000272
210
0.0
220
1.0
230
-0.0000000000000002
  0
ARC
  5
C2E7
  8
0
  6
VERDECKT
 62
     1
 10
-39.8218380939353196
 20
114.0000000000005969
 30
0.0
 40
8.4999999999993765
210
0.0
220
-0.0000000000000002
230
-1.0
 50
54.3409123038592128
 51
90.0000000000016058
  0
ARC
  5
C2E8
  8
0
  6
VERDECKT
 62
     1
 10
-39.8218380939353125
 20
85.9999999999991758
 30
0.0
 40
8.4999999999993747
210
0.0
220
-0.0000000000000002
230
-1.0
 50
270.0
 51
305.6590876961424215
  0
ARC
  5
C2E9
  8
0
  6
VERDECKT
 62
     1
 10
-30.4944590408465785
 20
127.0000000000003979
 30
0.0
 40
7.5000000000004956
210
0.0
220
-0.0000000000000002
230
-1.0
 50
234.340912303863206
 51
269.999999999998181
  0
ARC
  5
C2EA
  8
0
  6
VERDECKT
 62
     1
 10
-30.4944590408465608
 20
72.9999999999993463
 30
0.0
 40
7.5000000000004956
210
0.0
220
-0.0000000000000002
230
-1.0
 50
90.0000000000017906
 51
125.6590876961366945
  0
ARC
  5
C2EB
  8
0
  6
VERDECKT
 62
     1
 10
-25.9999999999999609
 20
73.9999999999999147
 30
0.0
 40
45.4999999999999787
210
0.0
220
-0.0000000000000002
230
-1.0
 50
0.0
 51
90.0000000000000284
  0
ARC
  5
C2EC
  8
0
  6
VERDECKT
 62
     1
 10
25.9999999999999609
 20
73.9999999999999147
 30
-0.0000000000000164
 40
6.4999999999999849
 50
89.9999999999998153
 51
180.0000000000001137
  0
ENDBLK
  5
C2EE
  8
0
  0
BLOCK
  8
0
  2
A$C89F7D0FC
 70
     0
 10
0.0
 20
0.0
 30
0.0
  3
A$C89F7D0FC
  1

  0
ARC
  5
C2F2
  8
0
  6
CONTINUOUS
 62
     3
 10
-0.0000000000001031
 20
-0.0000000000000711
 30
0.0
 40
26.4999999999998899
 50
179.999999999999801
 51
307.5846732520972751
  0
ARC
  5
C2F3
  8
0
  6
CONTINUOUS
 62
     3
 10
-0.0000000000001031
 20
0.0000000000000568
 30
0.0
 40
26.5000000000000213
 50
52.4153267479052332
 51
180.0000000000001137
  0
ARC
  5
C2F4
  8
0
  6
CONTINUOUS
 62
     3
 10
0.0000000000001302
 20
-0.0000000000000568
 30
0.0
 40
21.0000000000007994
 50
90.0000000000004547
 51
180.0
  0
ARC
  5
C2F5
  8
0
  6
CONTINUOUS
 62
     3
 10
0.0000000000001302
 20
0.0000000000000568
 30
0.0
 40
21.0000000000008384
 50
180.0000000000001137
 51
269.9999999999997158
  0
LINE
  5
C2F6
  8
0
  6
CONTINUOUS
 62
     3
 10
65.0000127134391619
 20
23.8479577973836285
 30
0.0000000000000142
 11
65.0000127134391619
 21
-23.8479577973838595
 31
0.0000000000000142
  0
ARC
  5
C2F7
  8
0
  6
CONTINUOUS
 62
     3
 10
-0.0000000000000099
 20
0.0000000000003411
 30
0.0
 40
21.0
 50
90.0
 51
270.0
  0
LINE
  5
C2F8
  8
0
  6
CONTINUOUS
 62
     3
 10
30.4944590408468308
 20
-21.0000000000001208
 30
0.0
 11
26.0
 21
-21.0000000000001208
 31
-0.000000000000001
  0
LINE
  5
C2F9
  8
0
  6
CONTINUOUS
 62
     3
 10
30.4944590408468308
 20
20.9999999999998792
 30
0.0
 11
26.0
 21
20.9999999999998792
 31
-0.000000000000001
  0
ARC
  5
C2FA
  8
0
  6
CONTINUOUS
 62
     3
 10
30.4944590408466887
 20
27.0000000000003695
 30
0.0
 40
6.0000000000004432
 50
270.0000000000014211
 51
305.6590876961370782
  0
ARC
  5
C2FB
  8
0
  6
CONTINUOUS
 62
     3
 10
30.49445904084671
 20
-27.00000000000054
 30
0.0
 40
6.0000000000003801
 50
54.3409123038626589
 51
89.9999999999988773
  0
ARC
  5
C2FC
  8
0
  6
CONTINUOUS
 62
     3
 10
39.8218380939356891
 20
13.9999999999999591
 30
0.0000000000000142
 40
9.9999999999999858
 50
90.0000000000006253
 51
125.6590876961391956
  0
ARC
  5
C2FD
  8
0
  6
CONTINUOUS
 62
     3
 10
39.8218380939356891
 20
-14.0000000000001901
 30
0.0000000000000142
 40
9.999999999999984
 50
234.340912303861387
 51
270.0
  0
LINE
  5
C2FE
  8
0
  6
CONTINUOUS
 62
     3
 10
44.0000127134391477
 20
-24.0000000000001705
 30
0.0000000000000142
 11
39.8218380939355683
 21
-24.0000000000001705
 31
0.0000000000000133
  0
LINE
  5
C2FF
  8
0
  6
CONTINUOUS
 62
     3
 10
44.0000127134391477
 20
23.9999999999999503
 30
0.0000000000000142
 11
39.8218380939355683
 21
23.9999999999999503
 31
0.0000000000000133
  0
ARC
  5
C300
  8
0
  6
CONTINUOUS
 62
     3
 10
44.0000127134389487
 20
34.0000000000015419
 30
0.0000000000000142
 40
10.0000000000016005
 50
270.0000000000011937
 51
288.1939705983813838
  0
ARC
  5
C301
  8
0
  6
CONTINUOUS
 62
     3
 10
44.0000127134389487
 20
-34.0000000000017266
 30
0.0000000000000142
 40
10.0000000000015508
 50
71.8060294016185736
 51
89.9999999999988347
  0
ARC
  5
C302
  8
0
  6
CONTINUOUS
 62
     3
 10
53.3679820310780713
 20
5.4970507576882488
 30
0.0000000000000142
 40
20.002949265797529
 50
90.0027764810580209
 51
108.1939705983828048
  0
ARC
  5
C303
  8
0
  6
CONTINUOUS
 62
     3
 10
53.3679820310779931
 20
-5.4970507576889167
 30
0.0000000000000142
 40
20.0029492657970884
 50
251.8060294016169109
 51
269.9972235189421781
  0
LINE
  5
C304
  8
0
  6
CONTINUOUS
 62
     3
 10
57.8036143609916095
 20
-25.5000000000000604
 30
0.0000000000000142
 11
53.3670127134391166
 21
-25.5000000000000604
 31
0.0000000000000132
  0
LINE
  5
C305
  8
0
  6
CONTINUOUS
 62
     3
 10
57.8036143609916095
 20
25.4999999999998295
 30
0.0000000000000142
 11
53.3670127134391166
 21
25.4999999999998295
 31
0.0000000000000132
  0
ARC
  5
C306
  8
0
  6
CONTINUOUS
 62
     3
 10
57.803614360991709
 20
9.0000000000003215
 30
0.0000000000000142
 40
16.4999999999995701
 50
64.1418030082642616
 51
90.0000000000003268
  0
ARC
  5
C307
  8
0
  6
CONTINUOUS
 62
     3
 10
57.8036143609917303
 20
-9.0000000000006253
 30
0.0000000000000142
 40
16.4999999999994884
 50
269.9999999999994884
 51
295.8581969917357242
  0
LINE
  5
C308
  8
0
  6
CONTINUOUS
 62
     3
 10
26.0
 20
21.0000000000003411
 30
0.0
 11
-0.0000000000000071
 21
21.0000000000003517
 31
0.0
  0
LINE
  5
C309
  8
0
  6
CONTINUOUS
 62
     3
 10
-0.0000000000000155
 20
-20.9999999999996483
 30
0.0
 11
26.0
 21
-20.9999999999996589
 31
0.0
  0
CIRCLE
  5
C30A
  8
0
  6
VERDECKT
 62
     1
 10
0.0
 20
0.0
 30
0.0
 40
24.5074442146850515
  0
CIRCLE
  5
C30B
  8
0
  6
VERDECKT
 62
     1
 10
0.0000000000000106
 20
0.0
 30
0.0
 40
25.0
  0
ARC
  5
C30C
  8
0
  6
VERDECKT
 62
     1
 10
0.0000000000001243
 20
0.0
 30
0.0
 40
26.4999999999999289
 50
307.5846732520968203
 51
52.4153267479057092
  0
CIRCLE
  5
C30D
  8
0
  6
VERDECKT
 62
     1
 10
0.0
 20
0.0
 30
0.0
 40
26.0
  0
CIRCLE
  5
C30E
  8
0
  6
VERDECKT
 62
     1
 10
0.000012713440031
 20
0.0
 30
0.0
 40
19.5000124565028088
  0
ARC
  5
C30F
  8
0
  6
VERDECKT
 62
     1
 10
0.0000000000001302
 20
0.0
 30
0.0
 40
21.0000000000007994
 50
270.0000000000002842
 51
90.0000000000002984
  0
LINE
  5
C310
  8
0
  6
VERDECKT
 62
     1
 10
64.3457946813984449
 20
22.4981434521670316
 30
0.0000000000000142
 11
64.3457946813984449
 21
-22.498143452167259
 31
0.0000000000000142
  0
CIRCLE
  5
C311
  8
0
  6
VERDECKT
 62
     1
 10
-0.0000000000000116
 20
0.0000000000003411
 30
0.0
 40
19.5
  0
ARC
  5
C312
  8
0
  6
VERDECKT
 62
     1
 10
-0.0000000000000116
 20
0.0000000000003411
 30
0.0
 40
21.0
 50
270.0
 51
90.0
  0
LINE
  5
C313
  8
0
  6
VERDECKT
 62
     1
 10
30.4944590408468308
 20
-19.5000000000001705
 30
0.0
 11
26.0
 21
-19.5000000000001705
 31
-0.000000000000001
  0
LINE
  5
C314
  8
0
  6
VERDECKT
 62
     1
 10
30.4944590408468308
 20
19.4999999999999396
 30
0.0
 11
26.0
 21
19.4999999999999396
 31
-0.000000000000001
  0
LINE
  5
C315
  8
0
  6
VERDECKT
 62
     1
 10
64.3457946813984734
 20
22.4981434521669605
 30
0.0000000000000142
 11
65.0000127134391334
 21
23.8479577973836996
 31
0.0000000000000144
  0
LINE
  5
C316
  8
0
  6
VERDECKT
 62
     1
 10
64.3457946813984734
 20
-22.4981434521671915
 30
0.0000000000000142
 11
65.0000127134391334
 21
-23.8479577973839199
 31
0.0000000000000144
  0
ARC
  5
C317
  8
0
  6
VERDECKT
 62
     1
 10
57.8036143609918511
 20
9.0000000000007354
 30
0.0000000000000142
 40
14.9999999999991491
 50
64.1418030082641053
 51
90.0000000000008953
  0
ARC
  5
C318
  8
0
  6
VERDECKT
 62
     1
 10
57.8036143609918511
 20
-9.000000000000961
 30
0.0000000000000142
 40
14.9999999999991491
 50
269.9999999999992042
 51
295.8581969917358947
  0
LINE
  5
C319
  8
0
  6
VERDECKT
 62
     1
 10
57.8036143609916095
 20
-24.0000000000001101
 30
0.0000000000000142
 11
53.3670685280032373
 21
-24.0000000000001101
 31
0.0000000000000132
  0
LINE
  5
C31A
  8
0
  6
VERDECKT
 62
     1
 10
57.8036143609916095
 20
23.9999999999998899
 30
0.0000000000000142
 11
53.3670685280032373
 21
23.9999999999998899
 31
0.0000000000000132
  0
ARC
  5
C31B
  8
0
  6
VERDECKT
 62
     1
 10
53.3680327312151803
 20
5.496734151347872
 30
0.0000000000000142
 40
18.5032658737742608
 50
90.0029856769631635
 51
108.1938737977987017
  0
ARC
  5
C31C
  8
0
  6
VERDECKT
 62
     1
 10
53.3680327312151874
 20
-5.4967341513481252
 30
0.0000000000000142
 40
18.5032658737742395
 50
251.8061262022011988
 51
269.997014323036808
  0
ARC
  5
C31D
  8
0
  6
VERDECKT
 62
     1
 10
44.0000127134392613
 20
33.9999999999991616
 30
0.0000000000000142
 40
11.4999999999992202
 50
269.9999999999993747
 51
288.1938737977997107
  0
ARC
  5
C31E
  8
0
  6
VERDECKT
 62
     1
 10
44.0000127134392898
 20
-33.9999999999991829
 30
0.0000000000000142
 40
11.4999999999989999
 50
71.8061262022000903
 51
90.0000000000006679
  0
LINE
  5
C31F
  8
0
  6
VERDECKT
 62
     1
 10
44.0000127134391477
 20
-22.5000000000001705
 30
0.0000000000000142
 11
39.8218380939355683
 21
-22.5000000000001705
 31
0.0000000000000133
  0
LINE
  5
C320
  8
0
  6
VERDECKT
 62
     1
 10
44.0000127134391477
 20
22.4999999999999396
 30
0.0000000000000142
 11
39.8218380939355683
 21
22.4999999999999396
 31
0.0000000000000133
  0
ARC
  5
C321
  8
0
  6
VERDECKT
 62
     1
 10
39.8218380939353409
 20
14.0000000000005702
 30
0.0000000000000142
 40
8.4999999999994102
 50
89.9999999999984084
 51
125.659087696140702
  0
ARC
  5
C322
  8
0
  6
VERDECKT
 62
     1
 10
39.8218380939353622
 20
-14.0000000000007603
 30
0.0000000000000142
 40
8.4999999999994493
 50
234.3409123038578912
 51
270.0
  0
ARC
  5
C323
  8
0
  6
VERDECKT
 62
     1
 10
30.4944590408465999
 20
27.0000000000004086
 30
0.0
 40
7.5000000000004619
 50
270.0000000000017053
 51
305.6590876961369077
  0
ARC
  5
C324
  8
0
  6
VERDECKT
 62
     1
 10
30.4944590408465999
 20
-27.0000000000006288
 30
0.0
 40
7.5000000000004583
 50
54.3409123038631421
 51
89.9999999999982663
  0
LINE
  5
C325
  8
0
  6
VERDECKT
 62
     1
 10
26.0
 20
19.5000000000003411
 30
0.0
 11
-0.0000000000000071
 21
19.5000000000003411
 31
0.0
  0
LINE
  5
C326
  8
0
  6
VERDECKT
 62
     1
 10
-0.0000000000000155
 20
-19.4999999999996483
 30
0.0
 11
26.0
 21
-19.4999999999996589
 31
0.0
  0
ENDBLK
  5
C328
  8
0
  0
BLOCK
  8
0
  2
A$C2A6ADF3F
 70
     0
 10
0.0
 20
0.0
 30
0.0
  3
A$C2A6ADF3F
  1

  0
LINE
  5
C32C
  8
0
  6
CONTINUOUS
 62
     3
 10
-26.0
 20
-0.0000000000000717
 30
0.0
 11
26.0
 21
0.0000000000000613
 31
0.0
210
0.0000000000000002
220
1.0
230
-0.0000000000000002
  0
LINE
  5
C32D
  8
0
  6
CONTINUOUS
 62
     3
 10
-21.0000000000007816
 20
74.0000000000002558
 30
-0.0000000000000164
 11
21.00000000000081
 21
74.0000000000002558
 31
-0.0000000000000164
210
0.0000000000000002
220
1.0
230
-0.0000000000000002
  0
ARC
  5
C32E
  8
0
  6
CONTINUOUS
 62
     3
 10
25.5000000000007816
 20
5.0498756211207088
 30
0.0
 40
0.9999999999992329
210
0.0
220
-0.0000000000000002
230
-1.0
 50
354.2894068624975716
 51
0.0000000000013867
  0
ARC
  5
C32F
  8
0
  6
CONTINUOUS
 62
     3
 10
-25.5000000000006786
 20
5.0498756211208464
 30
0.0
 40
0.9999999999993038
210
0.0
220
-0.0000000000000002
230
-1.0
 50
179.9999999999986073
 51
185.7105931375020873
  0
LINE
  5
C330
  8
0
  6
CONTINUOUS
 62
     3
 10
26.4999999999998899
 20
47.4243878323912966
 30
-0.0000000000000105
 11
26.4999999999999893
 21
5.0498756211208704
 31
-0.0000000000000011
210
0.0000000000000002
220
1.0
230
-0.0000000000000002
  0
LINE
  5
C331
  8
0
  6
CONTINUOUS
 62
     3
 10
-26.5000000000001101
 20
47.4243878323913179
 30
-0.0000000000000105
 11
-26.5000000000000107
 21
5.0498756211207327
 31
-0.0000000000000011
210
0.0000000000000002
220
1.0
230
-0.0000000000000002
  0
LINE
  5
C332
  8
0
  6
CONTINUOUS
 62
     3
 10
-26.0
 20
-0.0000000000000715
 30
0.0
 11
-26.4950371902099988
 21
4.9503719020997412
 31
-0.0000000000000011
210
0.0000000000000002
220
1.0
230
-0.0000000000000002
  0
LINE
  5
C333
  8
0
  6
CONTINUOUS
 62
     3
 10
26.0000000000000107
 20
0.0000000000000613
 30
0.0
 11
26.495037190209981
 21
4.95037190209987
 31
-0.0000000000000011
210
0.0000000000000002
220
1.0
230
-0.0000000000000002
  0
ARC
  5
C334
  8
0
  6
CONTINUOUS
 62
     3
 10
31.0000000000004903
 20
72.287806083804
 30
0.0
 40
10.0000000000000497
210
0.0
220
-0.0000000000000002
230
-1.0
 50
180.0
 51
194.676393137449196
  0
ARC
  5
C335
  8
0
  6
CONTINUOUS
 62
     3
 10
-31.0000000000002096
 20
72.2878060838039573
 30
0.0
 40
9.9999999999997371
210
0.0
220
-0.0000000000000002
230
-1.0
 50
345.3236068625503776
 51
0.0000000000002544
  0
LINE
  5
C336
  8
0
  6
CONTINUOUS
 62
     3
 10
21.000000000000469
 20
74.0000000000002558
 30
-0.0000000000000164
 11
21.000000000000469
 21
72.287806083804
 31
-0.0000000000000161
210
0.0000000000000002
220
1.0
230
-0.0000000000000002
  0
LINE
  5
C337
  8
0
  6
CONTINUOUS
 62
     3
 10
-21.0000000000004405
 20
74.0000000000002558
 30
-0.0000000000000164
 11
-21.0000000000004405
 21
72.287806083804
 31
-0.0000000000000161
210
0.0000000000000002
220
1.0
230
-0.0000000000000002
  0
LINE
  5
C338
  8
0
  6
CONTINUOUS
 62
     3
 10
21.326277766197979
 20
69.754212165427262
 30
-0.0000000000000155
 11
25.8474444676051291
 21
52.4915756691446802
 31
-0.0000000000000117
210
0.0000000000000002
220
1.0
230
-0.0000000000000002
  0
LINE
  5
C339
  8
0
  6
CONTINUOUS
 62
     3
 10
-21.3262777661979506
 20
69.7542121654272904
 30
-0.0000000000000155
 11
-25.8474444676051007
 21
52.4915756691446873
 31
-0.0000000000000117
210
0.0000000000000002
220
1.0
230
-0.0000000000000002
  0
ARC
  5
C33A
  8
0
  6
CONTINUOUS
 62
     3
 10
6.4999999999978959
 20
47.4243878323910621
 30
0.0
 40
20.00000000000216
210
0.0
220
-0.0000000000000002
230
-1.0
 50
0.0000000000000127
 51
14.6763931374475103
  0
ARC
  5
C33B
  8
0
  6
CONTINUOUS
 62
     3
 10
-6.4999999999976801
 20
47.4243878323910124
 30
0.0
 40
20.0000000000024087
210
0.0
220
-0.0000000000000002
230
-1.0
 50
165.3236068625519124
 51
179.9999999999992042
  0
CIRCLE
  5
C33C
  8
0
  6
CONTINUOUS
 62
     3
 10
0.0000000000000915
 20
99.9999999999999147
 30
0.0
 40
19.5000000000000604
210
0.0
220
-0.0000000000000002
230
-1.0
  0
CIRCLE
  5
C33D
  8
0
  6
CONTINUOUS
 62
     3
 10
0.0000000000000915
 20
99.9999999999999147
 30
0.0
 40
23.8479577973837991
210
0.0
220
-0.0000000000000002
230
-1.0
  0
CIRCLE
  5
C33E
  8
0
  6
CONTINUOUS
 62
     3
 10
0.0000000000000915
 20
99.9999999999999147
 30
0.0
 40
22.4981434521670884
210
0.0
220
-0.0000000000000002
230
-1.0
  0
CIRCLE
  5
C33F
  8
0
  6
CONTINUOUS
 62
     3
 10
0.0000000000000915
 20
99.9999999999999147
 30
0.0
 40
25.5000000000000107
210
0.0
220
-0.0000000000000002
230
-1.0
  0
LINE
  5
C340
  8
0
  6
CONTINUOUS
 62
     3
 10
21.0000000000003588
 20
73.9999999999999005
 30
-0.0000000000000164
 11
-20.9999999999996412
 21
73.9999999999999005
 31
-0.0000000000000164
210
0.0000000000000002
220
1.0
230
-0.0000000000000002
  0
LINE
  5
C341
  8
0
  6
CONTINUOUS
 62
     3
 10
21.0000000000003588
 20
73.9999999999999005
 30
-0.0000000000000164
 11
21.0000000000003588
 21
85.5345238585111218
 31
-0.000000000000019
210
0.0000000000000002
220
1.0
230
-0.0000000000000002
  0
LINE
  5
C342
  8
0
  6
CONTINUOUS
 62
     3
 10
-20.9999999999996412
 20
85.5345238585098144
 30
-0.000000000000019
 11
-20.9999999999996412
 21
73.9999999999999147
 31
-0.0000000000000164
210
0.0000000000000002
220
1.0
230
-0.0000000000000002
  0
LINE
  5
C343
  8
0
  6
VERDECKT
 62
     1
 10
-24.5074442146850515
 20
0.1492555785314331
 30
0.0
 11
24.5074442146850515
 21
0.1492555785315586
 31
0.0
210
0.0000000000000002
220
1.0
230
-0.0000000000000002
  0
ARC
  5
C344
  8
0
  6
VERDECKT
 62
     1
 10
24.0000000000008384
 20
5.1246890528013047
 30
0.0
 40
0.9999999999991795
210
0.0
220
-0.0000000000000002
230
-1.0
 50
354.2894068624975148
 51
0.0000000000014376
  0
ARC
  5
C345
  8
0
  6
VERDECKT
 62
     1
 10
-23.9999999999993392
 20
5.1246890528014699
 30
0.0
 40
1.0000000000006499
210
0.0
220
-0.0000000000000002
230
-1.0
 50
180.0000000000007105
 51
185.7105931374962893
  0
LINE
  5
C346
  8
0
  6
VERDECKT
 62
     1
 10
-24.5074442146851013
 20
0.1492555785314284
 30
0.0
 11
-24.9950371902099988
 21
5.025185333780338
 31
-0.0000000000000011
210
0.0000000000000002
220
1.0
230
-0.0000000000000002
  0
LINE
  5
C347
  8
0
  6
VERDECKT
 62
     1
 10
24.507444214685119
 20
0.1492555785315525
 30
0.0
 11
24.995037190209981
 21
5.0251853337804642
 31
-0.0000000000000011
210
0.0000000000000002
220
1.0
230
-0.0000000000000002
  0
LINE
  5
C348
  8
0
  6
VERDECKT
 62
     1
 10
24.9999999999998899
 20
47.4243878323912966
 30
-0.0000000000000105
 11
25.0
 21
5.1246890528014601
 31
-0.0000000000000011
210
0.0000000000000002
220
1.0
230
-0.0000000000000002
  0
LINE
  5
C349
  8
0
  6
VERDECKT
 62
     1
 10
-25.0000000000001101
 20
47.4243878323913179
 30
-0.0000000000000105
 11
-25.0000000000000107
 21
5.1246890528013278
 31
-0.0000000000000011
210
0.0000000000000002
220
1.0
230
-0.0000000000000002
  0
ARC
  5
C34A
  8
0
  6
VERDECKT
 62
     1
 10
-28.0000124565044786
 20
71.9014594442022457
 30
-0.000000000000016
 40
8.5000000000021068
 50
345.3236160831339134
 51
359.9999999999928946
  0
ARC
  5
C34B
  8
0
  6
VERDECKT
 62
     1
 10
28.0000124565038604
 20
71.9014594442020751
 30
-0.000000000000016
 40
8.5000000000012808
 50
180.000000000011795
 51
194.6763839168719983
  0
LINE
  5
C34C
  8
0
  6
VERDECKT
 62
     1
 10
19.5000124565025708
 20
74.0000000000002558
 30
-0.0000000000000164
 11
19.5000124565025708
 21
71.9014594442012367
 31
-0.000000000000016
210
0.0000000000000002
220
1.0
230
-0.0000000000000002
  0
LINE
  5
C34D
  8
0
  6
VERDECKT
 62
     1
 10
-19.5000124565025388
 20
74.0000000000002558
 30
-0.0000000000000164
 11
-19.5000124565025388
 21
71.9014594442012367
 31
-0.000000000000016
210
0.0000000000000002
220
1.0
230
-0.0000000000000002
  0
LINE
  5
C34E
  8
0
  6
VERDECKT
 62
     1
 10
19.7773482111998007
 20
69.7479059368513674
 30
-0.0000000000000155
 11
24.3963953234721593
 21
52.111532655285707
 31
-0.0000000000000116
210
0.0000000000000002
220
1.0
230
-0.0000000000000002
  0
LINE
  5
C34F
  8
0
  6
VERDECKT
 62
     1
 10
-19.7773482111997687
 20
69.7479059368513674
 30
-0.0000000000000155
 11
-24.3963953234721416
 21
52.1115326552857212
 31
-0.0000000000000116
210
0.0000000000000002
220
1.0
230
-0.0000000000000002
  0
ARC
  5
C350
  8
0
  6
VERDECKT
 62
     1
 10
-6.5000084366327542
 20
47.424386786346993
 30
0.0
 40
18.5000000000040217
210
0.0
220
-0.0000000000000002
230
-1.0
 50
165.3236160831403936
 51
179.9999967603268942
  0
ARC
  5
C351
  8
0
  6
VERDECKT
 62
     1
 10
6.5000084366331201
 20
47.4243867863471706
 30
0.0
 40
18.5000000000035989
210
0.0
220
-0.0000000000000002
230
-1.0
 50
0.0000032396725859
 51
14.6763839168594803
  0
LINE
  5
C352
  8
0
  6
VERDECKT
 62
     1
 10
24.5074442146850515
 20
0.1492555785315641
 30
0.0
 11
26.0
 21
0.0000000000000671
 31
0.0
210
0.0000000000000002
220
1.0
230
-0.0000000000000002
  0
LINE
  5
C353
  8
0
  6
VERDECKT
 62
     1
 10
-24.5074442146850515
 20
0.1492555785314388
 30
0.0
 11
-26.0
 21
-0.0000000000000661
 31
0.0
210
0.0000000000000002
220
1.0
230
-0.0000000000000002
  0
CIRCLE
  5
C354
  8
0
  6
VERDECKT
 62
     1
 10
0.0000000000000915
 20
99.9999999999999147
 30
0.0
 40
21.0
210
0.0
220
-0.0000000000000002
230
-1.0
  0
CIRCLE
  5
C355
  8
0
  6
VERDECKT
 62
     1
 10
0.0000000000000915
 20
99.9999999999999147
 30
0.0
 40
24.0000000000000107
210
0.0
220
-0.0000000000000002
230
-1.0
  0
CIRCLE
  5
C356
  8
0
  6
VERDECKT
 62
     1
 10
0.0000000000000915
 20
99.9999999999999147
 30
0.0
 40
22.5000000000000604
210
0.0
220
-0.0000000000000002
230
-1.0
  0
LINE
  5
C357
  8
0
  6
VERDECKT
 62
     1
 10
19.5000000000003588
 20
73.9999999999999005
 30
-0.0000000000000164
 11
19.5000000000003588
 21
99.9999999999999147
 31
-0.0000000000000222
210
0.0000000000000002
220
1.0
230
-0.0000000000000002
  0
LINE
  5
C358
  8
0
  6
VERDECKT
 62
     1
 10
-19.4999999999996305
 20
99.9999999999999147
 30
-0.0000000000000222
 11
-19.4999999999996305
 21
73.9999999999999005
 31
-0.0000000000000164
210
0.0000000000000002
220
1.0
230
-0.0000000000000002
  0
LINE
  5
C359
  8
0
  6
VERDECKT
 62
     1
 10
21.0000000000003588
 20
85.5345238585111218
 30
-0.000000000000019
 11
21.0000000000003588
 21
99.9999999999999147
 31
-0.0000000000000222
210
0.0000000000000002
220
1.0
230
-0.0000000000000002
  0
LINE
  5
C35A
  8
0
  6
VERDECKT
 62
     1
 10
-20.9999999999996412
 20
99.9999999999999147
 30
-0.0000000000000222
 11
-20.9999999999996412
 21
85.5345238585098144
 31
-0.000000000000019
210
0.0000000000000002
220
1.0
230
-0.0000000000000002
  0
ENDBLK
  5
C35C
  8
0
  0
ENDSEC
  0
SECTION
  2
ENTITIES
  0
INSERT
  5
573
  8
ADSK_ASSOC_ENTITY_BACKUPS
  2
*S0
 10
0.0
 20
0.0
 30
0.0
  0
INSERT
  5
C2EF
  8
STEMPEL
  2
A$C1F7C60E7
 10
0.0
 20
0.0
 30
0.0
  0
INSERT
  5
C329
  8
STEMPEL
  2
A$C89F7D0FC
 10
0.0
 20
-50.0
 30
0.0
  0
INSERT
  5
C35D
  8
STEMPEL
  2
A$C2A6ADF3F
 10
-100.0
 20
0.0
 30
0.0
  0
VIEWPORT
  5
45D
 67
     1
  8
0
 10
115.802305954475699
 20
350.8227160629484729
 30
0.0
 40
113.9724927038424056
 41
60.4698946234346408
 68
     1
 69
     1
1001
ACAD
1000
MVIEW
1002
{
1070
    16
1010
0.0
1020
0.0
1030
0.0
1010
0.0
1020
0.0
1030
1.0
1040
0.0
1040
60.4698946234346408
1040
115.802305954475699
1040
350.8227160629484729
1040
50.0
1040
0.0
1040
0.0
1070
     0
1070
  1500
1070
     1
1070
     1
1070
     0
1070
     0
1070
     0
1070
     0
1040
0.0
1040
0.0
1040
0.0
1040
10.0
1040
10.0
1040
10.0
1040
10.0
1070
     0
1002
{
1002
}
1002
}
  0
CIRCLE
  5
BE81
 67
     1
  8
INDEX
 62
   150
 10
135.633127894278914
 20
373.0
 30
0.0
 40
2.5
  0
TEXT
  5
BE82
 67
     1
  8
INDEX
 62
   150
 10
134.718842179993203
 20
371.5
 30
0.0
 40
3.0
  1
A
 41
0.8
 72
     4
 11
135.633127894278914
 21
373.0
 31
0.0
  0
CIRCLE
  5
BE83
 67
     1
  8
INDEX
 62
   150
 10
170.133127894278914
 20
373.0
 30
0.0
 40
2.5
  0
TEXT
  5
BE84
 67
     1
  8
INDEX
 62
   150
 10
169.218842179993203
 20
371.5
 30
0.0
 40
3.0
  1
A
 41
0.8
 72
     4
 11
170.133127894278914
 21
373.0
 31
0.0
  0
CIRCLE
  5
BF47
 67
     1
  8
INDEX
 62
   150
 10
61.4714855763854899
 20
328.6454324329253041
 30
0.0
 40
2.5
  0
TEXT
  5
BF48
 67
     1
  8
INDEX
 62
   150
 10
62.9714855763854899
 20
327.731146718639593
 30
0.0
 40
3.0
  1
A
 50
90.0
 41
0.8
 72
     4
 11
61.4714855763854899
 21
328.6454324329253041
 31
0.0
  0
ENDSEC
  0
EOF
