  0
SECTION
  2
HEADER
  9
$ACADVER
  1
AC1009
  9
$INSBASE
 10
0.0
 20
0.0
 30
0.0
  9
$EXTMIN
 10
-347.713430386478592
 20
-302.5551803102201234
 30
-46.684140221648498
  9
$EXTMAX
 10
-131.713430386478592
 20
123.1648264461774005
 30
-46.6841402216484624
  9
$LIMMIN
 10
0.0
 20
0.0
  9
$LIMMAX
 10
210.0
 20
297.0
  9
$ORTHOMODE
 70
     1
  9
$REGENMODE
 70
     1
  9
$FILLMODE
 70
     1
  9
$QTEXTMODE
 70
     0
  9
$MIRRTEXT
 70
     1
  9
$DRAGMODE
 70
     2
  9
$LTSCALE
 40
10.0
  9
$OSMODE
 70
  2495
  9
$ATTMODE
 70
     1
  9
$TEXTSIZE
 40
3.5
  9
$TRACEWID
 40
0.5
  9
$TEXTSTYLE
  7
STANDARD
  9
$CLAYER
  8
STEMPEL
  9
$CELTYPE
  6
BYLAYER
  9
$CECOLOR
 62
   256
  9
$DIMSCALE
 40
1.0
  9
$DIMASZ
 40
3.5
  9
$DIMEXO
 40
1.0
  9
$DIMDLI
 40
7.0
  9
$DIMRND
 40
0.0
  9
$DIMDLE
 40
0.0
  9
$DIMEXE
 40
1.0
  9
$DIMTP
 40
0.0
  9
$DIMTM
 40
0.0
  9
$DIMTXT
 40
3.5
  9
$DIMCEN
 40
1.5
  9
$DIMTSZ
 40
0.0
  9
$DIMTOL
 70
     0
  9
$DIMLIM
 70
     0
  9
$DIMTIH
 70
     0
  9
$DIMTOH
 70
     0
  9
$DIMSE1
 70
     0
  9
$DIMSE2
 70
     0
  9
$DIMTAD
 70
     1
  9
$DIMZIN
 70
     8
  9
$DIMBLK
  1

  9
$DIMASO
 70
     1
  9
$DIMSHO
 70
     0
  9
$DIMPOST
  1

  9
$DIMAPOST
  1

  9
$DIMALT
 70
     0
  9
$DIMALTD
 70
     2
  9
$DIMALTF
 40
25.3999999999999986
  9
$DIMLFAC
 40
2.0
  9
$DIMTOFL
 70
     1
  9
$DIMTVP
 40
0.0
  9
$DIMTIX
 70
     0
  9
$DIMSOXD
 70
     0
  9
$DIMSAH
 70
     0
  9
$DIMBLK1
  1

  9
$DIMBLK2
  1

  9
$DIMSTYLE
  2
STANDARD
  9
$DIMCLRD
 70
     0
  9
$DIMCLRE
 70
     0
  9
$DIMCLRT
 70
     1
  9
$DIMTFAC
 40
0.5
  9
$DIMGAP
 40
1.5
  9
$LUNITS
 70
     2
  9
$LUPREC
 70
     2
  9
$SKETCHINC
 40
1.0
  9
$FILLETRAD
 40
35.0
  9
$AUNITS
 70
     0
  9
$AUPREC
 70
     0
  9
$MENU
  1
ACAD
  9
$ELEVATION
 40
0.0
  9
$PELEVATION
 40
0.0
  9
$THICKNESS
 40
0.0
  9
$LIMCHECK
 70
     0
  9
$BLIPMODE
 70
     0
  9
$CHAMFERA
 40
0.0
  9
$CHAMFERB
 40
0.0
  9
$SKPOLY
 70
     0
  9
$TDCREATE
 40
2455397.8646990740671754
  9
$TDUPDATE
 40
2459016.5921759260818362
  9
$TDINDWG
 40
0.0972957407
  9
$TDUSRTIMER
 40
0.0972957407
  9
$USRTIMER
 70
     1
  9
$ANGBASE
 50
0.0
  9
$ANGDIR
 70
     0
  9
$PDMODE
 70
     0
  9
$PDSIZE
 40
0.0
  9
$PLINEWID
 40
0.0
  9
$COORDS
 70
     1
  9
$SPLFRAME
 70
     0
  9
$SPLINETYPE
 70
     6
  9
$SPLINESEGS
 70
     8
  9
$ATTDIA
 70
     1
  9
$ATTREQ
 70
     1
  9
$HANDLING
 70
     1
  9
$HANDSEED
  5
11B9
  9
$SURFTAB1
 70
     6
  9
$SURFTAB2
 70
     6
  9
$SURFTYPE
 70
     6
  9
$SURFU
 70
     6
  9
$SURFV
 70
     6
  9
$UCSNAME
  2

  9
$UCSORG
 10
-417.9526363889447111
 20
334.0222453025887148
 30
0.0
  9
$UCSXDIR
 10
1.0
 20
0.0
 30
0.0
  9
$UCSYDIR
 10
0.0
 20
1.0
 30
0.0
  9
$PUCSNAME
  2

  9
$PUCSORG
 10
0.0
 20
0.0
 30
0.0
  9
$PUCSXDIR
 10
1.0
 20
0.0
 30
0.0
  9
$PUCSYDIR
 10
0.0
 20
1.0
 30
0.0
  9
$USERI1
 70
     0
  9
$USERI2
 70
     0
  9
$USERI3
 70
     0
  9
$USERI4
 70
     0
  9
$USERI5
 70
     0
  9
$USERR1
 40
0.0
  9
$USERR2
 40
0.0
  9
$USERR3
 40
0.0
  9
$USERR4
 40
0.0
  9
$USERR5
 40
0.0
  9
$WORLDVIEW
 70
     1
  9
$SHADEDGE
 70
     3
  9
$SHADEDIF
 70
    70
  9
$TILEMODE
 70
     1
  9
$MAXACTVP
 70
    16
  9
$PLIMCHECK
 70
     0
  9
$PEXTMIN
 10
1.0000000000000000E+20
 20
1.0000000000000000E+20
 30
1.0000000000000000E+20
  9
$PEXTMAX
 10
-1.0000000000000000E+20
 20
-1.0000000000000000E+20
 30
-1.0000000000000000E+20
  9
$PLIMMIN
 10
1.764590526837132
 20
1.3846338219835621
  9
$PLIMMAX
 10
211.7645905268371109
 20
298.3846338219835843
  9
$UNITMODE
 70
     0
  9
$VISRETAIN
 70
     0
  9
$PLINEGEN
 70
     0
  9
$PSLTSCALE
 70
     0
  0
ENDSEC
  0
SECTION
  2
TABLES
  0
TABLE
  2
VPORT
 70
     1
  0
VPORT
  2
*ACTIVE
 70
     0
 10
0.0
 20
0.0
 11
1.0
 21
1.0
 12
-0.144933189670212
 22
-94.2815508175959849
 13
0.0
 23
0.0
 14
1.0
 24
1.0
 15
10.0
 25
10.0
 16
-0.0000000000001705
 26
0.0
 36
806.5792822427335977
 17
-239.5684971968084085
 27
4.5863738855746297
 37
-23.3420701108242206
 40
428.7644883303407255
 41
1.7852028639618129
 42
50.0
 43
0.0
 44
0.0
 50
0.0
 51
0.0
 71
     0
 72
  1500
 73
     1
 74
     0
 75
     0
 76
     0
 77
     0
 78
     0
  0
ENDTAB
  0
TABLE
  2
LTYPE
 70
     6
  0
LTYPE
  2
CONTINUOUS
 70
     0
  3
Solid line
 72
    65
 73
     0
 40
0.0
  0
LTYPE
  2
PHANTOM2
 70
     0
  3
Phantom (.5x) ___ _ _ ___ _ _ ___ _ _ ___ _ _
 72
    65
 73
     6
 40
1.25
 49
0.625
 49
-0.125
 49
0.125
 49
-0.125
 49
0.125
 49
-0.125
  0
LTYPE
  2
VERDECKT
 70
     0
  3
Verdeckt __ __ __ __ __ __ __ __ __ __ __ __ __
 72
    65
 73
     2
 40
0.375
 49
0.25
 49
-0.125
  0
ENDTAB
  0
TABLE
  2
LAYER
 70
    11
  0
LAYER
  2
0
 70
     0
 62
     7
  6
CONTINUOUS
  0
LAYER
  2
VOLL
 70
     0
 62
     1
  6
CONTINUOUS
  0
LAYER
  2
STEMPEL
 70
     0
 62
     3
  6
CONTINUOUS
  0
LAYER
  2
ADSK_ASSOC_ENTITY_BACKUPS
 70
     1
 62
    -7
  6
CONTINUOUS
  0
LAYER
  2
DEFPOINTS
 70
     0
 62
     7
  6
CONTINUOUS
  0
ENDTAB
  0
TABLE
  2
STYLE
 70
     4
  0
STYLE
  2
STANDARD
 70
     0
 40
0.0
 41
0.8
 50
0.0
 71
     0
 42
3.5
  3
simplex.shx
  4

  0
STYLE
  2
GREEKS
 70
     0
 40
0.0
 41
0.8
 50
0.0
 71
     0
 42
2.5
  3
SIMPLEX.shx
  4

  0
ENDTAB
  0
TABLE
  2
VIEW
 70
     1
  0
ENDTAB
  0
TABLE
  2
UCS
 70
     0
  0
ENDTAB
  0
TABLE
  2
APPID
 70
    16
  0
APPID
  2
ACAD
 70
     0
  0
APPID
  2
ACAD_NAV_VCDISPLAY
 70
     0
  0
APPID
  2
ACAD_MLEADERVER
 70
     0
  0
APPID
  2
ACAD_EXEMPT_FROM_CAD_STANDARDS
 70
     0
  0
APPID
  2
ACAD_PSEXT
 70
     0
  0
APPID
  2
ACAECLAYERSTANDARD
 70
     0
  0
APPID
  2
ACAUTHENVIRON
 70
     0
  0
APPID
  2
ACCMTRANSPARENCY
 70
     0
  0
APPID
  2
ACSYNERGY
 70
     0
  0
APPID
  2
SYNERGY_BODY_TBR_ID
 70
     0
  0
APPID
  2
ACAD_VIEW_EDGE_ID
 70
     0
  0
APPID
  2
ACAD_DSTYLE_DIMRADIAL_EXTENSION
 70
     0
  0
APPID
  2
ACADANNOMONITORALERTICONDI
 70
     0
  0
APPID
  2
ACAD_DSTYLE_DIMJAG
 70
     0
  0
APPID
  2
ACAD_DSTYLE_DIMTALN
 70
     0
  0
APPID
  2
AcDbAttr
 70
     0
  0
ENDTAB
  0
TABLE
  2
DIMSTYLE
 70
     2
  0
DIMSTYLE
  2
STANDARD
 70
     0
  3

  4

  5

  6

  7

 40
1.0
 41
0.18
 42
0.0625
 43
0.38
 44
0.18
 45
0.0
 46
0.0
 47
0.0
 48
0.0
140
0.18
141
0.09
142
0.0
143
25.3999999999999986
144
1.0
145
0.0
146
1.0
147
0.09
 71
     0
 72
     0
 73
     1
 74
     1
 75
     0
 76
     0
 77
     0
 78
     0
170
     0
171
     2
172
     0
173
     0
174
     0
175
     0
176
     0
177
     0
178
     0
  0
ENDTAB
  0
ENDSEC
  0
SECTION
  2
BLOCKS
  0
BLOCK
  8
0
  2
$MODEL_SPACE
 70
     0
 10
0.0
 20
0.0
 30
0.0
  3
$MODEL_SPACE
  1

  0
ENDBLK
  5
36
  8
0
  0
BLOCK
 67
     1
  8
0
  2
$PAPER_SPACE
 70
     0
 10
0.0
 20
0.0
 30
0.0
  3
$PAPER_SPACE
  1

  0
ENDBLK
  5
34
 67
     1
  8
0
  0
BLOCK
  8
0
  2
*S4
 70
     1
 10
0.0
 20
0.0
 30
0.0
  3
*S4
  1

  0
ENDBLK
  5
AF6
  8
0
  0
BLOCK
  8
0
  2
A$C3175DA43
 70
     0
 10
0.0
 20
0.0
 30
0.0
  3
A$C3175DA43
  1

  0
LINE
  5
10E9
  8
0
  6
CONTINUOUS
 10
192.1065981747777016
 20
-307.7005095108594901
 30
0.0000000000000426
 11
192.1065981747777016
 21
-205.7005095108594048
 31
0.0000000000000426
  0
LINE
  5
10EA
  8
0
  6
CONTINUOUS
 10
287.1065981747776732
 20
-200.993753672934389
 30
0.0000000000000568
 11
287.1065981747776732
 21
-256.7005095108593764
 31
0.0000000000000568
  0
LINE
  5
10EB
  8
0
  6
CONTINUOUS
 10
287.1065981747776732
 20
-256.7005095108594901
 30
0.0000000000000568
 11
287.1065981747776732
 21
-312.4072653487845059
 31
0.0000000000000568
  0
LINE
  5
10EC
  8
0
  6
CONTINUOUS
 10
287.1065981747776732
 20
-312.4072653487845059
 30
0.0000000000000568
 11
285.0673032557236866
 21
-313.358204186775879
 31
0.0000000000000564
  0
LINE
  5
10ED
  8
0
  6
CONTINUOUS
 10
287.1065981747776732
 20
-200.993753672934389
 30
0.0000000000000568
 11
285.0673032557236866
 21
-200.0428148349431012
 31
0.0000000000000564
  0
ARC
  5
10EE
  8
0
  6
CONTINUOUS
 10
274.5018467122064862
 20
-222.7005095108598027
 30
0.0000000000000568
 40
25.0000000000002807
 50
65.0000000000006537
 51
90.0
  0
ARC
  5
10EF
  8
0
  6
CONTINUOUS
 10
274.5018467122064862
 20
-290.7005095108592059
 30
0.0000000000000568
 40
25.00000000000027
 50
270.0
 51
294.9999999999993747
  0
LINE
  5
10F0
  8
0
  6
CONTINUOUS
 10
274.5018467122065999
 20
-315.7005095108594901
 30
0.0000000000000568
 11
259.3397987054592022
 21
-315.7005095108594901
 31
0.0000000000000537
  0
LINE
  5
10F1
  8
0
  6
CONTINUOUS
 10
274.5018467122065999
 20
-197.7005095108594048
 30
0.0000000000000568
 11
259.3397987054592022
 21
-197.7005095108594048
 31
0.0000000000000537
  0
ARC
  5
10F2
  8
0
  6
CONTINUOUS
 10
259.3397987054577243
 20
-222.7005095108532942
 30
0.0000000000000568
 40
24.9999999999938503
 50
89.9999999999967457
 51
116.8880476177274943
  0
ARC
  5
10F3
  8
0
  6
CONTINUOUS
 10
259.3397987054577811
 20
-290.7005095108654018
 30
0.0000000000000568
 40
24.9999999999941203
 50
243.111952382272392
 51
270.0
  0
ARC
  5
10F4
  8
0
  6
CONTINUOUS
 10
242.6065981747775027
 20
-189.700509510858808
 30
0.0000000000000497
 40
12.0000000000006803
 50
270.0
 51
296.8880476177246805
  0
ARC
  5
10F5
  8
0
  6
CONTINUOUS
 10
242.6065981747777016
 20
-323.7005095108594901
 30
0.0000000000000497
 40
12.0
 50
63.1119523822724702
 51
90.0
  0
LINE
  5
10F6
  8
0
  6
CONTINUOUS
 10
242.6065981747777016
 20
-311.7005095108594901
 30
0.0000000000000497
 11
224.0340870517252085
 21
-311.7005095108594901
 31
0.0000000000000459
  0
LINE
  5
10F7
  8
0
  6
CONTINUOUS
 10
242.6065981747777016
 20
-201.7005095108594048
 30
0.0000000000000497
 11
224.0340870517252085
 21
-201.7005095108594048
 31
0.0000000000000459
  0
ARC
  5
10F8
  8
0
  6
CONTINUOUS
 10
224.0340870517252085
 20
-216.700509510859689
 30
0.0000000000000426
 40
15.0000000000002007
 50
90.0
 51
124.3011527567924048
  0
ARC
  5
10F9
  8
0
  6
CONTINUOUS
 10
224.0340870517250949
 20
-296.7005095108597175
 30
0.0000000000000426
 40
14.9999999999997602
 50
235.6988472432074957
 51
270.0
  0
ARC
  5
10FA
  8
0
  6
CONTINUOUS
 10
211.0726056549094949
 20
-197.7005095108594048
 30
0.0000000000000426
 40
8.0
 50
270.0
 51
304.3011527567896906
  0
ARC
  5
10FB
  8
0
  6
CONTINUOUS
 10
211.0726056549094949
 20
-315.7005095108594901
 30
0.0000000000000426
 40
7.9999999999998996
 50
55.6988472432076023
 51
90.0
  0
LINE
  5
10FC
  8
0
  6
CONTINUOUS
 10
211.0726056549094949
 20
-307.7005095108594901
 30
0.0000000000000426
 11
192.1065981747777016
 21
-307.7005095108594901
 31
0.0000000000000387
  0
LINE
  5
10FD
  8
0
  6
CONTINUOUS
 10
211.0726056549094949
 20
-205.7005095108594048
 30
0.0000000000000426
 11
192.1065981747777016
 21
-205.7005095108594048
 31
0.0000000000000387
  0
LINE
  5
10FE
  8
0
  6
CONTINUOUS
 10
192.1065981747777016
 20
-307.7005095108594901
 30
0.0000000000000426
 11
192.1065981747777016
 21
-256.7005095108594901
 31
0.0000000000000426
  0
LINE
  5
10FF
  8
0
  6
CONTINUOUS
 10
192.1065981747777016
 20
-256.7005095108593764
 30
0.0000000000000426
 11
192.1065981747777016
 21
-205.7005095108594901
 31
0.0000000000000426
  0
ARC
  5
1100
  8
0
  6
CONTINUOUS
 10
122.1065981747777016
 20
-256.7005095108594901
 30
0.0000000000000249
 40
51.0
 50
180.0
 51
270.0
  0
ARC
  5
1101
  8
0
  6
CONTINUOUS
 10
122.1065981747777016
 20
-256.7005095108594901
 30
0.0000000000000249
 40
50.9999999999999787
 50
90.0
 51
180.0
  0
LINE
  5
1102
  8
0
  6
CONTINUOUS
 10
192.1065981747777016
 20
-205.7005095108594901
 30
0.0000000000000426
 11
122.1065981747777016
 21
-205.7005095108594901
 31
0.0000000000000249
  0
LINE
  5
1103
  8
0
  6
CONTINUOUS
 10
122.1065981747777016
 20
-307.7005095108594901
 30
0.0000000000000249
 11
192.1065981747777016
 21
-307.7005095108594901
 31
0.0000000000000426
  0
LINE
  5
1104
  8
0
  6
VERDECKT
 62
     1
 10
286.2613616512962835
 20
-202.8063692470078081
 30
0.0000000000000568
 11
286.2613616512962835
 21
-256.7005095108594901
 31
0.0000000000000568
  0
LINE
  5
1105
  8
0
  6
VERDECKT
 62
     1
 10
286.2613616512962835
 20
-256.7005095108594901
 30
0.0000000000000568
 11
286.2613616512962835
 21
-310.5946497747111721
 31
0.0000000000000568
  0
LINE
  5
1106
  8
0
  6
VERDECKT
 62
     1
 10
211.0726056549094949
 20
-305.7005095108594901
 30
0.0000000000000426
 11
192.1065981747777016
 21
-305.7005095108594901
 31
0.0000000000000387
  0
LINE
  5
1107
  8
0
  6
VERDECKT
 62
     1
 10
211.0726056549094949
 20
-207.7005095108594048
 30
0.0000000000000426
 11
192.1065981747777016
 21
-207.7005095108594048
 31
0.0000000000000387
  0
ARC
  5
1108
  8
0
  6
VERDECKT
 62
     1
 10
211.0726056549092959
 20
-197.7005095108586943
 30
0.0000000000000426
 40
10.0000000000007301
 50
270.0
 51
304.3011527567896906
  0
ARC
  5
1109
  8
0
  6
VERDECKT
 62
     1
 10
211.0726056549092959
 20
-315.7005095108601722
 30
0.0000000000000426
 40
10.0000000000007105
 50
55.6988472432102881
 51
90.0
  0
ARC
  5
110A
  8
0
  6
VERDECKT
 62
     1
 10
224.0340870517254075
 20
-216.700509510859888
 30
0.0000000000000426
 40
13.0000000000004796
 50
90.0
 51
124.3011527567897048
  0
ARC
  5
110B
  8
0
  6
VERDECKT
 62
     1
 10
224.0340870517252938
 20
-296.7005095108593764
 30
0.0000000000000426
 40
13.0000000000001297
 50
235.6988472432103094
 51
270.0
  0
LINE
  5
110C
  8
0
  6
VERDECKT
 62
     1
 10
242.6063976440960914
 20
-309.7005095108594901
 30
0.0000000000000497
 11
224.0340870517252085
 21
-309.7005095108594901
 31
0.0000000000000459
  0
LINE
  5
110D
  8
0
  6
VERDECKT
 62
     1
 10
242.6063976440960914
 20
-203.7005095108594048
 30
0.0000000000000497
 11
224.0340870517252085
 21
-203.7005095108594048
 31
0.0000000000000459
  0
ARC
  5
110E
  8
0
  6
VERDECKT
 62
     1
 10
242.6063976440962904
 20
-189.7005095108605133
 30
0.0000000000000497
 40
13.9999999999989395
 50
270.0
 51
296.8880476177246805
  0
ARC
  5
110F
  8
0
  6
VERDECKT
 62
     1
 10
242.6063976440964041
 20
-323.7005095108584101
 30
0.0000000000000497
 40
13.9999999999988294
 50
63.1119523822753834
 51
90.0
  0
ARC
  5
1110
  8
0
  6
VERDECKT
 62
     1
 10
259.3395981747776204
 20
-222.7005095108594901
 30
0.0000000000000568
 40
23.0000000000000888
 50
90.0
 51
116.8880476177245953
  0
ARC
  5
1111
  8
0
  6
VERDECKT
 62
     1
 10
259.3395981747776773
 20
-290.7005095108590922
 30
0.0000000000000568
 40
23.000000000000469
 50
243.1119523822754047
 51
270.0
  0
LINE
  5
1112
  8
0
  6
VERDECKT
 62
     1
 10
274.5018467122065999
 20
-313.7005095108594901
 30
0.0000000000000568
 11
259.3395981747776204
 21
-313.7005095108594901
 31
0.0000000000000537
  0
LINE
  5
1113
  8
0
  6
VERDECKT
 62
     1
 10
274.5018467122065999
 20
-199.7005095108594048
 30
0.0000000000000568
 11
259.3395981747776204
 21
-199.7005095108594048
 31
0.0000000000000537
  0
ARC
  5
1114
  8
0
  6
VERDECKT
 62
     1
 10
274.5018467122063157
 20
-222.7005095108607122
 30
0.0000000000000568
 40
23.0000000000012612
 50
65.0000000000006537
 51
90.0
  0
ARC
  5
1115
  8
0
  6
VERDECKT
 62
     1
 10
274.5018467122063726
 20
-290.700509510858808
 30
0.0000000000000568
 40
23.0000000000006786
 50
270.0
 51
294.9999999999993747
  0
LINE
  5
1116
  8
0
  6
VERDECKT
 62
     1
 10
286.2613616512962835
 20
-310.5946497747111721
 30
0.0000000000000568
 11
284.2220667322428085
 21
-311.5455886127023746
 31
0.0000000000000564
  0
LINE
  5
1117
  8
0
  6
VERDECKT
 62
     1
 10
286.2613616512962835
 20
-202.8063692470078081
 30
0.0000000000000568
 11
284.2220667322428085
 21
-201.8554304090164919
 31
0.0000000000000564
  0
LINE
  5
1118
  8
0
  6
VERDECKT
 62
     1
 10
286.2613616512962835
 20
-202.8063692470078081
 30
0.0000000000000568
 11
287.1065981747776732
 21
-200.993753672934389
 31
0.000000000000057
  0
LINE
  5
1119
  8
0
  6
VERDECKT
 62
     1
 10
286.2613616512962835
 20
-310.5946497747111721
 30
0.0000000000000568
 11
287.1065981747776732
 21
-312.4072653487845059
 31
0.000000000000057
  0
CIRCLE
  5
111A
  8
0
  6
VERDECKT
 62
     1
 10
122.1065981747777016
 20
-256.7005095108594901
 30
0.0000000000000249
 40
49.0
  0
ARC
  5
111B
  8
0
  6
VERDECKT
 62
     1
 10
122.1065981747777016
 20
-256.7005095108594901
 30
0.0000000000000249
 40
51.0
 50
270.0
 51
90.0
  0
CIRCLE
  5
111C
  8
0
  6
VERDECKT
 62
     1
 10
122.1065981747777016
 20
-256.7005095108594901
 30
0.0000000000000284
 40
48.1327239685572721
  0
CIRCLE
  5
111D
  8
0
  6
VERDECKT
 62
     1
 10
122.1065981747777016
 20
-256.7005095108594901
 30
0.0000000000000284
 40
50.1251133647407627
  0
LINE
  5
111E
  8
0
  6
VERDECKT
 62
     1
 10
192.1065981747777016
 20
-207.7005095108594901
 30
0.0000000000000426
 11
122.1065981747777016
 21
-207.7005095108594901
 31
0.0000000000000249
  0
LINE
  5
111F
  8
0
  6
VERDECKT
 62
     1
 10
122.1065981747777016
 20
-305.7005095108594901
 30
0.0000000000000249
 11
192.1065981747777016
 21
-305.7005095108594901
 31
0.0000000000000426
  0
ENDBLK
  5
1121
  8
0
  0
BLOCK
  8
0
  2
A$C2C3BB851
 70
     0
 10
0.0
 20
0.0
 30
0.0
  3
A$C2C3BB851
  1

  0
LINE
  5
1125
  8
0
  6
CONTINUOUS
 10
192.1065981747777016
 20
1.9999999999999609
 30
0.0
 11
192.1065981747777016
 21
53.0
 31
0.0
210
0.0
220
1.0
230
-0.0000000000000002
  0
LINE
  5
1126
  8
0
  6
CONTINUOUS
 10
192.1065981747777016
 20
53.0000000000000213
 30
0.0
 11
192.1065981747777016
 21
104.0
 31
0.0
210
0.0
220
1.0
230
-0.0000000000000002
  0
LINE
  5
1127
  8
0
  6
CONTINUOUS
 10
287.1065981747776732
 20
108.7067558379250016
 30
0.0
 11
287.1065981747776732
 21
-2.7067558379250758
 31
0.0
210
0.0
220
1.0
230
-0.0000000000000002
  0
LINE
  5
1128
  8
0
  6
CONTINUOUS
 10
287.1065981747776732
 20
-2.7067558379250758
 30
0.0
 11
285.0673032557236866
 21
-3.657694675916451
 31
0.0
210
0.0
220
1.0
230
-0.0000000000000002
  0
LINE
  5
1129
  8
0
  6
CONTINUOUS
 10
287.1065981747776732
 20
108.7067558379250016
 30
0.0
 11
285.0673032557236866
 21
109.6576946759164031
 31
0.0
210
0.0
220
1.0
230
-0.0000000000000002
  0
ARC
  5
112A
  8
0
  6
CONTINUOUS
 10
-274.5018467122067136
 20
87.0000000000003411
 30
-0.0000000000000193
 40
24.9999999999996412
210
0.0
220
-0.0000000000000002
230
-1.0
 50
90.0
 51
114.9999999999996021
  0
ARC
  5
112B
  8
0
  6
CONTINUOUS
 10
-274.5018467122064862
 20
19.0000000000002416
 30
-0.0000000000000042
 40
25.00000000000027
210
0.0
220
-0.0000000000000002
230
-1.0
 50
245.0000000000003979
 51
270.0
  0
LINE
  5
112C
  8
0
  6
CONTINUOUS
 10
274.5018467122065999
 20
-6.0000000000000488
 30
0.0
 11
259.3397987054592022
 21
-6.0000000000000462
 31
0.0
210
0.0
220
1.0
230
-0.0000000000000002
  0
LINE
  5
112D
  8
0
  6
CONTINUOUS
 10
274.5018467122065999
 20
112.0
 30
0.0
 11
259.3397987054593159
 21
112.0
 31
0.0
210
0.0
220
1.0
230
-0.0000000000000002
  0
ARC
  5
112E
  8
0
  6
CONTINUOUS
 10
-259.3397987054577811
 20
87.0000000000058549
 30
-0.0000000000000193
 40
24.99999999999417
210
0.0
220
-0.0000000000000002
230
-1.0
 50
63.1119523822725128
 51
90.0000000000032543
  0
ARC
  5
112F
  8
0
  6
CONTINUOUS
 10
-259.3397987054577811
 20
18.9999999999940705
 30
-0.0000000000000042
 40
24.9999999999941203
210
0.0
220
-0.0000000000000002
230
-1.0
 50
270.0
 51
296.8880476177282048
  0
ARC
  5
1130
  8
0
  6
CONTINUOUS
 10
-242.6065981747777016
 20
119.9999999999999005
 30
-0.0000000000000266
 40
11.9999999999999307
210
0.0
220
-0.0000000000000002
230
-1.0
 50
243.1119523822725057
 51
270.0
  0
ARC
  5
1131
  8
0
  6
CONTINUOUS
 10
-242.6065981747777016
 20
-14.0000000000000302
 30
0.0000000000000031
 40
12.0
210
0.0
220
-0.0000000000000002
230
-1.0
 50
90.0
 51
116.8880476177274943
  0
LINE
  5
1132
  8
0
  6
CONTINUOUS
 10
242.6065981747777016
 20
-2.0000000000000471
 30
0.0
 11
224.0340870517252085
 21
-2.000000000000044
 31
0.0
210
0.0
220
1.0
230
-0.0000000000000002
  0
LINE
  5
1133
  8
0
  6
CONTINUOUS
 10
242.6065981747777016
 20
108.0
 30
0.0
 11
224.0340870517252085
 21
108.0
 31
0.0
210
0.0
220
1.0
230
-0.0000000000000002
  0
ARC
  5
1134
  8
0
  6
CONTINUOUS
 10
-224.0340870517250096
 20
93.0000000000003837
 30
-0.0000000000000207
 40
14.9999999999996199
210
0.0
220
-0.0000000000000002
230
-1.0
 50
55.6988472432071475
 51
90.0
  0
ARC
  5
1135
  8
0
  6
CONTINUOUS
 10
-224.0340870517250949
 20
12.99999999999973
 30
-0.0000000000000029
 40
14.9999999999997904
210
0.0
220
-0.0000000000000002
230
-1.0
 50
270.0
 51
304.3011527567928738
  0
ARC
  5
1136
  8
0
  6
CONTINUOUS
 10
-211.0726056549094949
 20
111.9999999999999005
 30
-0.0000000000000249
 40
7.9999999999998792
210
0.0
220
-0.0000000000000002
230
-1.0
 50
235.6988472432072115
 51
270.0
  0
ARC
  5
1137
  8
0
  6
CONTINUOUS
 10
-211.0726056549094949
 20
-5.9999999999999414
 30
0.0000000000000013
 40
7.9999999999998916
210
0.0
220
-0.0000000000000002
230
-1.0
 50
90.0
 51
124.3011527567927033
  0
LINE
  5
1138
  8
0
  6
CONTINUOUS
 10
211.0726056549094949
 20
1.9999999999999509
 30
0.0
 11
192.1065981747777016
 21
1.9999999999999549
 31
0.0
210
0.0
220
1.0
230
-0.0000000000000002
  0
LINE
  5
1139
  8
0
  6
CONTINUOUS
 10
211.0726056549094949
 20
104.0
 30
0.0
 11
192.1065981747777016
 21
104.0
 31
0.0
210
0.0
220
1.0
230
-0.0000000000000002
  0
LINE
  5
113A
  8
0
  6
CONTINUOUS
 10
192.1065981747777016
 20
1.9999999999999829
 30
0.0
 11
192.1065981747777016
 21
104.0
 31
0.0
210
0.0
220
1.0
230
-0.0000000000000002
  0
LINE
  5
113B
  8
0
  6
CONTINUOUS
 10
172.2317115395184999
 20
-112.0
 30
0.0
 11
71.9814848100369744
 21
-112.0
 31
0.0
210
0.0
220
1.0
230
-0.0000000000000002
  0
ARC
  5
113C
  8
0
  6
CONTINUOUS
 10
-192.1065981747777016
 20
-17.0000000000000284
 30
0.0000000000000038
 40
121.0
210
0.0
220
-0.0000000000000002
230
-1.0
 50
0.0
 51
90.0
  0
ARC
  5
113D
  8
0
  6
CONTINUOUS
 10
192.1065981747777016
 20
-17.0000000000000284
 30
0.0
 40
19.0
 50
90.0
 51
180.0
  0
LINE
  5
113E
  8
0
  6
CONTINUOUS
 10
71.9814848100369744
 20
-112.0
 30
0.0
 11
71.1522617976767719
 21
-102.5219375980697976
 31
0.0
210
0.0
220
1.0
230
-0.0000000000000002
  0
LINE
  5
113F
  8
0
  6
CONTINUOUS
 10
172.2317115395184999
 20
-112.0
 30
0.0
 11
173.0609345518786881
 21
-102.5219375980697976
 31
0.0
210
0.0
220
1.0
230
-0.0000000000000002
  0
ARC
  5
1140
  8
0
  6
CONTINUOUS
 10
-161.1065981747848923
 20
-101.4760686850982978
 30
0.0000000000000225
 40
11.9999999999928306
210
0.0
220
-0.0000000000000002
230
-1.0
 50
179.9999999999978968
 51
185.0000000000007958
  0
ARC
  5
1141
  8
0
  6
CONTINUOUS
 10
-83.1065981747705678
 20
-101.4760686850982978
 30
0.0000000000000225
 40
11.9999999999928395
210
0.0
220
-0.0000000000000002
230
-1.0
 50
354.9999999999992042
 51
0.0000000000020483
  0
LINE
  5
1142
  8
0
  6
CONTINUOUS
 10
71.10659817477773
 20
-101.4760686850978999
 30
0.0
 11
71.10659817477773
 21
-17.0000000000000213
 31
0.0
210
0.0
220
1.0
230
-0.0000000000000002
  0
LINE
  5
1143
  8
0
  6
CONTINUOUS
 10
173.1065981747777016
 20
-101.4760686850978999
 30
0.0
 11
173.1065981747777016
 21
-17.0000000000000213
 31
0.0
210
0.0
220
1.0
230
-0.0000000000000002
  0
LINE
  5
1144
  8
0
  6
VERDECKT
 62
     1
 10
286.2613616512962835
 20
106.8941402638516962
 30
0.0
 11
286.2613616512962835
 21
-0.8941402638517422
 31
0.0
210
0.0
220
1.0
230
-0.0000000000000002
  0
LINE
  5
1145
  8
0
  6
VERDECKT
 62
     1
 10
211.0726056549094949
 20
3.999999999999952
 30
0.0
 11
192.1065981747777016
 21
3.9999999999999551
 31
0.0
210
0.0
220
1.0
230
-0.0000000000000002
  0
LINE
  5
1146
  8
0
  6
VERDECKT
 62
     1
 10
211.0726056549094949
 20
102.0
 30
0.0
 11
192.1065981747777016
 21
102.0
 31
0.0
210
0.0
220
1.0
230
-0.0000000000000002
  0
ARC
  5
1147
  8
0
  6
VERDECKT
 62
     1
 10
-211.0726056549092959
 20
112.0000000000006963
 30
-0.0000000000000249
 40
10.0000000000006892
210
0.0
220
-0.0000000000000002
230
-1.0
 50
235.6988472432101105
 51
270.0
  0
ARC
  5
1148
  8
0
  6
VERDECKT
 62
     1
 10
-211.0726056549092959
 20
-6.0000000000007443
 30
0.0000000000000013
 40
10.0000000000006999
210
0.0
220
-0.0000000000000002
230
-1.0
 50
90.0
 51
124.3011527567898042
  0
ARC
  5
1149
  8
0
  6
VERDECKT
 62
     1
 10
-224.0340870517254075
 20
92.9999999999996732
 30
-0.0000000000000207
 40
13.0000000000003393
210
0.0
220
-0.0000000000000002
230
-1.0
 50
55.6988472432102526
 51
90.0
  0
ARC
  5
114A
  8
0
  6
VERDECKT
 62
     1
 10
-224.0340870517252085
 20
13.0000000000000409
 30
-0.0000000000000029
 40
13.0000000000000995
210
0.0
220
-0.0000000000000002
230
-1.0
 50
270.0
 51
304.3011527567898042
  0
LINE
  5
114B
  8
0
  6
VERDECKT
 62
     1
 10
242.6063976440960914
 20
-0.0000000000000617
 30
0.0
 11
224.0340870517252085
 21
-0.0000000000000583
 31
0.0
210
0.0
220
1.0
230
-0.0000000000000002
  0
LINE
  5
114C
  8
0
  6
VERDECKT
 62
     1
 10
242.6063976440960914
 20
106.0
 30
0.0
 11
224.0340870517252085
 21
106.0
 31
0.0
210
0.0
220
1.0
230
-0.0000000000000002
  0
ARC
  5
114D
  8
0
  6
VERDECKT
 62
     1
 10
-242.6063976440964041
 20
119.9999999999987068
 30
-0.0000000000000266
 40
13.9999999999986997
210
0.0
220
-0.0000000000000002
230
-1.0
 50
243.1119523822756889
 51
270.0
  0
ARC
  5
114E
  8
0
  6
VERDECKT
 62
     1
 10
-242.6063976440964041
 20
-13.9999999999988702
 30
0.0000000000000031
 40
13.9999999999987992
210
0.0
220
-0.0000000000000002
230
-1.0
 50
90.0
 51
116.8880476177241974
  0
ARC
  5
114F
  8
0
  6
VERDECKT
 62
     1
 10
-259.3395981747775068
 20
87.0000000000002842
 30
-0.0000000000000193
 40
22.99999999999973
210
0.0
220
-0.0000000000000002
230
-1.0
 50
63.1119523822757529
 51
90.0
  0
ARC
  5
1150
  8
0
  6
VERDECKT
 62
     1
 10
-259.3395981747776773
 20
19.0000000000003588
 30
-0.0000000000000042
 40
23.0000000000004192
210
0.0
220
-0.0000000000000002
230
-1.0
 50
270.0
 51
296.8880476177241121
  0
LINE
  5
1151
  8
0
  6
VERDECKT
 62
     1
 10
274.5018467122065999
 20
-4.0000000000000631
 30
0.0
 11
259.3395981747776204
 21
-4.0000000000000586
 31
0.0
210
0.0
220
1.0
230
-0.0000000000000002
  0
LINE
  5
1152
  8
0
  6
VERDECKT
 62
     1
 10
274.5018467122065999
 20
110.0
 30
0.0
 11
259.3395981747776204
 21
110.0
 31
0.0
210
0.0
220
1.0
230
-0.0000000000000002
  0
ARC
  5
1153
  8
0
  6
VERDECKT
 62
     1
 10
-274.5018467122063726
 20
86.9999999999993037
 30
-0.0000000000000193
 40
23.0000000000007283
210
0.0
220
-0.0000000000000002
230
-1.0
 50
90.0
 51
114.9999999999997016
  0
ARC
  5
1154
  8
0
  6
VERDECKT
 62
     1
 10
-274.5018467122063726
 20
19.0000000000006111
 30
-0.0000000000000042
 40
23.0000000000006715
210
0.0
220
-0.0000000000000002
230
-1.0
 50
245.000000000000199
 51
270.0
  0
LINE
  5
1155
  8
0
  6
VERDECKT
 62
     1
 10
286.2613616512962835
 20
-0.8941402638517395
 30
0.0
 11
284.2220667322428085
 21
-1.8450791018429751
 31
0.0
210
0.0
220
1.0
230
-0.0000000000000002
  0
LINE
  5
1156
  8
0
  6
VERDECKT
 62
     1
 10
286.2613616512962835
 20
106.8941402638516962
 30
0.0
 11
284.2220667322428085
 21
107.8450791018428987
 31
0.0
210
0.0
220
1.0
230
-0.0000000000000002
  0
LINE
  5
1157
  8
0
  6
VERDECKT
 62
     1
 10
286.2613616512962835
 20
106.8941402638516962
 30
0.0
 11
287.1065981747776732
 21
108.7067558379250016
 31
0.0
210
0.0
220
1.0
230
-0.0000000000000002
  0
LINE
  5
1158
  8
0
  6
VERDECKT
 62
     1
 10
286.2613616512962835
 20
-0.8941402638517445
 30
0.0
 11
287.1065981747776732
 21
-2.7067558379250731
 31
0.0
210
0.0
220
1.0
230
-0.0000000000000002
  0
LINE
  5
1159
  8
0
  6
VERDECKT
 62
     1
 10
170.2393221433349879
 20
-111.825688514504705
 30
0.0
 11
73.9738742062204437
 21
-111.825688514504705
 31
0.0
210
0.0
220
1.0
230
-0.0000000000000002
  0
ARC
  5
115A
  8
0
  6
VERDECKT
 62
     1
 10
-192.1065981747777869
 20
-17.0000000000000497
 30
0.0000000000000038
 40
119.0
210
0.0
220
-0.0000000000000002
230
-1.0
 50
0.0
 51
90.0
  0
ARC
  5
115B
  8
0
  6
VERDECKT
 62
     1
 10
192.1065981747777016
 20
-17.0000000000000107
 30
0.0
 40
20.9999999999999893
 50
90.0
 51
180.0
  0
ARC
  5
115C
  8
0
  6
VERDECKT
 62
     1
 10
-161.1065981747927083
 20
-101.4760686850983973
 30
0.0000000000000225
 40
9.9999999999850218
210
0.0
220
-0.0000000000000002
230
-1.0
 50
179.9999999999967031
 51
185.0000000000042064
  0
ARC
  5
115D
  8
0
  6
VERDECKT
 62
     1
 10
-83.1065981748222953
 20
-101.4760686850957967
 30
0.0000000000000225
 40
10.0000000000446203
210
0.0
220
-0.0000000000000002
230
-1.0
 50
355.000000000010516
 51
359.9999999999884039
  0
LINE
  5
115E
  8
0
  6
VERDECKT
 62
     1
 10
73.9738742062205006
 20
-111.825688514504705
 30
0.0
 11
73.1446511938602839
 21
-102.3476261125745026
 31
0.0
210
0.0
220
1.0
230
-0.0000000000000002
  0
LINE
  5
115F
  8
0
  6
VERDECKT
 62
     1
 10
170.2393221433349879
 20
-111.8256885145046056
 30
0.0
 11
171.0685451556952046
 21
-102.3476261125745026
 31
0.0
210
0.0
220
1.0
230
-0.0000000000000002
  0
LINE
  5
1160
  8
0
  6
VERDECKT
 62
     1
 10
170.2393221433349879
 20
-111.825688514504705
 30
0.0
 11
172.2317115395184999
 21
-112.0
 31
0.0
210
0.0
220
1.0
230
-0.0000000000000002
  0
LINE
  5
1161
  8
0
  6
VERDECKT
 62
     1
 10
73.9738742062205006
 20
-111.825688514504705
 30
0.0
 11
71.9814848100369744
 21
-112.0
 31
0.0
210
0.0
220
1.0
230
-0.0000000000000002
  0
LINE
  5
1162
  8
0
  6
VERDECKT
 62
     1
 10
73.10659817477773
 20
-101.4760686850978004
 30
0.0
 11
73.10659817477773
 21
-17.0000000000000213
 31
0.0
210
0.0
220
1.0
230
-0.0000000000000002
  0
LINE
  5
1163
  8
0
  6
VERDECKT
 62
     1
 10
171.1065981747777016
 20
-101.4760686850978004
 30
0.0
 11
171.1065981747777016
 21
-17.0000000000000213
 31
0.0
210
0.0
220
1.0
230
-0.0000000000000002
  0
ENDBLK
  5
1165
  8
0
  0
ENDSEC
  0
SECTION
  2
ENTITIES
  0
TEXT
  5
8F
  8
VOLL
 10
78.076754716981128
 20
31.025947764705851
 30
0.0
 40
1.8
  1

  7
GREEKS
  0
INSERT
  5
AF8
  8
ADSK_ASSOC_ENTITY_BACKUPS
  2
*S4
 10
0.0
 20
0.0
 30
0.0
  0
INSERT
  5
1122
  8
STEMPEL
  2
A$C3175DA43
 10
-418.8200285612563221
 20
13.1453292006393703
 30
-46.6841402216485193
  0
INSERT
  5
1166
  8
STEMPEL
  2
A$C2C3BB851
 10
-418.8200285612563221
 20
11.1648264461773596
 30
-46.6841402216484695
  0
VIEWPORT
  5
928
 67
     1
  8
0
 10
106.7645905268370967
 20
149.884633821983499
 30
0.0
 40
533.9969448798291296
 41
299.1239570917758783
 68
     1
 69
     1
1001
ACAD
1000
MVIEW
1002
{
1070
    16
1010
0.0
1020
0.0
1030
0.0
1010
0.0
1020
0.0
1030
1.0
1040
0.0
1040
299.1239570917758783
1040
106.7645905268370967
1040
149.884633821983499
1040
50.0
1040
0.0
1040
0.0
1070
     0
1070
  1500
1070
     1
1070
     1
1070
     0
1070
     0
1070
     0
1070
     0
1040
0.0
1040
0.0
1040
0.0
1040
10.0
1040
10.0
1040
10.0
1040
10.0
1070
     0
1002
{
1002
}
1002
}
  0
ENDSEC
  0
EOF
